  0
SECTION
  2
HEADER
  9
$EXTMIN
 10
-1.427000
 20
-1.739000
  9
$EXTMAX
 10
1.305000
 20
1.755000
  9
$LIMMIN
 10
-1.427000
 20
-1.739000
  9
$LIMMAX
 10
1.305000
 20
1.755000
  9
$FILLMODE
 70
  1
  0
ENDSEC
  0
SECTION
  2
TABLES
  0
TABLE
  2
LTYPE
 70
  1
  0
LTYPE
  2
CONTINUOUS
 70
 64
  3
Solid line
 72
 65
 73
  0
 40
0.0
  0
ENDTAB
  0
TABLE
  2
LAYER
 70
 1
  0
LAYER
  2
0
 70
  0
 62
7
  6
CONTINUOUS
  0
LAYER
  2
gg1
 70
  0
 62
1
  6
CONTINUOUS
  0
ENDTAB
  0
TABLE
  2
STYLE
 70
  1
  0
STYLE
  2
STANDARD
 70
  0
 40
0.0
 41
1.0
 50
0.0
 71
  0
 42
0.2
  3
txt
  4

  0
ENDTAB
  0
ENDSEC
  0
SECTION
  2
BLOCKS
  0
BLOCK
  8
0
  2
D10
 70
64
 10
0.0
 20
0.0
  3
D10
  0
CIRCLE
  8
0
 10
0.000000
 20
0.000000
 40
0.002500
 0
ENDBLK
  8
0
  0
BLOCK
  8
0
  2
D11
 70
64
 10
0.0
 20
0.0
  3
D11
  0
CIRCLE
  8
0
 10
0.000000
 20
0.000000
 40
0.005000
 0
ENDBLK
  8
0
  0
BLOCK
  8
0
  2
D12
 70
64
 10
0.0
 20
0.0
  3
D12
  0
CIRCLE
  8
0
 10
0.000000
 20
0.000000
 40
0.003000
 0
ENDBLK
  8
0
  0
BLOCK
  8
0
  2
D13
 70
64
 10
0.0
 20
0.0
  3
D13
  0
CIRCLE
  8
0
 10
0.000000
 20
0.000000
 40
0.001000
 0
ENDBLK
  8
0
  0
ENDSEC
  0
SECTION
  2
ENTITIES
  0
POLYLINE
  8
gg1
 62
1
 40
0.000000
 41
0.000000
 66
  1
  0
VERTEX
  8
gg1
 10
1.300000
 20
1.132500
  0
VERTEX
  8
gg1
 10
1.300000
 20
1.132500
  0
VERTEX
  8
gg1
 10
1.300000
 20
1.132500
 42
0.190270
  0
VERTEX
  8
gg1
 10
1.273100
 20
1.200700
  0
VERTEX
  8
gg1
 10
1.273100
 20
1.200700
  0
SEQEND
  8
gg1
  0
POLYLINE
  8
gg1
 62
1
 40
0.000000
 41
0.000000
 66
  1
  0
VERTEX
  8
gg1
 10
1.250000
 20
0.425000
  0
VERTEX
  8
gg1
 10
1.250000
 20
0.425000
  0
VERTEX
  8
gg1
 10
1.250000
 20
0.425000
 42
0.414214
  0
VERTEX
  8
gg1
 10
1.300000
 20
0.475000
  0
VERTEX
  8
gg1
 10
1.300000
 20
0.475000
  0
SEQEND
  8
gg1
  0
POLYLINE
  8
gg1
 62
1
 40
0.000000
 41
0.000000
 66
  1
  0
VERTEX
  8
gg1
 10
1.300000
 20
-0.475000
  0
VERTEX
  8
gg1
 10
1.300000
 20
-0.475000
  0
VERTEX
  8
gg1
 10
1.300000
 20
-0.475000
 42
0.414214
  0
VERTEX
  8
gg1
 10
1.250000
 20
-0.425000
  0
VERTEX
  8
gg1
 10
1.250000
 20
-0.425000
  0
SEQEND
  8
gg1
  0
POLYLINE
  8
gg1
 62
1
 40
0.000000
 41
0.000000
 66
  1
  0
VERTEX
  8
gg1
 10
1.090000
 20
0.425000
  0
VERTEX
  8
gg1
 10
1.090000
 20
0.425000
  0
VERTEX
  8
gg1
 10
1.090000
 20
0.425000
 42
0.414214
  0
VERTEX
  8
gg1
 10
1.040000
 20
0.375000
  0
VERTEX
  8
gg1
 10
1.040000
 20
0.375000
  0
SEQEND
  8
gg1
  0
POLYLINE
  8
gg1
 62
1
 40
0.000000
 41
0.000000
 66
  1
  0
VERTEX
  8
gg1
 10
1.040000
 20
-0.375000
  0
VERTEX
  8
gg1
 10
1.040000
 20
-0.375000
  0
VERTEX
  8
gg1
 10
1.040000
 20
-0.375000
 42
0.414214
  0
VERTEX
  8
gg1
 10
1.090000
 20
-0.425000
  0
VERTEX
  8
gg1
 10
1.090000
 20
-0.425000
  0
SEQEND
  8
gg1
  0
POLYLINE
  8
gg1
 62
1
 40
0.000000
 41
0.000000
 66
  1
  0
VERTEX
  8
gg1
 10
1.273100
 20
1.200700
  0
VERTEX
  8
gg1
 10
1.273100
 20
1.200700
  0
VERTEX
  8
gg1
 10
1.273100
 20
1.200700
 42
0.431458
  0
VERTEX
  8
gg1
 10
-1.273100
 20
1.200700
  0
VERTEX
  8
gg1
 10
-1.273100
 20
1.200700
  0
SEQEND
  8
gg1
  0
POLYLINE
  8
gg1
 62
1
 40
0.000000
 41
0.000000
 66
  1
  0
VERTEX
  8
gg1
 10
-1.040000
 20
0.375000
  0
VERTEX
  8
gg1
 10
-1.040000
 20
0.375000
  0
VERTEX
  8
gg1
 10
-1.040000
 20
0.375000
 42
0.414214
  0
VERTEX
  8
gg1
 10
-1.090000
 20
0.425000
  0
VERTEX
  8
gg1
 10
-1.090000
 20
0.425000
  0
SEQEND
  8
gg1
  0
POLYLINE
  8
gg1
 62
1
 40
0.000000
 41
0.000000
 66
  1
  0
VERTEX
  8
gg1
 10
-1.090000
 20
-0.425000
  0
VERTEX
  8
gg1
 10
-1.090000
 20
-0.425000
  0
VERTEX
  8
gg1
 10
-1.090000
 20
-0.425000
 42
0.414214
  0
VERTEX
  8
gg1
 10
-1.040000
 20
-0.375000
  0
VERTEX
  8
gg1
 10
-1.040000
 20
-0.375000
  0
SEQEND
  8
gg1
  0
POLYLINE
  8
gg1
 62
1
 40
0.000000
 41
0.000000
 66
  1
  0
VERTEX
  8
gg1
 10
-1.300000
 20
0.475000
  0
VERTEX
  8
gg1
 10
-1.300000
 20
0.475000
  0
VERTEX
  8
gg1
 10
-1.300000
 20
0.475000
 42
0.414214
  0
VERTEX
  8
gg1
 10
-1.250000
 20
0.425000
  0
VERTEX
  8
gg1
 10
-1.250000
 20
0.425000
  0
SEQEND
  8
gg1
  0
POLYLINE
  8
gg1
 62
1
 40
0.000000
 41
0.000000
 66
  1
  0
VERTEX
  8
gg1
 10
-1.250000
 20
-0.425000
  0
VERTEX
  8
gg1
 10
-1.250000
 20
-0.425000
  0
VERTEX
  8
gg1
 10
-1.250000
 20
-0.425000
 42
0.414214
  0
VERTEX
  8
gg1
 10
-1.300000
 20
-0.475000
  0
VERTEX
  8
gg1
 10
-1.300000
 20
-0.475000
  0
SEQEND
  8
gg1
  0
POLYLINE
  8
gg1
 62
1
 40
0.000000
 41
0.000000
 66
  1
  0
VERTEX
  8
gg1
 10
-1.273100
 20
1.200700
  0
VERTEX
  8
gg1
 10
-1.273100
 20
1.200700
  0
VERTEX
  8
gg1
 10
-1.273100
 20
1.200700
 42
0.189567
  0
VERTEX
  8
gg1
 10
-1.300000
 20
1.132500
  0
VERTEX
  8
gg1
 10
-1.300000
 20
1.132500
  0
SEQEND
  8
gg1
  0
POLYLINE
  8
gg1
 62
1
 40
0.000000
 41
0.000000
 66
  1
  0
VERTEX
  8
gg1
 10
1.271900
 20
-1.238100
  0
VERTEX
  8
gg1
 10
1.271900
 20
-1.238100
  0
VERTEX
  8
gg1
 10
1.271900
 20
-1.238100
 42
0.194496
  0
VERTEX
  8
gg1
 10
1.300000
 20
-1.168600
  0
VERTEX
  8
gg1
 10
1.300000
 20
-1.168600
  0
SEQEND
  8
gg1
  0
POLYLINE
  8
gg1
 62
1
 40
0.000000
 41
0.000000
 66
  1
  0
VERTEX
  8
gg1
 10
0.801700
 20
-1.583700
  0
VERTEX
  8
gg1
 10
0.801700
 20
-1.583700
  0
VERTEX
  8
gg1
 10
0.801700
 20
-1.583700
 42
0.082851
  0
VERTEX
  8
gg1
 10
1.271900
 20
-1.238100
  0
VERTEX
  8
gg1
 10
1.271900
 20
-1.238100
  0
SEQEND
  8
gg1
  0
POLYLINE
  8
gg1
 62
1
 40
0.000000
 41
0.000000
 66
  1
  0
VERTEX
  8
gg1
 10
0.733600
 20
-1.600000
  0
VERTEX
  8
gg1
 10
0.733600
 20
-1.600000
  0
VERTEX
  8
gg1
 10
0.733600
 20
-1.600000
 42
0.117689
  0
VERTEX
  8
gg1
 10
0.801700
 20
-1.583700
  0
VERTEX
  8
gg1
 10
0.801700
 20
-1.583700
  0
SEQEND
  8
gg1
  0
POLYLINE
  8
gg1
 62
1
 40
0.000000
 41
0.000000
 66
  1
  0
VERTEX
  8
gg1
 10
-0.801700
 20
-1.583700
  0
VERTEX
  8
gg1
 10
-0.801700
 20
-1.583700
  0
VERTEX
  8
gg1
 10
-0.801700
 20
-1.583700
 42
0.118955
  0
VERTEX
  8
gg1
 10
-0.733600
 20
-1.600000
  0
VERTEX
  8
gg1
 10
-0.733600
 20
-1.600000
  0
SEQEND
  8
gg1
  0
POLYLINE
  8
gg1
 62
1
 40
0.000000
 41
0.000000
 66
  1
  0
VERTEX
  8
gg1
 10
-1.271900
 20
-1.238100
  0
VERTEX
  8
gg1
 10
-1.271900
 20
-1.238100
  0
VERTEX
  8
gg1
 10
-1.271900
 20
-1.238100
 42
0.082651
  0
VERTEX
  8
gg1
 10
-0.801700
 20
-1.583700
  0
VERTEX
  8
gg1
 10
-0.801700
 20
-1.583700
  0
SEQEND
  8
gg1
  0
POLYLINE
  8
gg1
 62
1
 40
0.000000
 41
0.000000
 66
  1
  0
VERTEX
  8
gg1
 10
-1.300000
 20
-1.168600
  0
VERTEX
  8
gg1
 10
-1.300000
 20
-1.168600
  0
VERTEX
  8
gg1
 10
-1.300000
 20
-1.168600
 42
0.194515
  0
VERTEX
  8
gg1
 10
-1.271900
 20
-1.238100
  0
VERTEX
  8
gg1
 10
-1.271900
 20
-1.238100
  0
SEQEND
  8
gg1
  0
POLYLINE
  8
gg1
 62
1
 40
0.000000
 41
0.000000
 66
  1
  0
VERTEX
  8
gg1
 10
1.300000
 20
0.475000
  0
VERTEX
  8
gg1
 10
1.300000
 20
1.132500
  0
SEQEND
  8
gg1
  0
POLYLINE
  8
gg1
 62
1
 40
0.000000
 41
0.000000
 66
  1
  0
VERTEX
  8
gg1
 10
1.090000
 20
0.425000
  0
VERTEX
  8
gg1
 10
1.250000
 20
0.425000
  0
SEQEND
  8
gg1
  0
POLYLINE
  8
gg1
 62
1
 40
0.000000
 41
0.000000
 66
  1
  0
VERTEX
  8
gg1
 10
1.090000
 20
-0.425000
  0
VERTEX
  8
gg1
 10
1.250000
 20
-0.425000
  0
SEQEND
  8
gg1
  0
POLYLINE
  8
gg1
 62
1
 40
0.000000
 41
0.000000
 66
  1
  0
VERTEX
  8
gg1
 10
1.040000
 20
-0.375000
  0
VERTEX
  8
gg1
 10
1.040000
 20
0.375000
  0
SEQEND
  8
gg1
  0
POLYLINE
  8
gg1
 62
1
 40
0.000000
 41
0.000000
 66
  1
  0
VERTEX
  8
gg1
 10
-1.040000
 20
-0.375000
  0
VERTEX
  8
gg1
 10
-1.040000
 20
0.375000
  0
SEQEND
  8
gg1
  0
POLYLINE
  8
gg1
 62
1
 40
0.000000
 41
0.000000
 66
  1
  0
VERTEX
  8
gg1
 10
-1.250000
 20
0.425000
  0
VERTEX
  8
gg1
 10
-1.090000
 20
0.425000
  0
SEQEND
  8
gg1
  0
POLYLINE
  8
gg1
 62
1
 40
0.000000
 41
0.000000
 66
  1
  0
VERTEX
  8
gg1
 10
-1.250000
 20
-0.425000
  0
VERTEX
  8
gg1
 10
-1.090000
 20
-0.425000
  0
SEQEND
  8
gg1
  0
POLYLINE
  8
gg1
 62
1
 40
0.000000
 41
0.000000
 66
  1
  0
VERTEX
  8
gg1
 10
-1.300000
 20
0.475000
  0
VERTEX
  8
gg1
 10
-1.300000
 20
1.132500
  0
SEQEND
  8
gg1
  0
POLYLINE
  8
gg1
 62
1
 40
0.000000
 41
0.000000
 66
  1
  0
VERTEX
  8
gg1
 10
1.300000
 20
-1.168600
  0
VERTEX
  8
gg1
 10
1.300000
 20
-0.475000
  0
SEQEND
  8
gg1
  0
POLYLINE
  8
gg1
 62
1
 40
0.000000
 41
0.000000
 66
  1
  0
VERTEX
  8
gg1
 10
-0.733600
 20
-1.600000
  0
VERTEX
  8
gg1
 10
0.733600
 20
-1.600000
  0
SEQEND
  8
gg1
  0
POLYLINE
  8
gg1
 62
1
 40
0.000000
 41
0.000000
 66
  1
  0
VERTEX
  8
gg1
 10
-1.300000
 20
-1.168600
  0
VERTEX
  8
gg1
 10
-1.300000
 20
-0.475000
  0
SEQEND
  8
gg1
  0
POLYLINE
  8
gg1
 62
1
 40
0.000000
 41
0.000000
 66
  1
  0
VERTEX
  8
gg1
 10
-1.300000
 20
-1.700000
  0
VERTEX
  8
gg1
 10
-1.240000
 20
-1.680000
  0
SEQEND
  8
gg1
  0
POLYLINE
  8
gg1
 62
1
 40
0.000000
 41
0.000000
 66
  1
  0
VERTEX
  8
gg1
 10
-1.300000
 20
-1.700000
  0
VERTEX
  8
gg1
 10
-1.240000
 20
-1.720000
  0
SEQEND
  8
gg1
  0
POLYLINE
  8
gg1
 62
1
 40
0.000000
 41
0.000000
 66
  1
  0
VERTEX
  8
gg1
 10
1.240000
 20
-1.720000
  0
VERTEX
  8
gg1
 10
1.300000
 20
-1.700000
  0
SEQEND
  8
gg1
  0
POLYLINE
  8
gg1
 62
1
 40
0.000000
 41
0.000000
 66
  1
  0
VERTEX
  8
gg1
 10
1.240000
 20
-1.680000
  0
VERTEX
  8
gg1
 10
1.300000
 20
-1.700000
  0
SEQEND
  8
gg1
  0
POLYLINE
  8
gg1
 62
1
 40
0.000000
 41
0.000000
 66
  1
  0
VERTEX
  8
gg1
 10
-1.300000
 20
-1.700000
  0
VERTEX
  8
gg1
 10
-0.216900
 20
-1.700000
  0
SEQEND
  8
gg1
  0
POLYLINE
  8
gg1
 62
1
 40
0.000000
 41
0.000000
 66
  1
  0
VERTEX
  8
gg1
 10
0.184900
 20
-1.700000
  0
VERTEX
  8
gg1
 10
1.300000
 20
-1.700000
  0
SEQEND
  8
gg1
  0
POLYLINE
  8
gg1
 62
1
 40
0.000000
 41
0.000000
 66
  1
  0
VERTEX
  8
gg1
 10
-1.300000
 20
-1.710000
  0
VERTEX
  8
gg1
 10
-1.300000
 20
-1.221100
  0
SEQEND
  8
gg1
  0
POLYLINE
  8
gg1
 62
1
 40
0.000000
 41
0.000000
 66
  1
  0
VERTEX
  8
gg1
 10
1.300000
 20
-1.710000
  0
VERTEX
  8
gg1
 10
1.300000
 20
-1.221100
  0
SEQEND
  8
gg1
  0
POLYLINE
  8
gg1
 62
1
 40
0.000000
 41
0.000000
 66
  1
  0
VERTEX
  8
gg1
 10
-1.420000
 20
-1.540000
  0
VERTEX
  8
gg1
 10
-1.400000
 20
-1.600000
  0
VERTEX
  8
gg1
 10
-1.380000
 20
-1.540000
  0
SEQEND
  8
gg1
  0
POLYLINE
  8
gg1
 62
1
 40
0.000000
 41
0.000000
 66
  1
  0
VERTEX
  8
gg1
 10
-1.400000
 20
1.750000
  0
VERTEX
  8
gg1
 10
-1.380000
 20
1.690000
  0
SEQEND
  8
gg1
  0
POLYLINE
  8
gg1
 62
1
 40
0.000000
 41
0.000000
 66
  1
  0
VERTEX
  8
gg1
 10
-1.420000
 20
1.690000
  0
VERTEX
  8
gg1
 10
-1.400000
 20
1.750000
  0
SEQEND
  8
gg1
  0
POLYLINE
  8
gg1
 62
1
 40
0.000000
 41
0.000000
 66
  1
  0
VERTEX
  8
gg1
 10
-1.400000
 20
-1.600000
  0
VERTEX
  8
gg1
 10
-1.400000
 20
-0.141900
  0
SEQEND
  8
gg1
  0
POLYLINE
  8
gg1
 62
1
 40
0.000000
 41
0.000000
 66
  1
  0
VERTEX
  8
gg1
 10
-1.400000
 20
0.259900
  0
VERTEX
  8
gg1
 10
-1.400000
 20
1.750000
  0
SEQEND
  8
gg1
  0
POLYLINE
  8
gg1
 62
1
 40
0.000000
 41
0.000000
 66
  1
  0
VERTEX
  8
gg1
 10
-1.410000
 20
-1.600000
  0
VERTEX
  8
gg1
 10
-0.936100
 20
-1.600000
  0
SEQEND
  8
gg1
  0
POLYLINE
  8
gg1
 62
1
 40
0.000000
 41
0.000000
 66
  1
  0
VERTEX
  8
gg1
 10
-1.410000
 20
1.750000
  0
VERTEX
  8
gg1
 10
-0.202500
 20
1.750000
  0
SEQEND
  8
gg1
  0
POLYLINE
  8
gg1
 62
1
 40
0.000000
 41
0.000000
 66
  1
  0
VERTEX
  8
gg1
 10
-0.161000
 20
-1.736000
  0
VERTEX
  8
gg1
 10
-0.200900
 20
-1.736000
  0
VERTEX
  8
gg1
 10
-0.161000
 20
-1.696000
  0
VERTEX
  8
gg1
 10
-0.161000
 20
-1.686000
  0
VERTEX
  8
gg1
 10
-0.170900
 20
-1.676000
  0
VERTEX
  8
gg1
 10
-0.190900
 20
-1.676000
  0
VERTEX
  8
gg1
 10
-0.200900
 20
-1.686000
  0
SEQEND
  8
gg1
  0
POLYLINE
  8
gg1
 62
1
 40
0.000000
 41
0.000000
 66
  1
  0
VERTEX
  8
gg1
 10
-0.101000
 20
-1.676000
  0
VERTEX
  8
gg1
 10
-0.121000
 20
-1.686000
  0
VERTEX
  8
gg1
 10
-0.141000
 20
-1.706000
  0
VERTEX
  8
gg1
 10
-0.141000
 20
-1.726000
  0
VERTEX
  8
gg1
 10
-0.131000
 20
-1.736000
  0
VERTEX
  8
gg1
 10
-0.111000
 20
-1.736000
  0
VERTEX
  8
gg1
 10
-0.101000
 20
-1.726000
  0
VERTEX
  8
gg1
 10
-0.101000
 20
-1.716000
  0
VERTEX
  8
gg1
 10
-0.111000
 20
-1.706000
  0
VERTEX
  8
gg1
 10
-0.141000
 20
-1.706000
  0
SEQEND
  8
gg1
  0
POLYLINE
  8
gg1
 62
1
 40
0.000000
 41
0.000000
 66
  1
  0
VERTEX
  8
gg1
 10
-0.081000
 20
-1.686000
  0
VERTEX
  8
gg1
 10
-0.071000
 20
-1.676000
  0
VERTEX
  8
gg1
 10
-0.051000
 20
-1.676000
  0
VERTEX
  8
gg1
 10
-0.041000
 20
-1.686000
  0
VERTEX
  8
gg1
 10
-0.041000
 20
-1.726000
  0
VERTEX
  8
gg1
 10
-0.051000
 20
-1.736000
  0
VERTEX
  8
gg1
 10
-0.071000
 20
-1.736000
  0
VERTEX
  8
gg1
 10
-0.081000
 20
-1.726000
  0
VERTEX
  8
gg1
 10
-0.081000
 20
-1.686000
  0
SEQEND
  8
gg1
  0
POLYLINE
  8
gg1
 62
1
 40
0.000000
 41
0.000000
 66
  1
  0
VERTEX
  8
gg1
 10
-0.021000
 20
-1.686000
  0
VERTEX
  8
gg1
 10
-0.011000
 20
-1.676000
  0
VERTEX
  8
gg1
 10
0.009000
 20
-1.676000
  0
VERTEX
  8
gg1
 10
0.019000
 20
-1.686000
  0
VERTEX
  8
gg1
 10
0.019000
 20
-1.726000
  0
VERTEX
  8
gg1
 10
0.009000
 20
-1.736000
  0
VERTEX
  8
gg1
 10
-0.011000
 20
-1.736000
  0
VERTEX
  8
gg1
 10
-0.021000
 20
-1.726000
  0
VERTEX
  8
gg1
 10
-0.021000
 20
-1.686000
  0
SEQEND
  8
gg1
  0
POLYLINE
  8
gg1
 62
1
 40
0.000000
 41
0.000000
 66
  1
  0
VERTEX
  8
gg1
 10
0.039000
 20
-1.736000
  0
VERTEX
  8
gg1
 10
0.039000
 20
-1.696000
  0
VERTEX
  8
gg1
 10
0.049000
 20
-1.696000
  0
VERTEX
  8
gg1
 10
0.059000
 20
-1.706000
  0
VERTEX
  8
gg1
 10
0.059000
 20
-1.736000
  0
VERTEX
  8
gg1
 10
0.059000
 20
-1.706000
  0
VERTEX
  8
gg1
 10
0.069000
 20
-1.696000
  0
VERTEX
  8
gg1
 10
0.079000
 20
-1.706000
  0
VERTEX
  8
gg1
 10
0.079000
 20
-1.736000
  0
SEQEND
  8
gg1
  0
POLYLINE
  8
gg1
 62
1
 40
0.000000
 41
0.000000
 66
  1
  0
VERTEX
  8
gg1
 10
0.099000
 20
-1.736000
  0
VERTEX
  8
gg1
 10
0.119000
 20
-1.736000
  0
VERTEX
  8
gg1
 10
0.109000
 20
-1.736000
  0
VERTEX
  8
gg1
 10
0.109000
 20
-1.696000
  0
VERTEX
  8
gg1
 10
0.099000
 20
-1.696000
  0
SEQEND
  8
gg1
  0
POLYLINE
  8
gg1
 62
1
 40
0.000000
 41
0.000000
 66
  1
  0
VERTEX
  8
gg1
 10
0.148900
 20
-1.736000
  0
VERTEX
  8
gg1
 10
0.168900
 20
-1.736000
  0
VERTEX
  8
gg1
 10
0.158900
 20
-1.736000
  0
VERTEX
  8
gg1
 10
0.158900
 20
-1.676000
  0
VERTEX
  8
gg1
 10
0.148900
 20
-1.676000
  0
SEQEND
  8
gg1
  0
POLYLINE
  8
gg1
 62
1
 40
0.000000
 41
0.000000
 66
  1
  0
VERTEX
  8
gg1
 10
-1.414000
 20
-0.125900
  0
VERTEX
  8
gg1
 10
-1.424000
 20
-0.115900
  0
VERTEX
  8
gg1
 10
-1.424000
 20
-0.095900
  0
VERTEX
  8
gg1
 10
-1.414000
 20
-0.086000
  0
VERTEX
  8
gg1
 10
-1.404000
 20
-0.086000
  0
VERTEX
  8
gg1
 10
-1.394000
 20
-0.095900
  0
VERTEX
  8
gg1
 10
-1.394000
 20
-0.105900
  0
VERTEX
  8
gg1
 10
-1.394000
 20
-0.095900
  0
VERTEX
  8
gg1
 10
-1.384000
 20
-0.086000
  0
VERTEX
  8
gg1
 10
-1.374000
 20
-0.086000
  0
VERTEX
  8
gg1
 10
-1.364000
 20
-0.095900
  0
VERTEX
  8
gg1
 10
-1.364000
 20
-0.115900
  0
VERTEX
  8
gg1
 10
-1.374000
 20
-0.125900
  0
SEQEND
  8
gg1
  0
POLYLINE
  8
gg1
 62
1
 40
0.000000
 41
0.000000
 66
  1
  0
VERTEX
  8
gg1
 10
-1.414000
 20
-0.066000
  0
VERTEX
  8
gg1
 10
-1.424000
 20
-0.056000
  0
VERTEX
  8
gg1
 10
-1.424000
 20
-0.036000
  0
VERTEX
  8
gg1
 10
-1.414000
 20
-0.026000
  0
VERTEX
  8
gg1
 10
-1.404000
 20
-0.026000
  0
VERTEX
  8
gg1
 10
-1.394000
 20
-0.036000
  0
VERTEX
  8
gg1
 10
-1.394000
 20
-0.046000
  0
VERTEX
  8
gg1
 10
-1.394000
 20
-0.036000
  0
VERTEX
  8
gg1
 10
-1.384000
 20
-0.026000
  0
VERTEX
  8
gg1
 10
-1.374000
 20
-0.026000
  0
VERTEX
  8
gg1
 10
-1.364000
 20
-0.036000
  0
VERTEX
  8
gg1
 10
-1.364000
 20
-0.056000
  0
VERTEX
  8
gg1
 10
-1.374000
 20
-0.066000
  0
SEQEND
  8
gg1
  0
POLYLINE
  8
gg1
 62
1
 40
0.000000
 41
0.000000
 66
  1
  0
VERTEX
  8
gg1
 10
-1.424000
 20
0.034000
  0
VERTEX
  8
gg1
 10
-1.424000
 20
-0.006000
  0
VERTEX
  8
gg1
 10
-1.394000
 20
-0.006000
  0
VERTEX
  8
gg1
 10
-1.404000
 20
0.014000
  0
VERTEX
  8
gg1
 10
-1.404000
 20
0.024000
  0
VERTEX
  8
gg1
 10
-1.394000
 20
0.034000
  0
VERTEX
  8
gg1
 10
-1.374000
 20
0.034000
  0
VERTEX
  8
gg1
 10
-1.364000
 20
0.024000
  0
VERTEX
  8
gg1
 10
-1.364000
 20
0.004000
  0
VERTEX
  8
gg1
 10
-1.374000
 20
-0.006000
  0
SEQEND
  8
gg1
  0
POLYLINE
  8
gg1
 62
1
 40
0.000000
 41
0.000000
 66
  1
  0
VERTEX
  8
gg1
 10
-1.414000
 20
0.054000
  0
VERTEX
  8
gg1
 10
-1.424000
 20
0.064000
  0
VERTEX
  8
gg1
 10
-1.424000
 20
0.084000
  0
VERTEX
  8
gg1
 10
-1.414000
 20
0.094000
  0
VERTEX
  8
gg1
 10
-1.374000
 20
0.094000
  0
VERTEX
  8
gg1
 10
-1.364000
 20
0.084000
  0
VERTEX
  8
gg1
 10
-1.364000
 20
0.064000
  0
VERTEX
  8
gg1
 10
-1.374000
 20
0.054000
  0
VERTEX
  8
gg1
 10
-1.414000
 20
0.054000
  0
SEQEND
  8
gg1
  0
POLYLINE
  8
gg1
 62
1
 40
0.000000
 41
0.000000
 66
  1
  0
VERTEX
  8
gg1
 10
-1.364000
 20
0.114000
  0
VERTEX
  8
gg1
 10
-1.404000
 20
0.114000
  0
VERTEX
  8
gg1
 10
-1.404000
 20
0.124000
  0
VERTEX
  8
gg1
 10
-1.394000
 20
0.134000
  0
VERTEX
  8
gg1
 10
-1.364000
 20
0.134000
  0
VERTEX
  8
gg1
 10
-1.394000
 20
0.134000
  0
VERTEX
  8
gg1
 10
-1.404000
 20
0.144000
  0
VERTEX
  8
gg1
 10
-1.394000
 20
0.154000
  0
VERTEX
  8
gg1
 10
-1.364000
 20
0.154000
  0
SEQEND
  8
gg1
  0
POLYLINE
  8
gg1
 62
1
 40
0.000000
 41
0.000000
 66
  1
  0
VERTEX
  8
gg1
 10
-1.364000
 20
0.174000
  0
VERTEX
  8
gg1
 10
-1.364000
 20
0.194000
  0
VERTEX
  8
gg1
 10
-1.364000
 20
0.184000
  0
VERTEX
  8
gg1
 10
-1.404000
 20
0.184000
  0
VERTEX
  8
gg1
 10
-1.404000
 20
0.174000
  0
SEQEND
  8
gg1
  0
POLYLINE
  8
gg1
 62
1
 40
0.000000
 41
0.000000
 66
  1
  0
VERTEX
  8
gg1
 10
-1.364000
 20
0.223900
  0
VERTEX
  8
gg1
 10
-1.364000
 20
0.243900
  0
VERTEX
  8
gg1
 10
-1.364000
 20
0.233900
  0
VERTEX
  8
gg1
 10
-1.424000
 20
0.233900
  0
VERTEX
  8
gg1
 10
-1.424000
 20
0.223900
  0
SEQEND
  8
gg1
  0
POLYLINE
  8
gg1
 62
1
 40
0.000000
 41
0.000000
 66
  1
  0
VERTEX
  8
gg1
 10
0.980100
 20
-1.110200
  0
VERTEX
  8
gg1
 10
1.012100
 20
-1.110200
  0
SEQEND
  8
gg1
  0
POLYLINE
  8
gg1
 62
1
 40
0.000000
 41
0.000000
 66
  1
  0
VERTEX
  8
gg1
 10
0.996100
 20
-1.126200
  0
VERTEX
  8
gg1
 10
0.996100
 20
-1.094200
  0
SEQEND
  8
gg1
  0
POLYLINE
  8
gg1
 62
1
 40
0.000000
 41
0.000000
 66
  1
  0
VERTEX
  8
gg1
 10
0.980100
 20
-0.685000
  0
VERTEX
  8
gg1
 10
1.012100
 20
-0.685000
  0
SEQEND
  8
gg1
  0
POLYLINE
  8
gg1
 62
1
 40
0.000000
 41
0.000000
 66
  1
  0
VERTEX
  8
gg1
 10
0.996100
 20
-0.701000
  0
VERTEX
  8
gg1
 10
0.996100
 20
-0.669000
  0
SEQEND
  8
gg1
  0
POLYLINE
  8
gg1
 62
1
 40
0.000000
 41
0.000000
 66
  1
  0
VERTEX
  8
gg1
 10
0.980100
 20
0.507900
  0
VERTEX
  8
gg1
 10
1.012100
 20
0.507900
  0
SEQEND
  8
gg1
  0
POLYLINE
  8
gg1
 62
1
 40
0.000000
 41
0.000000
 66
  1
  0
VERTEX
  8
gg1
 10
0.996100
 20
0.491900
  0
VERTEX
  8
gg1
 10
0.996100
 20
0.523900
  0
SEQEND
  8
gg1
  0
POLYLINE
  8
gg1
 62
1
 40
0.000000
 41
0.000000
 66
  1
  0
VERTEX
  8
gg1
 10
0.980100
 20
0.933100
  0
VERTEX
  8
gg1
 10
1.012100
 20
0.933100
  0
SEQEND
  8
gg1
  0
POLYLINE
  8
gg1
 62
1
 40
0.000000
 41
0.000000
 66
  1
  0
VERTEX
  8
gg1
 10
0.996100
 20
0.917100
  0
VERTEX
  8
gg1
 10
0.996100
 20
0.949100
  0
SEQEND
  8
gg1
  0
POLYLINE
  8
gg1
 62
1
 40
0.000000
 41
0.000000
 66
  1
  0
VERTEX
  8
gg1
 10
-0.492400
 20
-0.147600
  0
VERTEX
  8
gg1
 10
-0.452400
 20
-0.147600
  0
SEQEND
  8
gg1
  0
POLYLINE
  8
gg1
 62
1
 40
0.000000
 41
0.000000
 66
  1
  0
VERTEX
  8
gg1
 10
-0.472400
 20
-0.167600
  0
VERTEX
  8
gg1
 10
-0.472400
 20
-0.127600
  0
SEQEND
  8
gg1
  0
POLYLINE
  8
gg1
 62
1
 40
0.000000
 41
0.000000
 66
  1
  0
VERTEX
  8
gg1
 10
-0.492400
 20
0.147600
  0
VERTEX
  8
gg1
 10
-0.452400
 20
0.147600
  0
SEQEND
  8
gg1
  0
POLYLINE
  8
gg1
 62
1
 40
0.000000
 41
0.000000
 66
  1
  0
VERTEX
  8
gg1
 10
-0.472400
 20
0.127600
  0
VERTEX
  8
gg1
 10
-0.472400
 20
0.167600
  0
SEQEND
  8
gg1
  0
POLYLINE
  8
gg1
 62
1
 40
0.000000
 41
0.000000
 66
  1
  0
VERTEX
  8
gg1
 10
0.452400
 20
-0.147600
  0
VERTEX
  8
gg1
 10
0.492400
 20
-0.147600
  0
SEQEND
  8
gg1
  0
POLYLINE
  8
gg1
 62
1
 40
0.000000
 41
0.000000
 66
  1
  0
VERTEX
  8
gg1
 10
0.472400
 20
-0.167600
  0
VERTEX
  8
gg1
 10
0.472400
 20
-0.127600
  0
SEQEND
  8
gg1
  0
POLYLINE
  8
gg1
 62
1
 40
0.000000
 41
0.000000
 66
  1
  0
VERTEX
  8
gg1
 10
0.452400
 20
0.147600
  0
VERTEX
  8
gg1
 10
0.492400
 20
0.147600
  0
SEQEND
  8
gg1
  0
POLYLINE
  8
gg1
 62
1
 40
0.000000
 41
0.000000
 66
  1
  0
VERTEX
  8
gg1
 10
0.472400
 20
0.127600
  0
VERTEX
  8
gg1
 10
0.472400
 20
0.167600
  0
SEQEND
  8
gg1
  0
POLYLINE
  8
gg1
 62
1
 40
0.000000
 41
0.000000
 66
  1
  0
VERTEX
  8
gg1
 10
0.505000
 20
-1.200000
  0
VERTEX
  8
gg1
 10
0.545000
 20
-1.200000
  0
SEQEND
  8
gg1
  0
POLYLINE
  8
gg1
 62
1
 40
0.000000
 41
0.000000
 66
  1
  0
VERTEX
  8
gg1
 10
0.525000
 20
-1.220000
  0
VERTEX
  8
gg1
 10
0.525000
 20
-1.180000
  0
SEQEND
  8
gg1
  0
POLYLINE
  8
gg1
 62
1
 40
0.000000
 41
0.000000
 66
  1
  0
VERTEX
  8
gg1
 10
0.105000
 20
-1.200000
  0
VERTEX
  8
gg1
 10
0.145000
 20
-1.200000
  0
SEQEND
  8
gg1
  0
POLYLINE
  8
gg1
 62
1
 40
0.000000
 41
0.000000
 66
  1
  0
VERTEX
  8
gg1
 10
0.125000
 20
-1.220000
  0
VERTEX
  8
gg1
 10
0.125000
 20
-1.180000
  0
SEQEND
  8
gg1
  0
POLYLINE
  8
gg1
 62
1
 40
0.000000
 41
0.000000
 66
  1
  0
VERTEX
  8
gg1
 10
-0.195000
 20
-1.200000
  0
VERTEX
  8
gg1
 10
-0.155000
 20
-1.200000
  0
SEQEND
  8
gg1
  0
POLYLINE
  8
gg1
 62
1
 40
0.000000
 41
0.000000
 66
  1
  0
VERTEX
  8
gg1
 10
-0.175000
 20
-1.220000
  0
VERTEX
  8
gg1
 10
-0.175000
 20
-1.180000
  0
SEQEND
  8
gg1
  0
POLYLINE
  8
gg1
 62
1
 40
0.000000
 41
0.000000
 66
  1
  0
VERTEX
  8
gg1
 10
0.340000
 20
0.325000
  0
VERTEX
  8
gg1
 10
0.360000
 20
0.325000
  0
SEQEND
  8
gg1
  0
POLYLINE
  8
gg1
 62
1
 40
0.000000
 41
0.000000
 66
  1
  0
VERTEX
  8
gg1
 10
0.350000
 20
0.315000
  0
VERTEX
  8
gg1
 10
0.350000
 20
0.335000
  0
SEQEND
  8
gg1
  0
POLYLINE
  8
gg1
 62
1
 40
0.000000
 41
0.000000
 66
  1
  0
VERTEX
  8
gg1
 10
0.070000
 20
-0.555000
  0
VERTEX
  8
gg1
 10
0.090000
 20
-0.555000
  0
SEQEND
  8
gg1
  0
POLYLINE
  8
gg1
 62
1
 40
0.000000
 41
0.000000
 66
  1
  0
VERTEX
  8
gg1
 10
0.080000
 20
-0.565000
  0
VERTEX
  8
gg1
 10
0.080000
 20
-0.545000
  0
SEQEND
  8
gg1
  0
POLYLINE
  8
gg1
 62
1
 40
0.000000
 41
0.000000
 66
  1
  0
VERTEX
  8
gg1
 10
0.180000
 20
-0.315000
  0
VERTEX
  8
gg1
 10
0.200000
 20
-0.315000
  0
SEQEND
  8
gg1
  0
POLYLINE
  8
gg1
 62
1
 40
0.000000
 41
0.000000
 66
  1
  0
VERTEX
  8
gg1
 10
0.190000
 20
-0.325000
  0
VERTEX
  8
gg1
 10
0.190000
 20
-0.305000
  0
SEQEND
  8
gg1
  0
POLYLINE
  8
gg1
 62
1
 40
0.000000
 41
0.000000
 66
  1
  0
VERTEX
  8
gg1
 10
0.265000
 20
-1.015000
  0
VERTEX
  8
gg1
 10
0.285000
 20
-1.015000
  0
SEQEND
  8
gg1
  0
POLYLINE
  8
gg1
 62
1
 40
0.000000
 41
0.000000
 66
  1
  0
VERTEX
  8
gg1
 10
0.275000
 20
-1.025000
  0
VERTEX
  8
gg1
 10
0.275000
 20
-1.005000
  0
SEQEND
  8
gg1
  0
POLYLINE
  8
gg1
 62
1
 40
0.000000
 41
0.000000
 66
  1
  0
VERTEX
  8
gg1
 10
0.230300
 20
0.245000
  0
VERTEX
  8
gg1
 10
0.269700
 20
0.245000
  0
SEQEND
  8
gg1
  0
POLYLINE
  8
gg1
 62
1
 40
0.000000
 41
0.000000
 66
  1
  0
VERTEX
  8
gg1
 10
0.250000
 20
0.225300
  0
VERTEX
  8
gg1
 10
0.250000
 20
0.264700
  0
SEQEND
  8
gg1
  0
POLYLINE
  8
gg1
 62
1
 40
0.000000
 41
0.000000
 66
  1
  0
VERTEX
  8
gg1
 10
-0.269700
 20
0.245000
  0
VERTEX
  8
gg1
 10
-0.230300
 20
0.245000
  0
SEQEND
  8
gg1
  0
POLYLINE
  8
gg1
 62
1
 40
0.000000
 41
0.000000
 66
  1
  0
VERTEX
  8
gg1
 10
-0.250000
 20
0.225300
  0
VERTEX
  8
gg1
 10
-0.250000
 20
0.264700
  0
SEQEND
  8
gg1
  0
POLYLINE
  8
gg1
 62
1
 40
0.000000
 41
0.000000
 66
  1
  0
VERTEX
  8
gg1
 10
-0.565000
 20
1.465000
  0
VERTEX
  8
gg1
 10
-0.545000
 20
1.465000
  0
SEQEND
  8
gg1
  0
POLYLINE
  8
gg1
 62
1
 40
0.000000
 41
0.000000
 66
  1
  0
VERTEX
  8
gg1
 10
-0.555000
 20
1.455000
  0
VERTEX
  8
gg1
 10
-0.555000
 20
1.475000
  0
SEQEND
  8
gg1
  0
POLYLINE
  8
gg1
 62
1
 40
0.000000
 41
0.000000
 66
  1
  0
VERTEX
  8
gg1
 10
-0.850000
 20
-0.585000
  0
VERTEX
  8
gg1
 10
-0.830000
 20
-0.585000
  0
SEQEND
  8
gg1
  0
POLYLINE
  8
gg1
 62
1
 40
0.000000
 41
0.000000
 66
  1
  0
VERTEX
  8
gg1
 10
-0.840000
 20
-0.595000
  0
VERTEX
  8
gg1
 10
-0.840000
 20
-0.575000
  0
SEQEND
  8
gg1
  0
POLYLINE
  8
gg1
 62
1
 40
0.000000
 41
0.000000
 66
  1
  0
VERTEX
  8
gg1
 10
0.921700
 20
-0.500000
  0
VERTEX
  8
gg1
 10
0.949200
 20
-0.500000
  0
SEQEND
  8
gg1
  0
POLYLINE
  8
gg1
 62
1
 40
0.000000
 41
0.000000
 66
  1
  0
VERTEX
  8
gg1
 10
0.935400
 20
-0.513800
  0
VERTEX
  8
gg1
 10
0.935400
 20
-0.486200
  0
SEQEND
  8
gg1
  0
POLYLINE
  8
gg1
 62
1
 40
0.000000
 41
0.000000
 66
  1
  0
VERTEX
  8
gg1
 10
0.886200
 20
-0.464600
  0
VERTEX
  8
gg1
 10
0.913800
 20
-0.464600
  0
SEQEND
  8
gg1
  0
POLYLINE
  8
gg1
 62
1
 40
0.000000
 41
0.000000
 66
  1
  0
VERTEX
  8
gg1
 10
0.900000
 20
-0.478300
  0
VERTEX
  8
gg1
 10
0.900000
 20
-0.450800
  0
SEQEND
  8
gg1
  0
POLYLINE
  8
gg1
 62
1
 40
0.000000
 41
0.000000
 66
  1
  0
VERTEX
  8
gg1
 10
0.886200
 20
-0.535400
  0
VERTEX
  8
gg1
 10
0.913800
 20
-0.535400
  0
SEQEND
  8
gg1
  0
POLYLINE
  8
gg1
 62
1
 40
0.000000
 41
0.000000
 66
  1
  0
VERTEX
  8
gg1
 10
0.900000
 20
-0.549200
  0
VERTEX
  8
gg1
 10
0.900000
 20
-0.521700
  0
SEQEND
  8
gg1
  0
POLYLINE
  8
gg1
 62
1
 40
0.000000
 41
0.000000
 66
  1
  0
VERTEX
  8
gg1
 10
0.850800
 20
-0.500000
  0
VERTEX
  8
gg1
 10
0.878300
 20
-0.500000
  0
SEQEND
  8
gg1
  0
POLYLINE
  8
gg1
 62
1
 40
0.000000
 41
0.000000
 66
  1
  0
VERTEX
  8
gg1
 10
0.864600
 20
-0.513800
  0
VERTEX
  8
gg1
 10
0.864600
 20
-0.486200
  0
SEQEND
  8
gg1
  0
POLYLINE
  8
gg1
 62
1
 40
0.000000
 41
0.000000
 66
  1
  0
VERTEX
  8
gg1
 10
-0.515000
 20
-1.015000
  0
VERTEX
  8
gg1
 10
-0.495000
 20
-1.015000
  0
SEQEND
  8
gg1
  0
POLYLINE
  8
gg1
 62
1
 40
0.000000
 41
0.000000
 66
  1
  0
VERTEX
  8
gg1
 10
-0.505000
 20
-1.025000
  0
VERTEX
  8
gg1
 10
-0.505000
 20
-1.005000
  0
SEQEND
  8
gg1
  0
POLYLINE
  8
gg1
 62
1
 40
0.000000
 41
0.000000
 66
  1
  0
VERTEX
  8
gg1
 10
-0.470000
 20
-0.840000
  0
VERTEX
  8
gg1
 10
-0.450000
 20
-0.840000
  0
SEQEND
  8
gg1
  0
POLYLINE
  8
gg1
 62
1
 40
0.000000
 41
0.000000
 66
  1
  0
VERTEX
  8
gg1
 10
-0.460000
 20
-0.850000
  0
VERTEX
  8
gg1
 10
-0.460000
 20
-0.830000
  0
SEQEND
  8
gg1
  0
POLYLINE
  8
gg1
 62
1
 40
0.000000
 41
0.000000
 66
  1
  0
VERTEX
  8
gg1
 10
-0.177500
 20
-0.190000
  0
VERTEX
  8
gg1
 10
-0.157500
 20
-0.190000
  0
SEQEND
  8
gg1
  0
POLYLINE
  8
gg1
 62
1
 40
0.000000
 41
0.000000
 66
  1
  0
VERTEX
  8
gg1
 10
-0.167500
 20
-0.200000
  0
VERTEX
  8
gg1
 10
-0.167500
 20
-0.180000
  0
SEQEND
  8
gg1
  0
POLYLINE
  8
gg1
 62
1
 40
0.000000
 41
0.000000
 66
  1
  0
VERTEX
  8
gg1
 10
-0.205000
 20
-0.090000
  0
VERTEX
  8
gg1
 10
-0.185000
 20
-0.090000
  0
SEQEND
  8
gg1
  0
POLYLINE
  8
gg1
 62
1
 40
0.000000
 41
0.000000
 66
  1
  0
VERTEX
  8
gg1
 10
-0.195000
 20
-0.100000
  0
VERTEX
  8
gg1
 10
-0.195000
 20
-0.080000
  0
SEQEND
  8
gg1
  0
POLYLINE
  8
gg1
 62
1
 40
0.000000
 41
0.000000
 66
  1
  0
VERTEX
  8
gg1
 10
-0.625000
 20
-1.550000
  0
VERTEX
  8
gg1
 10
-0.605000
 20
-1.550000
  0
SEQEND
  8
gg1
  0
POLYLINE
  8
gg1
 62
1
 40
0.000000
 41
0.000000
 66
  1
  0
VERTEX
  8
gg1
 10
-0.615000
 20
-1.560000
  0
VERTEX
  8
gg1
 10
-0.615000
 20
-1.540000
  0
SEQEND
  8
gg1
  0
POLYLINE
  8
gg1
 62
1
 40
0.000000
 41
0.000000
 66
  1
  0
VERTEX
  8
gg1
 10
0.880000
 20
-1.175000
  0
VERTEX
  8
gg1
 10
0.920000
 20
-1.175000
  0
SEQEND
  8
gg1
  0
POLYLINE
  8
gg1
 62
1
 40
0.000000
 41
0.000000
 66
  1
  0
VERTEX
  8
gg1
 10
0.900000
 20
-1.195000
  0
VERTEX
  8
gg1
 10
0.900000
 20
-1.155000
  0
SEQEND
  8
gg1
  0
POLYLINE
  8
gg1
 62
1
 40
0.000000
 41
0.000000
 66
  1
  0
VERTEX
  8
gg1
 10
1.230000
 20
-1.025000
  0
VERTEX
  8
gg1
 10
1.270000
 20
-1.025000
  0
SEQEND
  8
gg1
  0
POLYLINE
  8
gg1
 62
1
 40
0.000000
 41
0.000000
 66
  1
  0
VERTEX
  8
gg1
 10
1.250000
 20
-1.045000
  0
VERTEX
  8
gg1
 10
1.250000
 20
-1.005000
  0
SEQEND
  8
gg1
  0
POLYLINE
  8
gg1
 62
1
 40
0.000000
 41
0.000000
 66
  1
  0
VERTEX
  8
gg1
 10
1.130000
 20
-1.025000
  0
VERTEX
  8
gg1
 10
1.170000
 20
-1.025000
  0
SEQEND
  8
gg1
  0
POLYLINE
  8
gg1
 62
1
 40
0.000000
 41
0.000000
 66
  1
  0
VERTEX
  8
gg1
 10
1.150000
 20
-1.045000
  0
VERTEX
  8
gg1
 10
1.150000
 20
-1.005000
  0
SEQEND
  8
gg1
  0
POLYLINE
  8
gg1
 62
1
 40
0.000000
 41
0.000000
 66
  1
  0
VERTEX
  8
gg1
 10
0.880000
 20
-1.075000
  0
VERTEX
  8
gg1
 10
0.920000
 20
-1.075000
  0
SEQEND
  8
gg1
  0
POLYLINE
  8
gg1
 62
1
 40
0.000000
 41
0.000000
 66
  1
  0
VERTEX
  8
gg1
 10
0.900000
 20
-1.095000
  0
VERTEX
  8
gg1
 10
0.900000
 20
-1.055000
  0
SEQEND
  8
gg1
  0
POLYLINE
  8
gg1
 62
1
 40
0.000000
 41
0.000000
 66
  1
  0
VERTEX
  8
gg1
 10
1.230000
 20
-0.925000
  0
VERTEX
  8
gg1
 10
1.270000
 20
-0.925000
  0
SEQEND
  8
gg1
  0
POLYLINE
  8
gg1
 62
1
 40
0.000000
 41
0.000000
 66
  1
  0
VERTEX
  8
gg1
 10
1.250000
 20
-0.945000
  0
VERTEX
  8
gg1
 10
1.250000
 20
-0.905000
  0
SEQEND
  8
gg1
  0
POLYLINE
  8
gg1
 62
1
 40
0.000000
 41
0.000000
 66
  1
  0
VERTEX
  8
gg1
 10
1.133900
 20
0.572800
  0
VERTEX
  8
gg1
 10
1.228300
 20
0.572800
  0
SEQEND
  8
gg1
  0
POLYLINE
  8
gg1
 62
1
 40
0.000000
 41
0.000000
 66
  1
  0
VERTEX
  8
gg1
 10
1.181100
 20
0.525600
  0
VERTEX
  8
gg1
 10
1.181100
 20
0.620100
  0
SEQEND
  8
gg1
  0
POLYLINE
  8
gg1
 62
1
 40
0.000000
 41
0.000000
 66
  1
  0
VERTEX
  8
gg1
 10
1.133900
 20
0.868100
  0
VERTEX
  8
gg1
 10
1.228300
 20
0.868100
  0
SEQEND
  8
gg1
  0
POLYLINE
  8
gg1
 62
1
 40
0.000000
 41
0.000000
 66
  1
  0
VERTEX
  8
gg1
 10
1.181100
 20
0.820900
  0
VERTEX
  8
gg1
 10
1.181100
 20
0.915400
  0
SEQEND
  8
gg1
  0
POLYLINE
  8
gg1
 62
1
 40
0.000000
 41
0.000000
 66
  1
  0
VERTEX
  8
gg1
 10
1.133900
 20
-1.181100
  0
VERTEX
  8
gg1
 10
1.228300
 20
-1.181100
  0
SEQEND
  8
gg1
  0
POLYLINE
  8
gg1
 62
1
 40
0.000000
 41
0.000000
 66
  1
  0
VERTEX
  8
gg1
 10
1.181100
 20
-1.228300
  0
VERTEX
  8
gg1
 10
1.181100
 20
-1.133900
  0
SEQEND
  8
gg1
  0
POLYLINE
  8
gg1
 62
1
 40
0.000000
 41
0.000000
 66
  1
  0
VERTEX
  8
gg1
 10
-1.228300
 20
-1.181100
  0
VERTEX
  8
gg1
 10
-1.133900
 20
-1.181100
  0
SEQEND
  8
gg1
  0
POLYLINE
  8
gg1
 62
1
 40
0.000000
 41
0.000000
 66
  1
  0
VERTEX
  8
gg1
 10
-1.181100
 20
-1.228300
  0
VERTEX
  8
gg1
 10
-1.181100
 20
-1.133900
  0
SEQEND
  8
gg1
  0
POLYLINE
  8
gg1
 62
1
 40
0.000000
 41
0.000000
 66
  1
  0
VERTEX
  8
gg1
 10
-0.555000
 20
1.555000
  0
VERTEX
  8
gg1
 10
-0.535000
 20
1.555000
  0
SEQEND
  8
gg1
  0
POLYLINE
  8
gg1
 62
1
 40
0.000000
 41
0.000000
 66
  1
  0
VERTEX
  8
gg1
 10
-0.545000
 20
1.545000
  0
VERTEX
  8
gg1
 10
-0.545000
 20
1.565000
  0
SEQEND
  8
gg1
  0
POLYLINE
  8
gg1
 62
1
 40
0.000000
 41
0.000000
 66
  1
  0
VERTEX
  8
gg1
 10
-0.520000
 20
0.925000
  0
VERTEX
  8
gg1
 10
-0.480000
 20
0.925000
  0
SEQEND
  8
gg1
  0
POLYLINE
  8
gg1
 62
1
 40
0.000000
 41
0.000000
 66
  1
  0
VERTEX
  8
gg1
 10
-0.500000
 20
0.905000
  0
VERTEX
  8
gg1
 10
-0.500000
 20
0.945000
  0
SEQEND
  8
gg1
  0
POLYLINE
  8
gg1
 62
1
 40
0.000000
 41
0.000000
 66
  1
  0
VERTEX
  8
gg1
 10
-0.520000
 20
1.025000
  0
VERTEX
  8
gg1
 10
-0.480000
 20
1.025000
  0
SEQEND
  8
gg1
  0
POLYLINE
  8
gg1
 62
1
 40
0.000000
 41
0.000000
 66
  1
  0
VERTEX
  8
gg1
 10
-0.500000
 20
1.005000
  0
VERTEX
  8
gg1
 10
-0.500000
 20
1.045000
  0
SEQEND
  8
gg1
  0
POLYLINE
  8
gg1
 62
1
 40
0.000000
 41
0.000000
 66
  1
  0
VERTEX
  8
gg1
 10
-0.420000
 20
0.925000
  0
VERTEX
  8
gg1
 10
-0.380000
 20
0.925000
  0
SEQEND
  8
gg1
  0
POLYLINE
  8
gg1
 62
1
 40
0.000000
 41
0.000000
 66
  1
  0
VERTEX
  8
gg1
 10
-0.400000
 20
0.905000
  0
VERTEX
  8
gg1
 10
-0.400000
 20
0.945000
  0
SEQEND
  8
gg1
  0
POLYLINE
  8
gg1
 62
1
 40
0.000000
 41
0.000000
 66
  1
  0
VERTEX
  8
gg1
 10
-0.420000
 20
1.025000
  0
VERTEX
  8
gg1
 10
-0.380000
 20
1.025000
  0
SEQEND
  8
gg1
  0
POLYLINE
  8
gg1
 62
1
 40
0.000000
 41
0.000000
 66
  1
  0
VERTEX
  8
gg1
 10
-0.400000
 20
1.005000
  0
VERTEX
  8
gg1
 10
-0.400000
 20
1.045000
  0
SEQEND
  8
gg1
  0
POLYLINE
  8
gg1
 62
1
 40
0.000000
 41
0.000000
 66
  1
  0
VERTEX
  8
gg1
 10
-0.320000
 20
0.925000
  0
VERTEX
  8
gg1
 10
-0.280000
 20
0.925000
  0
SEQEND
  8
gg1
  0
POLYLINE
  8
gg1
 62
1
 40
0.000000
 41
0.000000
 66
  1
  0
VERTEX
  8
gg1
 10
-0.300000
 20
0.905000
  0
VERTEX
  8
gg1
 10
-0.300000
 20
0.945000
  0
SEQEND
  8
gg1
  0
POLYLINE
  8
gg1
 62
1
 40
0.000000
 41
0.000000
 66
  1
  0
VERTEX
  8
gg1
 10
-0.320000
 20
1.025000
  0
VERTEX
  8
gg1
 10
-0.280000
 20
1.025000
  0
SEQEND
  8
gg1
  0
POLYLINE
  8
gg1
 62
1
 40
0.000000
 41
0.000000
 66
  1
  0
VERTEX
  8
gg1
 10
-0.300000
 20
1.005000
  0
VERTEX
  8
gg1
 10
-0.300000
 20
1.045000
  0
SEQEND
  8
gg1
  0
POLYLINE
  8
gg1
 62
1
 40
0.000000
 41
0.000000
 66
  1
  0
VERTEX
  8
gg1
 10
0.480000
 20
1.025000
  0
VERTEX
  8
gg1
 10
0.520000
 20
1.025000
  0
SEQEND
  8
gg1
  0
POLYLINE
  8
gg1
 62
1
 40
0.000000
 41
0.000000
 66
  1
  0
VERTEX
  8
gg1
 10
0.500000
 20
1.005000
  0
VERTEX
  8
gg1
 10
0.500000
 20
1.045000
  0
SEQEND
  8
gg1
  0
POLYLINE
  8
gg1
 62
1
 40
0.000000
 41
0.000000
 66
  1
  0
VERTEX
  8
gg1
 10
0.480000
 20
0.925000
  0
VERTEX
  8
gg1
 10
0.520000
 20
0.925000
  0
SEQEND
  8
gg1
  0
POLYLINE
  8
gg1
 62
1
 40
0.000000
 41
0.000000
 66
  1
  0
VERTEX
  8
gg1
 10
0.500000
 20
0.905000
  0
VERTEX
  8
gg1
 10
0.500000
 20
0.945000
  0
SEQEND
  8
gg1
  0
POLYLINE
  8
gg1
 62
1
 40
0.000000
 41
0.000000
 66
  1
  0
VERTEX
  8
gg1
 10
-1.270000
 20
0.525000
  0
VERTEX
  8
gg1
 10
-1.230000
 20
0.525000
  0
SEQEND
  8
gg1
  0
POLYLINE
  8
gg1
 62
1
 40
0.000000
 41
0.000000
 66
  1
  0
VERTEX
  8
gg1
 10
-1.250000
 20
0.505000
  0
VERTEX
  8
gg1
 10
-1.250000
 20
0.545000
  0
SEQEND
  8
gg1
  0
POLYLINE
  8
gg1
 62
1
 40
0.000000
 41
0.000000
 66
  1
  0
VERTEX
  8
gg1
 10
-1.170000
 20
0.825000
  0
VERTEX
  8
gg1
 10
-1.130000
 20
0.825000
  0
SEQEND
  8
gg1
  0
POLYLINE
  8
gg1
 62
1
 40
0.000000
 41
0.000000
 66
  1
  0
VERTEX
  8
gg1
 10
-1.150000
 20
0.805000
  0
VERTEX
  8
gg1
 10
-1.150000
 20
0.845000
  0
SEQEND
  8
gg1
  0
POLYLINE
  8
gg1
 62
1
 40
0.000000
 41
0.000000
 66
  1
  0
VERTEX
  8
gg1
 10
-1.270000
 20
0.825000
  0
VERTEX
  8
gg1
 10
-1.230000
 20
0.825000
  0
SEQEND
  8
gg1
  0
POLYLINE
  8
gg1
 62
1
 40
0.000000
 41
0.000000
 66
  1
  0
VERTEX
  8
gg1
 10
-1.250000
 20
0.805000
  0
VERTEX
  8
gg1
 10
-1.250000
 20
0.845000
  0
SEQEND
  8
gg1
  0
POLYLINE
  8
gg1
 62
1
 40
0.000000
 41
0.000000
 66
  1
  0
VERTEX
  8
gg1
 10
-1.170000
 20
0.725000
  0
VERTEX
  8
gg1
 10
-1.130000
 20
0.725000
  0
SEQEND
  8
gg1
  0
POLYLINE
  8
gg1
 62
1
 40
0.000000
 41
0.000000
 66
  1
  0
VERTEX
  8
gg1
 10
-1.150000
 20
0.705000
  0
VERTEX
  8
gg1
 10
-1.150000
 20
0.745000
  0
SEQEND
  8
gg1
  0
POLYLINE
  8
gg1
 62
1
 40
0.000000
 41
0.000000
 66
  1
  0
VERTEX
  8
gg1
 10
-1.270000
 20
0.725000
  0
VERTEX
  8
gg1
 10
-1.230000
 20
0.725000
  0
SEQEND
  8
gg1
  0
POLYLINE
  8
gg1
 62
1
 40
0.000000
 41
0.000000
 66
  1
  0
VERTEX
  8
gg1
 10
-1.250000
 20
0.705000
  0
VERTEX
  8
gg1
 10
-1.250000
 20
0.745000
  0
SEQEND
  8
gg1
  0
POLYLINE
  8
gg1
 62
1
 40
0.000000
 41
0.000000
 66
  1
  0
VERTEX
  8
gg1
 10
-1.170000
 20
0.625000
  0
VERTEX
  8
gg1
 10
-1.130000
 20
0.625000
  0
SEQEND
  8
gg1
  0
POLYLINE
  8
gg1
 62
1
 40
0.000000
 41
0.000000
 66
  1
  0
VERTEX
  8
gg1
 10
-1.150000
 20
0.605000
  0
VERTEX
  8
gg1
 10
-1.150000
 20
0.645000
  0
SEQEND
  8
gg1
  0
POLYLINE
  8
gg1
 62
1
 40
0.000000
 41
0.000000
 66
  1
  0
VERTEX
  8
gg1
 10
-1.270000
 20
0.625000
  0
VERTEX
  8
gg1
 10
-1.230000
 20
0.625000
  0
SEQEND
  8
gg1
  0
POLYLINE
  8
gg1
 62
1
 40
0.000000
 41
0.000000
 66
  1
  0
VERTEX
  8
gg1
 10
-1.250000
 20
0.605000
  0
VERTEX
  8
gg1
 10
-1.250000
 20
0.645000
  0
SEQEND
  8
gg1
  0
POLYLINE
  8
gg1
 62
1
 40
0.000000
 41
0.000000
 66
  1
  0
VERTEX
  8
gg1
 10
-1.170000
 20
0.525000
  0
VERTEX
  8
gg1
 10
-1.130000
 20
0.525000
  0
SEQEND
  8
gg1
  0
POLYLINE
  8
gg1
 62
1
 40
0.000000
 41
0.000000
 66
  1
  0
VERTEX
  8
gg1
 10
-1.150000
 20
0.505000
  0
VERTEX
  8
gg1
 10
-1.150000
 20
0.545000
  0
SEQEND
  8
gg1
  0
POLYLINE
  8
gg1
 62
1
 40
0.000000
 41
0.000000
 66
  1
  0
VERTEX
  8
gg1
 10
-0.020000
 20
0.425000
  0
VERTEX
  8
gg1
 10
0.020000
 20
0.425000
  0
SEQEND
  8
gg1
  0
POLYLINE
  8
gg1
 62
1
 40
0.000000
 41
0.000000
 66
  1
  0
VERTEX
  8
gg1
 10
0.000000
 20
0.405000
  0
VERTEX
  8
gg1
 10
0.000000
 20
0.445000
  0
SEQEND
  8
gg1
  0
POLYLINE
  8
gg1
 62
1
 40
0.000000
 41
0.000000
 66
  1
  0
VERTEX
  8
gg1
 10
-0.020000
 20
0.525000
  0
VERTEX
  8
gg1
 10
0.020000
 20
0.525000
  0
SEQEND
  8
gg1
  0
POLYLINE
  8
gg1
 62
1
 40
0.000000
 41
0.000000
 66
  1
  0
VERTEX
  8
gg1
 10
0.000000
 20
0.505000
  0
VERTEX
  8
gg1
 10
0.000000
 20
0.545000
  0
SEQEND
  8
gg1
  0
POLYLINE
  8
gg1
 62
1
 40
0.000000
 41
0.000000
 66
  1
  0
VERTEX
  8
gg1
 10
0.180000
 20
0.525000
  0
VERTEX
  8
gg1
 10
0.220000
 20
0.525000
  0
SEQEND
  8
gg1
  0
POLYLINE
  8
gg1
 62
1
 40
0.000000
 41
0.000000
 66
  1
  0
VERTEX
  8
gg1
 10
0.200000
 20
0.505000
  0
VERTEX
  8
gg1
 10
0.200000
 20
0.545000
  0
SEQEND
  8
gg1
  0
POLYLINE
  8
gg1
 62
1
 40
0.000000
 41
0.000000
 66
  1
  0
VERTEX
  8
gg1
 10
0.180000
 20
0.425000
  0
VERTEX
  8
gg1
 10
0.220000
 20
0.425000
  0
SEQEND
  8
gg1
  0
POLYLINE
  8
gg1
 62
1
 40
0.000000
 41
0.000000
 66
  1
  0
VERTEX
  8
gg1
 10
0.200000
 20
0.405000
  0
VERTEX
  8
gg1
 10
0.200000
 20
0.445000
  0
SEQEND
  8
gg1
  0
POLYLINE
  8
gg1
 62
1
 40
0.000000
 41
0.000000
 66
  1
  0
VERTEX
  8
gg1
 10
0.280000
 20
0.525000
  0
VERTEX
  8
gg1
 10
0.320000
 20
0.525000
  0
SEQEND
  8
gg1
  0
POLYLINE
  8
gg1
 62
1
 40
0.000000
 41
0.000000
 66
  1
  0
VERTEX
  8
gg1
 10
0.300000
 20
0.505000
  0
VERTEX
  8
gg1
 10
0.300000
 20
0.545000
  0
SEQEND
  8
gg1
  0
POLYLINE
  8
gg1
 62
1
 40
0.000000
 41
0.000000
 66
  1
  0
VERTEX
  8
gg1
 10
-0.320000
 20
0.425000
  0
VERTEX
  8
gg1
 10
-0.280000
 20
0.425000
  0
SEQEND
  8
gg1
  0
POLYLINE
  8
gg1
 62
1
 40
0.000000
 41
0.000000
 66
  1
  0
VERTEX
  8
gg1
 10
-0.300000
 20
0.405000
  0
VERTEX
  8
gg1
 10
-0.300000
 20
0.445000
  0
SEQEND
  8
gg1
  0
POLYLINE
  8
gg1
 62
1
 40
0.000000
 41
0.000000
 66
  1
  0
VERTEX
  8
gg1
 10
0.080000
 20
0.425000
  0
VERTEX
  8
gg1
 10
0.120000
 20
0.425000
  0
SEQEND
  8
gg1
  0
POLYLINE
  8
gg1
 62
1
 40
0.000000
 41
0.000000
 66
  1
  0
VERTEX
  8
gg1
 10
0.100000
 20
0.405000
  0
VERTEX
  8
gg1
 10
0.100000
 20
0.445000
  0
SEQEND
  8
gg1
  0
POLYLINE
  8
gg1
 62
1
 40
0.000000
 41
0.000000
 66
  1
  0
VERTEX
  8
gg1
 10
-0.120000
 20
1.025000
  0
VERTEX
  8
gg1
 10
-0.080000
 20
1.025000
  0
SEQEND
  8
gg1
  0
POLYLINE
  8
gg1
 62
1
 40
0.000000
 41
0.000000
 66
  1
  0
VERTEX
  8
gg1
 10
-0.100000
 20
1.005000
  0
VERTEX
  8
gg1
 10
-0.100000
 20
1.045000
  0
SEQEND
  8
gg1
  0
POLYLINE
  8
gg1
 62
1
 40
0.000000
 41
0.000000
 66
  1
  0
VERTEX
  8
gg1
 10
-0.120000
 20
0.925000
  0
VERTEX
  8
gg1
 10
-0.080000
 20
0.925000
  0
SEQEND
  8
gg1
  0
POLYLINE
  8
gg1
 62
1
 40
0.000000
 41
0.000000
 66
  1
  0
VERTEX
  8
gg1
 10
-0.100000
 20
0.905000
  0
VERTEX
  8
gg1
 10
-0.100000
 20
0.945000
  0
SEQEND
  8
gg1
  0
POLYLINE
  8
gg1
 62
1
 40
0.000000
 41
0.000000
 66
  1
  0
VERTEX
  8
gg1
 10
0.280000
 20
1.025000
  0
VERTEX
  8
gg1
 10
0.320000
 20
1.025000
  0
SEQEND
  8
gg1
  0
POLYLINE
  8
gg1
 62
1
 40
0.000000
 41
0.000000
 66
  1
  0
VERTEX
  8
gg1
 10
0.300000
 20
1.005000
  0
VERTEX
  8
gg1
 10
0.300000
 20
1.045000
  0
SEQEND
  8
gg1
  0
POLYLINE
  8
gg1
 62
1
 40
0.000000
 41
0.000000
 66
  1
  0
VERTEX
  8
gg1
 10
0.280000
 20
0.925000
  0
VERTEX
  8
gg1
 10
0.320000
 20
0.925000
  0
SEQEND
  8
gg1
  0
POLYLINE
  8
gg1
 62
1
 40
0.000000
 41
0.000000
 66
  1
  0
VERTEX
  8
gg1
 10
0.300000
 20
0.905000
  0
VERTEX
  8
gg1
 10
0.300000
 20
0.945000
  0
SEQEND
  8
gg1
  0
POLYLINE
  8
gg1
 62
1
 40
0.000000
 41
0.000000
 66
  1
  0
VERTEX
  8
gg1
 10
-0.020000
 20
1.025000
  0
VERTEX
  8
gg1
 10
0.020000
 20
1.025000
  0
SEQEND
  8
gg1
  0
POLYLINE
  8
gg1
 62
1
 40
0.000000
 41
0.000000
 66
  1
  0
VERTEX
  8
gg1
 10
0.000000
 20
1.005000
  0
VERTEX
  8
gg1
 10
0.000000
 20
1.045000
  0
SEQEND
  8
gg1
  0
POLYLINE
  8
gg1
 62
1
 40
0.000000
 41
0.000000
 66
  1
  0
VERTEX
  8
gg1
 10
-0.020000
 20
0.925000
  0
VERTEX
  8
gg1
 10
0.020000
 20
0.925000
  0
SEQEND
  8
gg1
  0
POLYLINE
  8
gg1
 62
1
 40
0.000000
 41
0.000000
 66
  1
  0
VERTEX
  8
gg1
 10
0.000000
 20
0.905000
  0
VERTEX
  8
gg1
 10
0.000000
 20
0.945000
  0
SEQEND
  8
gg1
  0
POLYLINE
  8
gg1
 62
1
 40
0.000000
 41
0.000000
 66
  1
  0
VERTEX
  8
gg1
 10
0.380000
 20
1.025000
  0
VERTEX
  8
gg1
 10
0.420000
 20
1.025000
  0
SEQEND
  8
gg1
  0
POLYLINE
  8
gg1
 62
1
 40
0.000000
 41
0.000000
 66
  1
  0
VERTEX
  8
gg1
 10
0.400000
 20
1.005000
  0
VERTEX
  8
gg1
 10
0.400000
 20
1.045000
  0
SEQEND
  8
gg1
  0
POLYLINE
  8
gg1
 62
1
 40
0.000000
 41
0.000000
 66
  1
  0
VERTEX
  8
gg1
 10
0.380000
 20
0.925000
  0
VERTEX
  8
gg1
 10
0.420000
 20
0.925000
  0
SEQEND
  8
gg1
  0
POLYLINE
  8
gg1
 62
1
 40
0.000000
 41
0.000000
 66
  1
  0
VERTEX
  8
gg1
 10
0.400000
 20
0.905000
  0
VERTEX
  8
gg1
 10
0.400000
 20
0.945000
  0
SEQEND
  8
gg1
  0
POLYLINE
  8
gg1
 62
1
 40
0.000000
 41
0.000000
 66
  1
  0
VERTEX
  8
gg1
 10
0.080000
 20
1.025000
  0
VERTEX
  8
gg1
 10
0.120000
 20
1.025000
  0
SEQEND
  8
gg1
  0
POLYLINE
  8
gg1
 62
1
 40
0.000000
 41
0.000000
 66
  1
  0
VERTEX
  8
gg1
 10
0.100000
 20
1.005000
  0
VERTEX
  8
gg1
 10
0.100000
 20
1.045000
  0
SEQEND
  8
gg1
  0
POLYLINE
  8
gg1
 62
1
 40
0.000000
 41
0.000000
 66
  1
  0
VERTEX
  8
gg1
 10
0.080000
 20
0.925000
  0
VERTEX
  8
gg1
 10
0.120000
 20
0.925000
  0
SEQEND
  8
gg1
  0
POLYLINE
  8
gg1
 62
1
 40
0.000000
 41
0.000000
 66
  1
  0
VERTEX
  8
gg1
 10
0.100000
 20
0.905000
  0
VERTEX
  8
gg1
 10
0.100000
 20
0.945000
  0
SEQEND
  8
gg1
  0
POLYLINE
  8
gg1
 62
1
 40
0.000000
 41
0.000000
 66
  1
  0
VERTEX
  8
gg1
 10
0.180000
 20
1.025000
  0
VERTEX
  8
gg1
 10
0.220000
 20
1.025000
  0
SEQEND
  8
gg1
  0
POLYLINE
  8
gg1
 62
1
 40
0.000000
 41
0.000000
 66
  1
  0
VERTEX
  8
gg1
 10
0.200000
 20
1.005000
  0
VERTEX
  8
gg1
 10
0.200000
 20
1.045000
  0
SEQEND
  8
gg1
  0
POLYLINE
  8
gg1
 62
1
 40
0.000000
 41
0.000000
 66
  1
  0
VERTEX
  8
gg1
 10
0.180000
 20
0.925000
  0
VERTEX
  8
gg1
 10
0.220000
 20
0.925000
  0
SEQEND
  8
gg1
  0
POLYLINE
  8
gg1
 62
1
 40
0.000000
 41
0.000000
 66
  1
  0
VERTEX
  8
gg1
 10
0.200000
 20
0.905000
  0
VERTEX
  8
gg1
 10
0.200000
 20
0.945000
  0
SEQEND
  8
gg1
  0
POLYLINE
  8
gg1
 62
1
 40
0.000000
 41
0.000000
 66
  1
  0
VERTEX
  8
gg1
 10
-0.220000
 20
1.025000
  0
VERTEX
  8
gg1
 10
-0.180000
 20
1.025000
  0
SEQEND
  8
gg1
  0
POLYLINE
  8
gg1
 62
1
 40
0.000000
 41
0.000000
 66
  1
  0
VERTEX
  8
gg1
 10
-0.200000
 20
1.005000
  0
VERTEX
  8
gg1
 10
-0.200000
 20
1.045000
  0
SEQEND
  8
gg1
  0
POLYLINE
  8
gg1
 62
1
 40
0.000000
 41
0.000000
 66
  1
  0
VERTEX
  8
gg1
 10
-0.220000
 20
0.925000
  0
VERTEX
  8
gg1
 10
-0.180000
 20
0.925000
  0
SEQEND
  8
gg1
  0
POLYLINE
  8
gg1
 62
1
 40
0.000000
 41
0.000000
 66
  1
  0
VERTEX
  8
gg1
 10
-0.200000
 20
0.905000
  0
VERTEX
  8
gg1
 10
-0.200000
 20
0.945000
  0
SEQEND
  8
gg1
  0
POLYLINE
  8
gg1
 62
1
 40
0.000000
 41
0.000000
 66
  1
  0
VERTEX
  8
gg1
 10
0.080000
 20
0.525000
  0
VERTEX
  8
gg1
 10
0.120000
 20
0.525000
  0
SEQEND
  8
gg1
  0
POLYLINE
  8
gg1
 62
1
 40
0.000000
 41
0.000000
 66
  1
  0
VERTEX
  8
gg1
 10
0.100000
 20
0.505000
  0
VERTEX
  8
gg1
 10
0.100000
 20
0.545000
  0
SEQEND
  8
gg1
  0
POLYLINE
  8
gg1
 62
1
 40
0.000000
 41
0.000000
 66
  1
  0
VERTEX
  8
gg1
 10
-0.120000
 20
0.525000
  0
VERTEX
  8
gg1
 10
-0.080000
 20
0.525000
  0
SEQEND
  8
gg1
  0
POLYLINE
  8
gg1
 62
1
 40
0.000000
 41
0.000000
 66
  1
  0
VERTEX
  8
gg1
 10
-0.100000
 20
0.505000
  0
VERTEX
  8
gg1
 10
-0.100000
 20
0.545000
  0
SEQEND
  8
gg1
  0
POLYLINE
  8
gg1
 62
1
 40
0.000000
 41
0.000000
 66
  1
  0
VERTEX
  8
gg1
 10
-0.220000
 20
0.525000
  0
VERTEX
  8
gg1
 10
-0.180000
 20
0.525000
  0
SEQEND
  8
gg1
  0
POLYLINE
  8
gg1
 62
1
 40
0.000000
 41
0.000000
 66
  1
  0
VERTEX
  8
gg1
 10
-0.200000
 20
0.505000
  0
VERTEX
  8
gg1
 10
-0.200000
 20
0.545000
  0
SEQEND
  8
gg1
  0
POLYLINE
  8
gg1
 62
1
 40
0.000000
 41
0.000000
 66
  1
  0
VERTEX
  8
gg1
 10
-0.120000
 20
0.425000
  0
VERTEX
  8
gg1
 10
-0.080000
 20
0.425000
  0
SEQEND
  8
gg1
  0
POLYLINE
  8
gg1
 62
1
 40
0.000000
 41
0.000000
 66
  1
  0
VERTEX
  8
gg1
 10
-0.100000
 20
0.405000
  0
VERTEX
  8
gg1
 10
-0.100000
 20
0.445000
  0
SEQEND
  8
gg1
  0
POLYLINE
  8
gg1
 62
1
 40
0.000000
 41
0.000000
 66
  1
  0
VERTEX
  8
gg1
 10
-0.220000
 20
0.425000
  0
VERTEX
  8
gg1
 10
-0.180000
 20
0.425000
  0
SEQEND
  8
gg1
  0
POLYLINE
  8
gg1
 62
1
 40
0.000000
 41
0.000000
 66
  1
  0
VERTEX
  8
gg1
 10
-0.200000
 20
0.405000
  0
VERTEX
  8
gg1
 10
-0.200000
 20
0.445000
  0
SEQEND
  8
gg1
  0
POLYLINE
  8
gg1
 62
1
 40
0.000000
 41
0.000000
 66
  1
  0
VERTEX
  8
gg1
 10
0.280000
 20
0.425000
  0
VERTEX
  8
gg1
 10
0.320000
 20
0.425000
  0
SEQEND
  8
gg1
  0
POLYLINE
  8
gg1
 62
1
 40
0.000000
 41
0.000000
 66
  1
  0
VERTEX
  8
gg1
 10
0.300000
 20
0.405000
  0
VERTEX
  8
gg1
 10
0.300000
 20
0.445000
  0
SEQEND
  8
gg1
  0
POLYLINE
  8
gg1
 62
1
 40
0.000000
 41
0.000000
 66
  1
  0
VERTEX
  8
gg1
 10
-0.320000
 20
0.525000
  0
VERTEX
  8
gg1
 10
-0.280000
 20
0.525000
  0
SEQEND
  8
gg1
  0
POLYLINE
  8
gg1
 62
1
 40
0.000000
 41
0.000000
 66
  1
  0
VERTEX
  8
gg1
 10
-0.300000
 20
0.505000
  0
VERTEX
  8
gg1
 10
-0.300000
 20
0.545000
  0
SEQEND
  8
gg1
  0
POLYLINE
  8
gg1
 62
1
 40
0.000000
 41
0.000000
 66
  1
  0
VERTEX
  8
gg1
 10
-0.277500
 20
-0.350000
  0
VERTEX
  8
gg1
 10
-0.242500
 20
-0.350000
  0
SEQEND
  8
gg1
  0
POLYLINE
  8
gg1
 62
1
 40
0.000000
 41
0.000000
 66
  1
  0
VERTEX
  8
gg1
 10
-0.260000
 20
-0.367500
  0
VERTEX
  8
gg1
 10
-0.260000
 20
-0.332500
  0
SEQEND
  8
gg1
  0
POLYLINE
  8
gg1
 62
1
 40
0.000000
 41
0.000000
 66
  1
  0
VERTEX
  8
gg1
 10
-0.425000
 20
-0.350000
  0
VERTEX
  8
gg1
 10
-0.390000
 20
-0.350000
  0
SEQEND
  8
gg1
  0
POLYLINE
  8
gg1
 62
1
 40
0.000000
 41
0.000000
 66
  1
  0
VERTEX
  8
gg1
 10
-0.407500
 20
-0.367500
  0
VERTEX
  8
gg1
 10
-0.407500
 20
-0.332500
  0
SEQEND
  8
gg1
  0
POLYLINE
  8
gg1
 62
1
 40
0.000000
 41
0.000000
 66
  1
  0
VERTEX
  8
gg1
 10
-0.570000
 20
-1.125000
  0
VERTEX
  8
gg1
 10
-0.530000
 20
-1.125000
  0
SEQEND
  8
gg1
  0
POLYLINE
  8
gg1
 62
1
 40
0.000000
 41
0.000000
 66
  1
  0
VERTEX
  8
gg1
 10
-0.550000
 20
-1.145000
  0
VERTEX
  8
gg1
 10
-0.550000
 20
-1.105000
  0
SEQEND
  8
gg1
  0
POLYLINE
  8
gg1
 62
1
 40
0.000000
 41
0.000000
 66
  1
  0
VERTEX
  8
gg1
 10
-1.270000
 20
-0.525000
  0
VERTEX
  8
gg1
 10
-1.230000
 20
-0.525000
  0
SEQEND
  8
gg1
  0
POLYLINE
  8
gg1
 62
1
 40
0.000000
 41
0.000000
 66
  1
  0
VERTEX
  8
gg1
 10
-1.250000
 20
-0.545000
  0
VERTEX
  8
gg1
 10
-1.250000
 20
-0.505000
  0
SEQEND
  8
gg1
  0
POLYLINE
  8
gg1
 62
1
 40
0.000000
 41
0.000000
 66
  1
  0
VERTEX
  8
gg1
 10
0.110000
 20
0.035000
  0
VERTEX
  8
gg1
 10
0.130000
 20
0.035000
  0
SEQEND
  8
gg1
  0
POLYLINE
  8
gg1
 62
1
 40
0.000000
 41
0.000000
 66
  1
  0
VERTEX
  8
gg1
 10
0.120000
 20
0.025000
  0
VERTEX
  8
gg1
 10
0.120000
 20
0.045000
  0
SEQEND
  8
gg1
  0
POLYLINE
  8
gg1
 62
1
 40
0.000000
 41
0.000000
 66
  1
  0
VERTEX
  8
gg1
 10
0.195000
 20
-0.210000
  0
VERTEX
  8
gg1
 10
0.215000
 20
-0.210000
  0
SEQEND
  8
gg1
  0
POLYLINE
  8
gg1
 62
1
 40
0.000000
 41
0.000000
 66
  1
  0
VERTEX
  8
gg1
 10
0.205000
 20
-0.220000
  0
VERTEX
  8
gg1
 10
0.205000
 20
-0.200000
  0
SEQEND
  8
gg1
  0
POLYLINE
  8
gg1
 62
1
 40
0.000000
 41
0.000000
 66
  1
  0
VERTEX
  8
gg1
 10
-0.130000
 20
0.035000
  0
VERTEX
  8
gg1
 10
-0.110000
 20
0.035000
  0
SEQEND
  8
gg1
  0
POLYLINE
  8
gg1
 62
1
 40
0.000000
 41
0.000000
 66
  1
  0
VERTEX
  8
gg1
 10
-0.120000
 20
0.025000
  0
VERTEX
  8
gg1
 10
-0.120000
 20
0.045000
  0
SEQEND
  8
gg1
  0
POLYLINE
  8
gg1
 62
1
 40
0.000000
 41
0.000000
 66
  1
  0
VERTEX
  8
gg1
 10
0.110000
 20
-0.065000
  0
VERTEX
  8
gg1
 10
0.130000
 20
-0.065000
  0
SEQEND
  8
gg1
  0
POLYLINE
  8
gg1
 62
1
 40
0.000000
 41
0.000000
 66
  1
  0
VERTEX
  8
gg1
 10
0.120000
 20
-0.075000
  0
VERTEX
  8
gg1
 10
0.120000
 20
-0.055000
  0
SEQEND
  8
gg1
  0
POLYLINE
  8
gg1
 62
1
 40
0.000000
 41
0.000000
 66
  1
  0
VERTEX
  8
gg1
 10
0.087600
 20
-1.440000
  0
VERTEX
  8
gg1
 10
0.109300
 20
-1.440000
  0
SEQEND
  8
gg1
  0
POLYLINE
  8
gg1
 62
1
 40
0.000000
 41
0.000000
 66
  1
  0
VERTEX
  8
gg1
 10
0.098400
 20
-1.450800
  0
VERTEX
  8
gg1
 10
0.098400
 20
-1.429200
  0
SEQEND
  8
gg1
  0
POLYLINE
  8
gg1
 62
1
 40
0.000000
 41
0.000000
 66
  1
  0
VERTEX
  8
gg1
 10
0.128900
 20
-1.546300
  0
VERTEX
  8
gg1
 10
0.146700
 20
-1.546300
  0
SEQEND
  8
gg1
  0
POLYLINE
  8
gg1
 62
1
 40
0.000000
 41
0.000000
 66
  1
  0
VERTEX
  8
gg1
 10
0.137800
 20
-1.555200
  0
VERTEX
  8
gg1
 10
0.137800
 20
-1.537400
  0
SEQEND
  8
gg1
  0
POLYLINE
  8
gg1
 62
1
 40
0.000000
 41
0.000000
 66
  1
  0
VERTEX
  8
gg1
 10
-0.109300
 20
-1.440000
  0
VERTEX
  8
gg1
 10
-0.087600
 20
-1.440000
  0
SEQEND
  8
gg1
  0
POLYLINE
  8
gg1
 62
1
 40
0.000000
 41
0.000000
 66
  1
  0
VERTEX
  8
gg1
 10
-0.098400
 20
-1.450800
  0
VERTEX
  8
gg1
 10
-0.098400
 20
-1.429200
  0
SEQEND
  8
gg1
  0
POLYLINE
  8
gg1
 62
1
 40
0.000000
 41
0.000000
 66
  1
  0
VERTEX
  8
gg1
 10
-0.146700
 20
-1.546300
  0
VERTEX
  8
gg1
 10
-0.128900
 20
-1.546300
  0
SEQEND
  8
gg1
  0
POLYLINE
  8
gg1
 62
1
 40
0.000000
 41
0.000000
 66
  1
  0
VERTEX
  8
gg1
 10
-0.137800
 20
-1.555200
  0
VERTEX
  8
gg1
 10
-0.137800
 20
-1.537400
  0
SEQEND
  8
gg1
  0
POLYLINE
  8
gg1
 62
1
 40
0.000000
 41
0.000000
 66
  1
  0
VERTEX
  8
gg1
 10
1.230000
 20
-0.600000
  0
VERTEX
  8
gg1
 10
1.270000
 20
-0.600000
  0
SEQEND
  8
gg1
  0
POLYLINE
  8
gg1
 62
1
 40
0.000000
 41
0.000000
 66
  1
  0
VERTEX
  8
gg1
 10
1.250000
 20
-0.620000
  0
VERTEX
  8
gg1
 10
1.250000
 20
-0.580000
  0
SEQEND
  8
gg1
  0
POLYLINE
  8
gg1
 62
1
 40
0.000000
 41
0.000000
 66
  1
  0
VERTEX
  8
gg1
 10
1.230000
 20
-0.500000
  0
VERTEX
  8
gg1
 10
1.270000
 20
-0.500000
  0
SEQEND
  8
gg1
  0
POLYLINE
  8
gg1
 62
1
 40
0.000000
 41
0.000000
 66
  1
  0
VERTEX
  8
gg1
 10
1.250000
 20
-0.520000
  0
VERTEX
  8
gg1
 10
1.250000
 20
-0.480000
  0
SEQEND
  8
gg1
  0
POLYLINE
  8
gg1
 62
1
 40
0.000000
 41
0.000000
 66
  1
  0
VERTEX
  8
gg1
 10
1.230000
 20
-0.700000
  0
VERTEX
  8
gg1
 10
1.270000
 20
-0.700000
  0
SEQEND
  8
gg1
  0
POLYLINE
  8
gg1
 62
1
 40
0.000000
 41
0.000000
 66
  1
  0
VERTEX
  8
gg1
 10
1.250000
 20
-0.720000
  0
VERTEX
  8
gg1
 10
1.250000
 20
-0.680000
  0
SEQEND
  8
gg1
  0
POLYLINE
  8
gg1
 62
1
 40
0.000000
 41
0.000000
 66
  1
  0
VERTEX
  8
gg1
 10
1.130000
 20
-0.500000
  0
VERTEX
  8
gg1
 10
1.170000
 20
-0.500000
  0
SEQEND
  8
gg1
  0
POLYLINE
  8
gg1
 62
1
 40
0.000000
 41
0.000000
 66
  1
  0
VERTEX
  8
gg1
 10
1.150000
 20
-0.520000
  0
VERTEX
  8
gg1
 10
1.150000
 20
-0.480000
  0
SEQEND
  8
gg1
  0
POLYLINE
  8
gg1
 62
1
 40
0.000000
 41
0.000000
 66
  1
  0
VERTEX
  8
gg1
 10
1.130000
 20
-0.600000
  0
VERTEX
  8
gg1
 10
1.170000
 20
-0.600000
  0
SEQEND
  8
gg1
  0
POLYLINE
  8
gg1
 62
1
 40
0.000000
 41
0.000000
 66
  1
  0
VERTEX
  8
gg1
 10
1.150000
 20
-0.620000
  0
VERTEX
  8
gg1
 10
1.150000
 20
-0.580000
  0
SEQEND
  8
gg1
  0
POLYLINE
  8
gg1
 62
1
 40
0.000000
 41
0.000000
 66
  1
  0
VERTEX
  8
gg1
 10
1.130000
 20
-0.700000
  0
VERTEX
  8
gg1
 10
1.170000
 20
-0.700000
  0
SEQEND
  8
gg1
  0
POLYLINE
  8
gg1
 62
1
 40
0.000000
 41
0.000000
 66
  1
  0
VERTEX
  8
gg1
 10
1.150000
 20
-0.720000
  0
VERTEX
  8
gg1
 10
1.150000
 20
-0.680000
  0
SEQEND
  8
gg1
  0
POLYLINE
  8
gg1
 62
1
 40
0.000000
 41
0.000000
 66
  1
  0
VERTEX
  8
gg1
 10
-1.170000
 20
-0.625000
  0
VERTEX
  8
gg1
 10
-1.130000
 20
-0.625000
  0
SEQEND
  8
gg1
  0
POLYLINE
  8
gg1
 62
1
 40
0.000000
 41
0.000000
 66
  1
  0
VERTEX
  8
gg1
 10
-1.150000
 20
-0.645000
  0
VERTEX
  8
gg1
 10
-1.150000
 20
-0.605000
  0
SEQEND
  8
gg1
  0
POLYLINE
  8
gg1
 62
1
 40
0.000000
 41
0.000000
 66
  1
  0
VERTEX
  8
gg1
 10
-0.049200
 20
-1.150000
  0
VERTEX
  8
gg1
 10
-0.021700
 20
-1.150000
  0
SEQEND
  8
gg1
  0
POLYLINE
  8
gg1
 62
1
 40
0.000000
 41
0.000000
 66
  1
  0
VERTEX
  8
gg1
 10
-0.035400
 20
-1.163800
  0
VERTEX
  8
gg1
 10
-0.035400
 20
-1.136200
  0
SEQEND
  8
gg1
  0
POLYLINE
  8
gg1
 62
1
 40
0.000000
 41
0.000000
 66
  1
  0
VERTEX
  8
gg1
 10
-0.013800
 20
-1.185400
  0
VERTEX
  8
gg1
 10
0.013800
 20
-1.185400
  0
SEQEND
  8
gg1
  0
POLYLINE
  8
gg1
 62
1
 40
0.000000
 41
0.000000
 66
  1
  0
VERTEX
  8
gg1
 10
0.000000
 20
-1.199200
  0
VERTEX
  8
gg1
 10
0.000000
 20
-1.171700
  0
SEQEND
  8
gg1
  0
POLYLINE
  8
gg1
 62
1
 40
0.000000
 41
0.000000
 66
  1
  0
VERTEX
  8
gg1
 10
-0.013800
 20
-1.114600
  0
VERTEX
  8
gg1
 10
0.013800
 20
-1.114600
  0
SEQEND
  8
gg1
  0
POLYLINE
  8
gg1
 62
1
 40
0.000000
 41
0.000000
 66
  1
  0
VERTEX
  8
gg1
 10
0.000000
 20
-1.128300
  0
VERTEX
  8
gg1
 10
0.000000
 20
-1.100800
  0
SEQEND
  8
gg1
  0
POLYLINE
  8
gg1
 62
1
 40
0.000000
 41
0.000000
 66
  1
  0
VERTEX
  8
gg1
 10
0.021700
 20
-1.150000
  0
VERTEX
  8
gg1
 10
0.049200
 20
-1.150000
  0
SEQEND
  8
gg1
  0
POLYLINE
  8
gg1
 62
1
 40
0.000000
 41
0.000000
 66
  1
  0
VERTEX
  8
gg1
 10
0.035400
 20
-1.163800
  0
VERTEX
  8
gg1
 10
0.035400
 20
-1.136200
  0
SEQEND
  8
gg1
  0
POLYLINE
  8
gg1
 62
1
 40
0.000000
 41
0.000000
 66
  1
  0
VERTEX
  8
gg1
 10
-0.449200
 20
-1.150000
  0
VERTEX
  8
gg1
 10
-0.421700
 20
-1.150000
  0
SEQEND
  8
gg1
  0
POLYLINE
  8
gg1
 62
1
 40
0.000000
 41
0.000000
 66
  1
  0
VERTEX
  8
gg1
 10
-0.435400
 20
-1.163800
  0
VERTEX
  8
gg1
 10
-0.435400
 20
-1.136200
  0
SEQEND
  8
gg1
  0
POLYLINE
  8
gg1
 62
1
 40
0.000000
 41
0.000000
 66
  1
  0
VERTEX
  8
gg1
 10
-0.413800
 20
-1.185400
  0
VERTEX
  8
gg1
 10
-0.386200
 20
-1.185400
  0
SEQEND
  8
gg1
  0
POLYLINE
  8
gg1
 62
1
 40
0.000000
 41
0.000000
 66
  1
  0
VERTEX
  8
gg1
 10
-0.400000
 20
-1.199200
  0
VERTEX
  8
gg1
 10
-0.400000
 20
-1.171700
  0
SEQEND
  8
gg1
  0
POLYLINE
  8
gg1
 62
1
 40
0.000000
 41
0.000000
 66
  1
  0
VERTEX
  8
gg1
 10
-0.413800
 20
-1.114600
  0
VERTEX
  8
gg1
 10
-0.386200
 20
-1.114600
  0
SEQEND
  8
gg1
  0
POLYLINE
  8
gg1
 62
1
 40
0.000000
 41
0.000000
 66
  1
  0
VERTEX
  8
gg1
 10
-0.400000
 20
-1.128300
  0
VERTEX
  8
gg1
 10
-0.400000
 20
-1.100800
  0
SEQEND
  8
gg1
  0
POLYLINE
  8
gg1
 62
1
 40
0.000000
 41
0.000000
 66
  1
  0
VERTEX
  8
gg1
 10
-0.378300
 20
-1.150000
  0
VERTEX
  8
gg1
 10
-0.350800
 20
-1.150000
  0
SEQEND
  8
gg1
  0
POLYLINE
  8
gg1
 62
1
 40
0.000000
 41
0.000000
 66
  1
  0
VERTEX
  8
gg1
 10
-0.364600
 20
-1.163800
  0
VERTEX
  8
gg1
 10
-0.364600
 20
-1.136200
  0
SEQEND
  8
gg1
  0
POLYLINE
  8
gg1
 62
1
 40
0.000000
 41
0.000000
 66
  1
  0
VERTEX
  8
gg1
 10
0.350800
 20
-1.150000
  0
VERTEX
  8
gg1
 10
0.378300
 20
-1.150000
  0
SEQEND
  8
gg1
  0
POLYLINE
  8
gg1
 62
1
 40
0.000000
 41
0.000000
 66
  1
  0
VERTEX
  8
gg1
 10
0.364600
 20
-1.163800
  0
VERTEX
  8
gg1
 10
0.364600
 20
-1.136200
  0
SEQEND
  8
gg1
  0
POLYLINE
  8
gg1
 62
1
 40
0.000000
 41
0.000000
 66
  1
  0
VERTEX
  8
gg1
 10
0.386200
 20
-1.185400
  0
VERTEX
  8
gg1
 10
0.413800
 20
-1.185400
  0
SEQEND
  8
gg1
  0
POLYLINE
  8
gg1
 62
1
 40
0.000000
 41
0.000000
 66
  1
  0
VERTEX
  8
gg1
 10
0.400000
 20
-1.199200
  0
VERTEX
  8
gg1
 10
0.400000
 20
-1.171700
  0
SEQEND
  8
gg1
  0
POLYLINE
  8
gg1
 62
1
 40
0.000000
 41
0.000000
 66
  1
  0
VERTEX
  8
gg1
 10
0.386200
 20
-1.114600
  0
VERTEX
  8
gg1
 10
0.413800
 20
-1.114600
  0
SEQEND
  8
gg1
  0
POLYLINE
  8
gg1
 62
1
 40
0.000000
 41
0.000000
 66
  1
  0
VERTEX
  8
gg1
 10
0.400000
 20
-1.128300
  0
VERTEX
  8
gg1
 10
0.400000
 20
-1.100800
  0
SEQEND
  8
gg1
  0
POLYLINE
  8
gg1
 62
1
 40
0.000000
 41
0.000000
 66
  1
  0
VERTEX
  8
gg1
 10
0.421700
 20
-1.150000
  0
VERTEX
  8
gg1
 10
0.449200
 20
-1.150000
  0
SEQEND
  8
gg1
  0
POLYLINE
  8
gg1
 62
1
 40
0.000000
 41
0.000000
 66
  1
  0
VERTEX
  8
gg1
 10
0.435400
 20
-1.163800
  0
VERTEX
  8
gg1
 10
0.435400
 20
-1.136200
  0
SEQEND
  8
gg1
  0
POLYLINE
  8
gg1
 62
1
 40
0.000000
 41
0.000000
 66
  1
  0
VERTEX
  8
gg1
 10
-1.003300
 20
-0.675000
  0
VERTEX
  8
gg1
 10
-0.975800
 20
-0.675000
  0
SEQEND
  8
gg1
  0
POLYLINE
  8
gg1
 62
1
 40
0.000000
 41
0.000000
 66
  1
  0
VERTEX
  8
gg1
 10
-0.989600
 20
-0.688800
  0
VERTEX
  8
gg1
 10
-0.989600
 20
-0.661200
  0
SEQEND
  8
gg1
  0
POLYLINE
  8
gg1
 62
1
 40
0.000000
 41
0.000000
 66
  1
  0
VERTEX
  8
gg1
 10
-1.038800
 20
-0.639600
  0
VERTEX
  8
gg1
 10
-1.011200
 20
-0.639600
  0
SEQEND
  8
gg1
  0
POLYLINE
  8
gg1
 62
1
 40
0.000000
 41
0.000000
 66
  1
  0
VERTEX
  8
gg1
 10
-1.025000
 20
-0.653300
  0
VERTEX
  8
gg1
 10
-1.025000
 20
-0.625800
  0
SEQEND
  8
gg1
  0
POLYLINE
  8
gg1
 62
1
 40
0.000000
 41
0.000000
 66
  1
  0
VERTEX
  8
gg1
 10
-1.038800
 20
-0.710400
  0
VERTEX
  8
gg1
 10
-1.011200
 20
-0.710400
  0
SEQEND
  8
gg1
  0
POLYLINE
  8
gg1
 62
1
 40
0.000000
 41
0.000000
 66
  1
  0
VERTEX
  8
gg1
 10
-1.025000
 20
-0.724200
  0
VERTEX
  8
gg1
 10
-1.025000
 20
-0.696700
  0
SEQEND
  8
gg1
  0
POLYLINE
  8
gg1
 62
1
 40
0.000000
 41
0.000000
 66
  1
  0
VERTEX
  8
gg1
 10
-1.074200
 20
-0.675000
  0
VERTEX
  8
gg1
 10
-1.046700
 20
-0.675000
  0
SEQEND
  8
gg1
  0
POLYLINE
  8
gg1
 62
1
 40
0.000000
 41
0.000000
 66
  1
  0
VERTEX
  8
gg1
 10
-1.060400
 20
-0.688800
  0
VERTEX
  8
gg1
 10
-1.060400
 20
-0.661200
  0
SEQEND
  8
gg1
  0
POLYLINE
  8
gg1
 62
1
 40
0.000000
 41
0.000000
 66
  1
  0
VERTEX
  8
gg1
 10
0.415000
 20
0.615000
  0
VERTEX
  8
gg1
 10
0.435000
 20
0.615000
  0
SEQEND
  8
gg1
  0
POLYLINE
  8
gg1
 62
1
 40
0.000000
 41
0.000000
 66
  1
  0
VERTEX
  8
gg1
 10
0.425000
 20
0.605000
  0
VERTEX
  8
gg1
 10
0.425000
 20
0.625000
  0
SEQEND
  8
gg1
  0
POLYLINE
  8
gg1
 62
1
 40
0.000000
 41
0.000000
 66
  1
  0
VERTEX
  8
gg1
 10
-1.170000
 20
-0.525000
  0
VERTEX
  8
gg1
 10
-1.130000
 20
-0.525000
  0
SEQEND
  8
gg1
  0
POLYLINE
  8
gg1
 62
1
 40
0.000000
 41
0.000000
 66
  1
  0
VERTEX
  8
gg1
 10
-1.150000
 20
-0.545000
  0
VERTEX
  8
gg1
 10
-1.150000
 20
-0.505000
  0
SEQEND
  8
gg1
  0
POLYLINE
  8
gg1
 62
1
 40
0.000000
 41
0.000000
 66
  1
  0
VERTEX
  8
gg1
 10
-1.170000
 20
-0.725000
  0
VERTEX
  8
gg1
 10
-1.130000
 20
-0.725000
  0
SEQEND
  8
gg1
  0
POLYLINE
  8
gg1
 62
1
 40
0.000000
 41
0.000000
 66
  1
  0
VERTEX
  8
gg1
 10
-1.150000
 20
-0.745000
  0
VERTEX
  8
gg1
 10
-1.150000
 20
-0.705000
  0
SEQEND
  8
gg1
  0
POLYLINE
  8
gg1
 62
1
 40
0.000000
 41
0.000000
 66
  1
  0
VERTEX
  8
gg1
 10
-1.170000
 20
-0.925000
  0
VERTEX
  8
gg1
 10
-1.130000
 20
-0.925000
  0
SEQEND
  8
gg1
  0
POLYLINE
  8
gg1
 62
1
 40
0.000000
 41
0.000000
 66
  1
  0
VERTEX
  8
gg1
 10
-1.150000
 20
-0.945000
  0
VERTEX
  8
gg1
 10
-1.150000
 20
-0.905000
  0
SEQEND
  8
gg1
  0
POLYLINE
  8
gg1
 62
1
 40
0.000000
 41
0.000000
 66
  1
  0
VERTEX
  8
gg1
 10
-1.170000
 20
-0.825000
  0
VERTEX
  8
gg1
 10
-1.130000
 20
-0.825000
  0
SEQEND
  8
gg1
  0
POLYLINE
  8
gg1
 62
1
 40
0.000000
 41
0.000000
 66
  1
  0
VERTEX
  8
gg1
 10
-1.150000
 20
-0.845000
  0
VERTEX
  8
gg1
 10
-1.150000
 20
-0.805000
  0
SEQEND
  8
gg1
  0
POLYLINE
  8
gg1
 62
1
 40
0.000000
 41
0.000000
 66
  1
  0
VERTEX
  8
gg1
 10
-1.270000
 20
-0.625000
  0
VERTEX
  8
gg1
 10
-1.230000
 20
-0.625000
  0
SEQEND
  8
gg1
  0
POLYLINE
  8
gg1
 62
1
 40
0.000000
 41
0.000000
 66
  1
  0
VERTEX
  8
gg1
 10
-1.250000
 20
-0.645000
  0
VERTEX
  8
gg1
 10
-1.250000
 20
-0.605000
  0
SEQEND
  8
gg1
  0
POLYLINE
  8
gg1
 62
1
 40
0.000000
 41
0.000000
 66
  1
  0
VERTEX
  8
gg1
 10
-1.270000
 20
-0.725000
  0
VERTEX
  8
gg1
 10
-1.230000
 20
-0.725000
  0
SEQEND
  8
gg1
  0
POLYLINE
  8
gg1
 62
1
 40
0.000000
 41
0.000000
 66
  1
  0
VERTEX
  8
gg1
 10
-1.250000
 20
-0.745000
  0
VERTEX
  8
gg1
 10
-1.250000
 20
-0.705000
  0
SEQEND
  8
gg1
  0
POLYLINE
  8
gg1
 62
1
 40
0.000000
 41
0.000000
 66
  1
  0
VERTEX
  8
gg1
 10
0.248000
 20
0.720500
  0
VERTEX
  8
gg1
 10
0.342500
 20
0.720500
  0
SEQEND
  8
gg1
  0
POLYLINE
  8
gg1
 62
1
 40
0.000000
 41
0.000000
 66
  1
  0
VERTEX
  8
gg1
 10
0.295300
 20
0.673200
  0
VERTEX
  8
gg1
 10
0.295300
 20
0.767700
  0
SEQEND
  8
gg1
  0
POLYLINE
  8
gg1
 62
1
 40
0.000000
 41
0.000000
 66
  1
  0
VERTEX
  8
gg1
 10
0.543300
 20
0.720500
  0
VERTEX
  8
gg1
 10
0.637800
 20
0.720500
  0
SEQEND
  8
gg1
  0
POLYLINE
  8
gg1
 62
1
 40
0.000000
 41
0.000000
 66
  1
  0
VERTEX
  8
gg1
 10
0.590600
 20
0.673200
  0
VERTEX
  8
gg1
 10
0.590600
 20
0.767700
  0
SEQEND
  8
gg1
  0
POLYLINE
  8
gg1
 62
1
 40
0.000000
 41
0.000000
 66
  1
  0
VERTEX
  8
gg1
 10
-0.047200
 20
0.720500
  0
VERTEX
  8
gg1
 10
0.047200
 20
0.720500
  0
SEQEND
  8
gg1
  0
POLYLINE
  8
gg1
 62
1
 40
0.000000
 41
0.000000
 66
  1
  0
VERTEX
  8
gg1
 10
0.000000
 20
0.673200
  0
VERTEX
  8
gg1
 10
0.000000
 20
0.767700
  0
SEQEND
  8
gg1
  0
POLYLINE
  8
gg1
 62
1
 40
0.000000
 41
0.000000
 66
  1
  0
VERTEX
  8
gg1
 10
-0.342500
 20
0.720500
  0
VERTEX
  8
gg1
 10
-0.248000
 20
0.720500
  0
SEQEND
  8
gg1
  0
POLYLINE
  8
gg1
 62
1
 40
0.000000
 41
0.000000
 66
  1
  0
VERTEX
  8
gg1
 10
-0.295300
 20
0.673200
  0
VERTEX
  8
gg1
 10
-0.295300
 20
0.767700
  0
SEQEND
  8
gg1
  0
POLYLINE
  8
gg1
 62
1
 40
0.000000
 41
0.000000
 66
  1
  0
VERTEX
  8
gg1
 10
-0.637800
 20
0.720500
  0
VERTEX
  8
gg1
 10
-0.543300
 20
0.720500
  0
SEQEND
  8
gg1
  0
POLYLINE
  8
gg1
 62
1
 40
0.000000
 41
0.000000
 66
  1
  0
VERTEX
  8
gg1
 10
-0.590600
 20
0.673200
  0
VERTEX
  8
gg1
 10
-0.590600
 20
0.767700
  0
SEQEND
  8
gg1
  0
POLYLINE
  8
gg1
 62
1
 40
0.000000
 41
0.000000
 66
  1
  0
VERTEX
  8
gg1
 10
0.543300
 20
-0.897600
  0
VERTEX
  8
gg1
 10
0.637800
 20
-0.897600
  0
SEQEND
  8
gg1
  0
POLYLINE
  8
gg1
 62
1
 40
0.000000
 41
0.000000
 66
  1
  0
VERTEX
  8
gg1
 10
0.590600
 20
-0.944900
  0
VERTEX
  8
gg1
 10
0.590600
 20
-0.850400
  0
SEQEND
  8
gg1
  0
POLYLINE
  8
gg1
 62
1
 40
0.000000
 41
0.000000
 66
  1
  0
VERTEX
  8
gg1
 10
0.248000
 20
-0.897600
  0
VERTEX
  8
gg1
 10
0.342500
 20
-0.897600
  0
SEQEND
  8
gg1
  0
POLYLINE
  8
gg1
 62
1
 40
0.000000
 41
0.000000
 66
  1
  0
VERTEX
  8
gg1
 10
0.295300
 20
-0.944900
  0
VERTEX
  8
gg1
 10
0.295300
 20
-0.850400
  0
SEQEND
  8
gg1
  0
POLYLINE
  8
gg1
 62
1
 40
0.000000
 41
0.000000
 66
  1
  0
VERTEX
  8
gg1
 10
-0.047200
 20
-0.897600
  0
VERTEX
  8
gg1
 10
0.047200
 20
-0.897600
  0
SEQEND
  8
gg1
  0
POLYLINE
  8
gg1
 62
1
 40
0.000000
 41
0.000000
 66
  1
  0
VERTEX
  8
gg1
 10
0.000000
 20
-0.944900
  0
VERTEX
  8
gg1
 10
0.000000
 20
-0.850400
  0
SEQEND
  8
gg1
  0
POLYLINE
  8
gg1
 62
1
 40
0.000000
 41
0.000000
 66
  1
  0
VERTEX
  8
gg1
 10
-0.637800
 20
-0.897600
  0
VERTEX
  8
gg1
 10
-0.543300
 20
-0.897600
  0
SEQEND
  8
gg1
  0
POLYLINE
  8
gg1
 62
1
 40
0.000000
 41
0.000000
 66
  1
  0
VERTEX
  8
gg1
 10
-0.590600
 20
-0.944900
  0
VERTEX
  8
gg1
 10
-0.590600
 20
-0.850400
  0
SEQEND
  8
gg1
  0
POLYLINE
  8
gg1
 62
1
 40
0.000000
 41
0.000000
 66
  1
  0
VERTEX
  8
gg1
 10
-0.342500
 20
-0.897600
  0
VERTEX
  8
gg1
 10
-0.248000
 20
-0.897600
  0
SEQEND
  8
gg1
  0
POLYLINE
  8
gg1
 62
1
 40
0.000000
 41
0.000000
 66
  1
  0
VERTEX
  8
gg1
 10
-0.295300
 20
-0.944900
  0
VERTEX
  8
gg1
 10
-0.295300
 20
-0.850400
  0
SEQEND
  8
gg1
  0
POLYLINE
  8
gg1
 62
1
 40
0.000000
 41
0.000000
 66
  1
  0
VERTEX
  8
gg1
 10
0.037500
 20
-0.010000
  0
VERTEX
  8
gg1
 10
0.052500
 20
-0.010000
  0
SEQEND
  8
gg1
  0
POLYLINE
  8
gg1
 62
1
 40
0.000000
 41
0.000000
 66
  1
  0
VERTEX
  8
gg1
 10
0.045000
 20
-0.017500
  0
VERTEX
  8
gg1
 10
0.045000
 20
-0.002500
  0
SEQEND
  8
gg1
  0
POLYLINE
  8
gg1
 62
1
 40
0.000000
 41
0.000000
 66
  1
  0
VERTEX
  8
gg1
 10
0.047500
 20
0.060000
  0
VERTEX
  8
gg1
 10
0.062500
 20
0.060000
  0
SEQEND
  8
gg1
  0
POLYLINE
  8
gg1
 62
1
 40
0.000000
 41
0.000000
 66
  1
  0
VERTEX
  8
gg1
 10
0.055000
 20
0.052500
  0
VERTEX
  8
gg1
 10
0.055000
 20
0.067500
  0
SEQEND
  8
gg1
  0
POLYLINE
  8
gg1
 62
1
 40
0.000000
 41
0.000000
 66
  1
  0
VERTEX
  8
gg1
 10
0.147500
 20
0.135000
  0
VERTEX
  8
gg1
 10
0.162500
 20
0.135000
  0
SEQEND
  8
gg1
  0
POLYLINE
  8
gg1
 62
1
 40
0.000000
 41
0.000000
 66
  1
  0
VERTEX
  8
gg1
 10
0.155000
 20
0.127500
  0
VERTEX
  8
gg1
 10
0.155000
 20
0.142500
  0
SEQEND
  8
gg1
  0
POLYLINE
  8
gg1
 62
1
 40
0.000000
 41
0.000000
 66
  1
  0
VERTEX
  8
gg1
 10
0.182500
 20
-1.345000
  0
VERTEX
  8
gg1
 10
0.197500
 20
-1.345000
  0
SEQEND
  8
gg1
  0
POLYLINE
  8
gg1
 62
1
 40
0.000000
 41
0.000000
 66
  1
  0
VERTEX
  8
gg1
 10
0.190000
 20
-1.352500
  0
VERTEX
  8
gg1
 10
0.190000
 20
-1.337500
  0
SEQEND
  8
gg1
  0
POLYLINE
  8
gg1
 62
1
 40
0.000000
 41
0.000000
 66
  1
  0
VERTEX
  8
gg1
 10
-0.297500
 20
0.215000
  0
VERTEX
  8
gg1
 10
-0.282500
 20
0.215000
  0
SEQEND
  8
gg1
  0
POLYLINE
  8
gg1
 62
1
 40
0.000000
 41
0.000000
 66
  1
  0
VERTEX
  8
gg1
 10
-0.290000
 20
0.207500
  0
VERTEX
  8
gg1
 10
-0.290000
 20
0.222500
  0
SEQEND
  8
gg1
  0
POLYLINE
  8
gg1
 62
1
 40
0.000000
 41
0.000000
 66
  1
  0
VERTEX
  8
gg1
 10
0.877500
 20
0.100000
  0
VERTEX
  8
gg1
 10
0.892500
 20
0.100000
  0
SEQEND
  8
gg1
  0
POLYLINE
  8
gg1
 62
1
 40
0.000000
 41
0.000000
 66
  1
  0
VERTEX
  8
gg1
 10
0.885000
 20
0.092500
  0
VERTEX
  8
gg1
 10
0.885000
 20
0.107500
  0
SEQEND
  8
gg1
  0
POLYLINE
  8
gg1
 62
1
 40
0.000000
 41
0.000000
 66
  1
  0
VERTEX
  8
gg1
 10
0.772500
 20
0.285000
  0
VERTEX
  8
gg1
 10
0.787500
 20
0.285000
  0
SEQEND
  8
gg1
  0
POLYLINE
  8
gg1
 62
1
 40
0.000000
 41
0.000000
 66
  1
  0
VERTEX
  8
gg1
 10
0.780000
 20
0.277500
  0
VERTEX
  8
gg1
 10
0.780000
 20
0.292500
  0
SEQEND
  8
gg1
  0
POLYLINE
  8
gg1
 62
1
 40
0.000000
 41
0.000000
 66
  1
  0
VERTEX
  8
gg1
 10
0.772500
 20
0.225000
  0
VERTEX
  8
gg1
 10
0.787500
 20
0.225000
  0
SEQEND
  8
gg1
  0
POLYLINE
  8
gg1
 62
1
 40
0.000000
 41
0.000000
 66
  1
  0
VERTEX
  8
gg1
 10
0.780000
 20
0.217500
  0
VERTEX
  8
gg1
 10
0.780000
 20
0.232500
  0
SEQEND
  8
gg1
  0
POLYLINE
  8
gg1
 62
1
 40
0.000000
 41
0.000000
 66
  1
  0
VERTEX
  8
gg1
 10
0.772500
 20
0.165000
  0
VERTEX
  8
gg1
 10
0.787500
 20
0.165000
  0
SEQEND
  8
gg1
  0
POLYLINE
  8
gg1
 62
1
 40
0.000000
 41
0.000000
 66
  1
  0
VERTEX
  8
gg1
 10
0.780000
 20
0.157500
  0
VERTEX
  8
gg1
 10
0.780000
 20
0.172500
  0
SEQEND
  8
gg1
  0
POLYLINE
  8
gg1
 62
1
 40
0.000000
 41
0.000000
 66
  1
  0
VERTEX
  8
gg1
 10
0.772500
 20
0.105000
  0
VERTEX
  8
gg1
 10
0.787500
 20
0.105000
  0
SEQEND
  8
gg1
  0
POLYLINE
  8
gg1
 62
1
 40
0.000000
 41
0.000000
 66
  1
  0
VERTEX
  8
gg1
 10
0.780000
 20
0.097500
  0
VERTEX
  8
gg1
 10
0.780000
 20
0.112500
  0
SEQEND
  8
gg1
  0
POLYLINE
  8
gg1
 62
1
 40
0.000000
 41
0.000000
 66
  1
  0
VERTEX
  8
gg1
 10
0.802500
 20
0.255000
  0
VERTEX
  8
gg1
 10
0.817500
 20
0.255000
  0
SEQEND
  8
gg1
  0
POLYLINE
  8
gg1
 62
1
 40
0.000000
 41
0.000000
 66
  1
  0
VERTEX
  8
gg1
 10
0.810000
 20
0.247500
  0
VERTEX
  8
gg1
 10
0.810000
 20
0.262500
  0
SEQEND
  8
gg1
  0
POLYLINE
  8
gg1
 62
1
 40
0.000000
 41
0.000000
 66
  1
  0
VERTEX
  8
gg1
 10
0.802500
 20
0.195000
  0
VERTEX
  8
gg1
 10
0.817500
 20
0.195000
  0
SEQEND
  8
gg1
  0
POLYLINE
  8
gg1
 62
1
 40
0.000000
 41
0.000000
 66
  1
  0
VERTEX
  8
gg1
 10
0.810000
 20
0.187500
  0
VERTEX
  8
gg1
 10
0.810000
 20
0.202500
  0
SEQEND
  8
gg1
  0
POLYLINE
  8
gg1
 62
1
 40
0.000000
 41
0.000000
 66
  1
  0
VERTEX
  8
gg1
 10
0.802500
 20
0.135000
  0
VERTEX
  8
gg1
 10
0.817500
 20
0.135000
  0
SEQEND
  8
gg1
  0
POLYLINE
  8
gg1
 62
1
 40
0.000000
 41
0.000000
 66
  1
  0
VERTEX
  8
gg1
 10
0.810000
 20
0.127500
  0
VERTEX
  8
gg1
 10
0.810000
 20
0.142500
  0
SEQEND
  8
gg1
  0
POLYLINE
  8
gg1
 62
1
 40
0.000000
 41
0.000000
 66
  1
  0
VERTEX
  8
gg1
 10
0.802500
 20
0.075000
  0
VERTEX
  8
gg1
 10
0.817500
 20
0.075000
  0
SEQEND
  8
gg1
  0
POLYLINE
  8
gg1
 62
1
 40
0.000000
 41
0.000000
 66
  1
  0
VERTEX
  8
gg1
 10
0.810000
 20
0.067500
  0
VERTEX
  8
gg1
 10
0.810000
 20
0.082500
  0
SEQEND
  8
gg1
  0
POLYLINE
  8
gg1
 62
1
 40
0.000000
 41
0.000000
 66
  1
  0
VERTEX
  8
gg1
 10
0.347500
 20
0.110000
  0
VERTEX
  8
gg1
 10
0.362500
 20
0.110000
  0
SEQEND
  8
gg1
  0
POLYLINE
  8
gg1
 62
1
 40
0.000000
 41
0.000000
 66
  1
  0
VERTEX
  8
gg1
 10
0.355000
 20
0.102500
  0
VERTEX
  8
gg1
 10
0.355000
 20
0.117500
  0
SEQEND
  8
gg1
  0
POLYLINE
  8
gg1
 62
1
 40
0.000000
 41
0.000000
 66
  1
  0
VERTEX
  8
gg1
 10
0.347500
 20
0.170000
  0
VERTEX
  8
gg1
 10
0.362500
 20
0.170000
  0
SEQEND
  8
gg1
  0
POLYLINE
  8
gg1
 62
1
 40
0.000000
 41
0.000000
 66
  1
  0
VERTEX
  8
gg1
 10
0.355000
 20
0.162500
  0
VERTEX
  8
gg1
 10
0.355000
 20
0.177500
  0
SEQEND
  8
gg1
  0
POLYLINE
  8
gg1
 62
1
 40
0.000000
 41
0.000000
 66
  1
  0
VERTEX
  8
gg1
 10
0.827500
 20
-0.265000
  0
VERTEX
  8
gg1
 10
0.842500
 20
-0.265000
  0
SEQEND
  8
gg1
  0
POLYLINE
  8
gg1
 62
1
 40
0.000000
 41
0.000000
 66
  1
  0
VERTEX
  8
gg1
 10
0.835000
 20
-0.272500
  0
VERTEX
  8
gg1
 10
0.835000
 20
-0.257500
  0
SEQEND
  8
gg1
  0
POLYLINE
  8
gg1
 62
1
 40
0.000000
 41
0.000000
 66
  1
  0
VERTEX
  8
gg1
 10
0.767500
 20
-0.175000
  0
VERTEX
  8
gg1
 10
0.782500
 20
-0.175000
  0
SEQEND
  8
gg1
  0
POLYLINE
  8
gg1
 62
1
 40
0.000000
 41
0.000000
 66
  1
  0
VERTEX
  8
gg1
 10
0.775000
 20
-0.182500
  0
VERTEX
  8
gg1
 10
0.775000
 20
-0.167500
  0
SEQEND
  8
gg1
  0
POLYLINE
  8
gg1
 62
1
 40
0.000000
 41
0.000000
 66
  1
  0
VERTEX
  8
gg1
 10
0.767500
 20
-0.135000
  0
VERTEX
  8
gg1
 10
0.782500
 20
-0.135000
  0
SEQEND
  8
gg1
  0
POLYLINE
  8
gg1
 62
1
 40
0.000000
 41
0.000000
 66
  1
  0
VERTEX
  8
gg1
 10
0.775000
 20
-0.142500
  0
VERTEX
  8
gg1
 10
0.775000
 20
-0.127500
  0
SEQEND
  8
gg1
  0
POLYLINE
  8
gg1
 62
1
 40
0.000000
 41
0.000000
 66
  1
  0
VERTEX
  8
gg1
 10
-0.082500
 20
-0.505000
  0
VERTEX
  8
gg1
 10
-0.067500
 20
-0.505000
  0
SEQEND
  8
gg1
  0
POLYLINE
  8
gg1
 62
1
 40
0.000000
 41
0.000000
 66
  1
  0
VERTEX
  8
gg1
 10
-0.075000
 20
-0.512500
  0
VERTEX
  8
gg1
 10
-0.075000
 20
-0.497500
  0
SEQEND
  8
gg1
  0
POLYLINE
  8
gg1
 62
1
 40
0.000000
 41
0.000000
 66
  1
  0
VERTEX
  8
gg1
 10
-0.177500
 20
-1.095000
  0
VERTEX
  8
gg1
 10
-0.162500
 20
-1.095000
  0
SEQEND
  8
gg1
  0
POLYLINE
  8
gg1
 62
1
 40
0.000000
 41
0.000000
 66
  1
  0
VERTEX
  8
gg1
 10
-0.170000
 20
-1.102500
  0
VERTEX
  8
gg1
 10
-0.170000
 20
-1.087500
  0
SEQEND
  8
gg1
  0
POLYLINE
  8
gg1
 62
1
 40
0.000000
 41
0.000000
 66
  1
  0
VERTEX
  8
gg1
 10
-0.097500
 20
-0.995000
  0
VERTEX
  8
gg1
 10
-0.082500
 20
-0.995000
  0
SEQEND
  8
gg1
  0
POLYLINE
  8
gg1
 62
1
 40
0.000000
 41
0.000000
 66
  1
  0
VERTEX
  8
gg1
 10
-0.090000
 20
-1.002500
  0
VERTEX
  8
gg1
 10
-0.090000
 20
-0.987500
  0
SEQEND
  8
gg1
  0
POLYLINE
  8
gg1
 62
1
 40
0.000000
 41
0.000000
 66
  1
  0
VERTEX
  8
gg1
 10
-0.147500
 20
-1.275000
  0
VERTEX
  8
gg1
 10
-0.132500
 20
-1.275000
  0
SEQEND
  8
gg1
  0
POLYLINE
  8
gg1
 62
1
 40
0.000000
 41
0.000000
 66
  1
  0
VERTEX
  8
gg1
 10
-0.140000
 20
-1.282500
  0
VERTEX
  8
gg1
 10
-0.140000
 20
-1.267500
  0
SEQEND
  8
gg1
  0
POLYLINE
  8
gg1
 62
1
 40
0.000000
 41
0.000000
 66
  1
  0
VERTEX
  8
gg1
 10
0.432500
 20
-0.960000
  0
VERTEX
  8
gg1
 10
0.447500
 20
-0.960000
  0
SEQEND
  8
gg1
  0
POLYLINE
  8
gg1
 62
1
 40
0.000000
 41
0.000000
 66
  1
  0
VERTEX
  8
gg1
 10
0.440000
 20
-0.967500
  0
VERTEX
  8
gg1
 10
0.440000
 20
-0.952500
  0
SEQEND
  8
gg1
  0
POLYLINE
  8
gg1
 62
1
 40
0.000000
 41
0.000000
 66
  1
  0
VERTEX
  8
gg1
 10
0.047500
 20
-1.195000
  0
VERTEX
  8
gg1
 10
0.062500
 20
-1.195000
  0
SEQEND
  8
gg1
  0
POLYLINE
  8
gg1
 62
1
 40
0.000000
 41
0.000000
 66
  1
  0
VERTEX
  8
gg1
 10
0.055000
 20
-1.202500
  0
VERTEX
  8
gg1
 10
0.055000
 20
-1.187500
  0
SEQEND
  8
gg1
  0
POLYLINE
  8
gg1
 62
1
 40
0.000000
 41
0.000000
 66
  1
  0
VERTEX
  8
gg1
 10
0.212500
 20
-1.375000
  0
VERTEX
  8
gg1
 10
0.227500
 20
-1.375000
  0
SEQEND
  8
gg1
  0
POLYLINE
  8
gg1
 62
1
 40
0.000000
 41
0.000000
 66
  1
  0
VERTEX
  8
gg1
 10
0.220000
 20
-1.382500
  0
VERTEX
  8
gg1
 10
0.220000
 20
-1.367500
  0
SEQEND
  8
gg1
  0
POLYLINE
  8
gg1
 62
1
 40
0.000000
 41
0.000000
 66
  1
  0
VERTEX
  8
gg1
 10
0.150000
 20
-0.950000
  0
VERTEX
  8
gg1
 10
0.165000
 20
-0.950000
  0
SEQEND
  8
gg1
  0
POLYLINE
  8
gg1
 62
1
 40
0.000000
 41
0.000000
 66
  1
  0
VERTEX
  8
gg1
 10
0.157500
 20
-0.957500
  0
VERTEX
  8
gg1
 10
0.157500
 20
-0.942500
  0
SEQEND
  8
gg1
  0
POLYLINE
  8
gg1
 62
1
 40
0.000000
 41
0.000000
 66
  1
  0
VERTEX
  8
gg1
 10
-0.157500
 20
0.600000
  0
VERTEX
  8
gg1
 10
-0.142500
 20
0.600000
  0
SEQEND
  8
gg1
  0
POLYLINE
  8
gg1
 62
1
 40
0.000000
 41
0.000000
 66
  1
  0
VERTEX
  8
gg1
 10
-0.150000
 20
0.592500
  0
VERTEX
  8
gg1
 10
-0.150000
 20
0.607500
  0
SEQEND
  8
gg1
  0
POLYLINE
  8
gg1
 62
1
 40
0.000000
 41
0.000000
 66
  1
  0
VERTEX
  8
gg1
 10
-0.557500
 20
0.360000
  0
VERTEX
  8
gg1
 10
-0.542500
 20
0.360000
  0
SEQEND
  8
gg1
  0
POLYLINE
  8
gg1
 62
1
 40
0.000000
 41
0.000000
 66
  1
  0
VERTEX
  8
gg1
 10
-0.550000
 20
0.352500
  0
VERTEX
  8
gg1
 10
-0.550000
 20
0.367500
  0
SEQEND
  8
gg1
  0
POLYLINE
  8
gg1
 62
1
 40
0.000000
 41
0.000000
 66
  1
  0
VERTEX
  8
gg1
 10
-0.407500
 20
0.360000
  0
VERTEX
  8
gg1
 10
-0.392500
 20
0.360000
  0
SEQEND
  8
gg1
  0
POLYLINE
  8
gg1
 62
1
 40
0.000000
 41
0.000000
 66
  1
  0
VERTEX
  8
gg1
 10
-0.400000
 20
0.352500
  0
VERTEX
  8
gg1
 10
-0.400000
 20
0.367500
  0
SEQEND
  8
gg1
  0
POLYLINE
  8
gg1
 62
1
 40
0.000000
 41
0.000000
 66
  1
  0
VERTEX
  8
gg1
 10
-0.362500
 20
0.280000
  0
VERTEX
  8
gg1
 10
-0.347500
 20
0.280000
  0
SEQEND
  8
gg1
  0
POLYLINE
  8
gg1
 62
1
 40
0.000000
 41
0.000000
 66
  1
  0
VERTEX
  8
gg1
 10
-0.355000
 20
0.272500
  0
VERTEX
  8
gg1
 10
-0.355000
 20
0.287500
  0
SEQEND
  8
gg1
  0
POLYLINE
  8
gg1
 62
1
 40
0.000000
 41
0.000000
 66
  1
  0
VERTEX
  8
gg1
 10
-0.327500
 20
0.215000
  0
VERTEX
  8
gg1
 10
-0.312500
 20
0.215000
  0
SEQEND
  8
gg1
  0
POLYLINE
  8
gg1
 62
1
 40
0.000000
 41
0.000000
 66
  1
  0
VERTEX
  8
gg1
 10
-0.320000
 20
0.207500
  0
VERTEX
  8
gg1
 10
-0.320000
 20
0.222500
  0
SEQEND
  8
gg1
  0
POLYLINE
  8
gg1
 62
1
 40
0.000000
 41
0.000000
 66
  1
  0
VERTEX
  8
gg1
 10
0.417500
 20
0.485000
  0
VERTEX
  8
gg1
 10
0.432500
 20
0.485000
  0
SEQEND
  8
gg1
  0
POLYLINE
  8
gg1
 62
1
 40
0.000000
 41
0.000000
 66
  1
  0
VERTEX
  8
gg1
 10
0.425000
 20
0.477500
  0
VERTEX
  8
gg1
 10
0.425000
 20
0.492500
  0
SEQEND
  8
gg1
  0
POLYLINE
  8
gg1
 62
1
 40
0.000000
 41
0.000000
 66
  1
  0
VERTEX
  8
gg1
 10
0.202500
 20
0.335000
  0
VERTEX
  8
gg1
 10
0.217500
 20
0.335000
  0
SEQEND
  8
gg1
  0
POLYLINE
  8
gg1
 62
1
 40
0.000000
 41
0.000000
 66
  1
  0
VERTEX
  8
gg1
 10
0.210000
 20
0.327500
  0
VERTEX
  8
gg1
 10
0.210000
 20
0.342500
  0
SEQEND
  8
gg1
  0
POLYLINE
  8
gg1
 62
1
 40
0.000000
 41
0.000000
 66
  1
  0
VERTEX
  8
gg1
 10
0.142500
 20
0.335000
  0
VERTEX
  8
gg1
 10
0.157500
 20
0.335000
  0
SEQEND
  8
gg1
  0
POLYLINE
  8
gg1
 62
1
 40
0.000000
 41
0.000000
 66
  1
  0
VERTEX
  8
gg1
 10
0.150000
 20
0.327500
  0
VERTEX
  8
gg1
 10
0.150000
 20
0.342500
  0
SEQEND
  8
gg1
  0
POLYLINE
  8
gg1
 62
1
 40
0.000000
 41
0.000000
 66
  1
  0
VERTEX
  8
gg1
 10
0.372500
 20
0.610000
  0
VERTEX
  8
gg1
 10
0.387500
 20
0.610000
  0
SEQEND
  8
gg1
  0
POLYLINE
  8
gg1
 62
1
 40
0.000000
 41
0.000000
 66
  1
  0
VERTEX
  8
gg1
 10
0.380000
 20
0.602500
  0
VERTEX
  8
gg1
 10
0.380000
 20
0.617500
  0
SEQEND
  8
gg1
  0
POLYLINE
  8
gg1
 62
1
 40
0.000000
 41
0.000000
 66
  1
  0
VERTEX
  8
gg1
 10
0.357500
 20
0.365000
  0
VERTEX
  8
gg1
 10
0.372500
 20
0.365000
  0
SEQEND
  8
gg1
  0
POLYLINE
  8
gg1
 62
1
 40
0.000000
 41
0.000000
 66
  1
  0
VERTEX
  8
gg1
 10
0.365000
 20
0.357500
  0
VERTEX
  8
gg1
 10
0.365000
 20
0.372500
  0
SEQEND
  8
gg1
  0
POLYLINE
  8
gg1
 62
1
 40
0.000000
 41
0.000000
 66
  1
  0
VERTEX
  8
gg1
 10
0.047500
 20
0.335000
  0
VERTEX
  8
gg1
 10
0.062500
 20
0.335000
  0
SEQEND
  8
gg1
  0
POLYLINE
  8
gg1
 62
1
 40
0.000000
 41
0.000000
 66
  1
  0
VERTEX
  8
gg1
 10
0.055000
 20
0.327500
  0
VERTEX
  8
gg1
 10
0.055000
 20
0.342500
  0
SEQEND
  8
gg1
  0
POLYLINE
  8
gg1
 62
1
 40
0.000000
 41
0.000000
 66
  1
  0
VERTEX
  8
gg1
 10
-0.117500
 20
0.135000
  0
VERTEX
  8
gg1
 10
-0.102500
 20
0.135000
  0
SEQEND
  8
gg1
  0
POLYLINE
  8
gg1
 62
1
 40
0.000000
 41
0.000000
 66
  1
  0
VERTEX
  8
gg1
 10
-0.110000
 20
0.127500
  0
VERTEX
  8
gg1
 10
-0.110000
 20
0.142500
  0
SEQEND
  8
gg1
  0
POLYLINE
  8
gg1
 62
1
 40
0.000000
 41
0.000000
 66
  1
  0
VERTEX
  8
gg1
 10
0.257500
 20
0.045000
  0
VERTEX
  8
gg1
 10
0.272500
 20
0.045000
  0
SEQEND
  8
gg1
  0
POLYLINE
  8
gg1
 62
1
 40
0.000000
 41
0.000000
 66
  1
  0
VERTEX
  8
gg1
 10
0.265000
 20
0.037500
  0
VERTEX
  8
gg1
 10
0.265000
 20
0.052500
  0
SEQEND
  8
gg1
  0
POLYLINE
  8
gg1
 62
1
 40
0.000000
 41
0.000000
 66
  1
  0
VERTEX
  8
gg1
 10
0.287500
 20
0.045000
  0
VERTEX
  8
gg1
 10
0.302500
 20
0.045000
  0
SEQEND
  8
gg1
  0
POLYLINE
  8
gg1
 62
1
 40
0.000000
 41
0.000000
 66
  1
  0
VERTEX
  8
gg1
 10
0.295000
 20
0.037500
  0
VERTEX
  8
gg1
 10
0.295000
 20
0.052500
  0
SEQEND
  8
gg1
  0
POLYLINE
  8
gg1
 62
1
 40
0.000000
 41
0.000000
 66
  1
  0
VERTEX
  8
gg1
 10
-0.597500
 20
0.490000
  0
VERTEX
  8
gg1
 10
-0.582500
 20
0.490000
  0
SEQEND
  8
gg1
  0
POLYLINE
  8
gg1
 62
1
 40
0.000000
 41
0.000000
 66
  1
  0
VERTEX
  8
gg1
 10
-0.590000
 20
0.482500
  0
VERTEX
  8
gg1
 10
-0.590000
 20
0.497500
  0
SEQEND
  8
gg1
  0
POLYLINE
  8
gg1
 62
1
 40
0.000000
 41
0.000000
 66
  1
  0
VERTEX
  8
gg1
 10
-0.597500
 20
-0.395000
  0
VERTEX
  8
gg1
 10
-0.582500
 20
-0.395000
  0
SEQEND
  8
gg1
  0
POLYLINE
  8
gg1
 62
1
 40
0.000000
 41
0.000000
 66
  1
  0
VERTEX
  8
gg1
 10
-0.590000
 20
-0.402500
  0
VERTEX
  8
gg1
 10
-0.590000
 20
-0.387500
  0
SEQEND
  8
gg1
  0
POLYLINE
  8
gg1
 62
1
 40
0.000000
 41
0.000000
 66
  1
  0
VERTEX
  8
gg1
 10
-0.567500
 20
-0.410000
  0
VERTEX
  8
gg1
 10
-0.552500
 20
-0.410000
  0
SEQEND
  8
gg1
  0
POLYLINE
  8
gg1
 62
1
 40
0.000000
 41
0.000000
 66
  1
  0
VERTEX
  8
gg1
 10
-0.560000
 20
-0.417500
  0
VERTEX
  8
gg1
 10
-0.560000
 20
-0.402500
  0
SEQEND
  8
gg1
  0
POLYLINE
  8
gg1
 62
1
 40
0.000000
 41
0.000000
 66
  1
  0
VERTEX
  8
gg1
 10
-0.567500
 20
-0.440000
  0
VERTEX
  8
gg1
 10
-0.552500
 20
-0.440000
  0
SEQEND
  8
gg1
  0
POLYLINE
  8
gg1
 62
1
 40
0.000000
 41
0.000000
 66
  1
  0
VERTEX
  8
gg1
 10
-0.560000
 20
-0.447500
  0
VERTEX
  8
gg1
 10
-0.560000
 20
-0.432500
  0
SEQEND
  8
gg1
  0
POLYLINE
  8
gg1
 62
1
 40
0.000000
 41
0.000000
 66
  1
  0
VERTEX
  8
gg1
 10
-0.597500
 20
-0.425000
  0
VERTEX
  8
gg1
 10
-0.582500
 20
-0.425000
  0
SEQEND
  8
gg1
  0
POLYLINE
  8
gg1
 62
1
 40
0.000000
 41
0.000000
 66
  1
  0
VERTEX
  8
gg1
 10
-0.590000
 20
-0.432500
  0
VERTEX
  8
gg1
 10
-0.590000
 20
-0.417500
  0
SEQEND
  8
gg1
  0
POLYLINE
  8
gg1
 62
1
 40
0.000000
 41
0.000000
 66
  1
  0
VERTEX
  8
gg1
 10
-0.627500
 20
-0.410000
  0
VERTEX
  8
gg1
 10
-0.612500
 20
-0.410000
  0
SEQEND
  8
gg1
  0
POLYLINE
  8
gg1
 62
1
 40
0.000000
 41
0.000000
 66
  1
  0
VERTEX
  8
gg1
 10
-0.620000
 20
-0.417500
  0
VERTEX
  8
gg1
 10
-0.620000
 20
-0.402500
  0
SEQEND
  8
gg1
  0
POLYLINE
  8
gg1
 62
1
 40
0.000000
 41
0.000000
 66
  1
  0
VERTEX
  8
gg1
 10
-0.567500
 20
-0.340000
  0
VERTEX
  8
gg1
 10
-0.552500
 20
-0.340000
  0
SEQEND
  8
gg1
  0
POLYLINE
  8
gg1
 62
1
 40
0.000000
 41
0.000000
 66
  1
  0
VERTEX
  8
gg1
 10
-0.560000
 20
-0.347500
  0
VERTEX
  8
gg1
 10
-0.560000
 20
-0.332500
  0
SEQEND
  8
gg1
  0
POLYLINE
  8
gg1
 62
1
 40
0.000000
 41
0.000000
 66
  1
  0
VERTEX
  8
gg1
 10
-0.482500
 20
-0.470000
  0
VERTEX
  8
gg1
 10
-0.467500
 20
-0.470000
  0
SEQEND
  8
gg1
  0
POLYLINE
  8
gg1
 62
1
 40
0.000000
 41
0.000000
 66
  1
  0
VERTEX
  8
gg1
 10
-0.475000
 20
-0.477500
  0
VERTEX
  8
gg1
 10
-0.475000
 20
-0.462500
  0
SEQEND
  8
gg1
  0
POLYLINE
  8
gg1
 62
1
 40
0.000000
 41
0.000000
 66
  1
  0
VERTEX
  8
gg1
 10
0.107500
 20
-0.735000
  0
VERTEX
  8
gg1
 10
0.122500
 20
-0.735000
  0
SEQEND
  8
gg1
  0
POLYLINE
  8
gg1
 62
1
 40
0.000000
 41
0.000000
 66
  1
  0
VERTEX
  8
gg1
 10
0.115000
 20
-0.742500
  0
VERTEX
  8
gg1
 10
0.115000
 20
-0.727500
  0
SEQEND
  8
gg1
  0
POLYLINE
  8
gg1
 62
1
 40
0.000000
 41
0.000000
 66
  1
  0
VERTEX
  8
gg1
 10
0.282500
 20
-0.740000
  0
VERTEX
  8
gg1
 10
0.297500
 20
-0.740000
  0
SEQEND
  8
gg1
  0
POLYLINE
  8
gg1
 62
1
 40
0.000000
 41
0.000000
 66
  1
  0
VERTEX
  8
gg1
 10
0.290000
 20
-0.747500
  0
VERTEX
  8
gg1
 10
0.290000
 20
-0.732500
  0
SEQEND
  8
gg1
  0
POLYLINE
  8
gg1
 62
1
 40
0.000000
 41
0.000000
 66
  1
  0
VERTEX
  8
gg1
 10
0.242500
 20
-0.657500
  0
VERTEX
  8
gg1
 10
0.257500
 20
-0.657500
  0
SEQEND
  8
gg1
  0
POLYLINE
  8
gg1
 62
1
 40
0.000000
 41
0.000000
 66
  1
  0
VERTEX
  8
gg1
 10
0.250000
 20
-0.665000
  0
VERTEX
  8
gg1
 10
0.250000
 20
-0.650000
  0
SEQEND
  8
gg1
  0
POLYLINE
  8
gg1
 62
1
 40
0.000000
 41
0.000000
 66
  1
  0
VERTEX
  8
gg1
 10
-0.790500
 20
-0.195000
  0
VERTEX
  8
gg1
 10
-0.775500
 20
-0.195000
  0
SEQEND
  8
gg1
  0
POLYLINE
  8
gg1
 62
1
 40
0.000000
 41
0.000000
 66
  1
  0
VERTEX
  8
gg1
 10
-0.783000
 20
-0.202500
  0
VERTEX
  8
gg1
 10
-0.783000
 20
-0.187500
  0
SEQEND
  8
gg1
  0
POLYLINE
  8
gg1
 62
1
 40
0.000000
 41
0.000000
 66
  1
  0
VERTEX
  8
gg1
 10
-0.775500
 20
-0.220000
  0
VERTEX
  8
gg1
 10
-0.760500
 20
-0.220000
  0
SEQEND
  8
gg1
  0
POLYLINE
  8
gg1
 62
1
 40
0.000000
 41
0.000000
 66
  1
  0
VERTEX
  8
gg1
 10
-0.768000
 20
-0.227500
  0
VERTEX
  8
gg1
 10
-0.768000
 20
-0.212500
  0
SEQEND
  8
gg1
  0
POLYLINE
  8
gg1
 62
1
 40
0.000000
 41
0.000000
 66
  1
  0
VERTEX
  8
gg1
 10
-0.454000
 20
-0.719300
  0
VERTEX
  8
gg1
 10
-0.439000
 20
-0.719300
  0
SEQEND
  8
gg1
  0
POLYLINE
  8
gg1
 62
1
 40
0.000000
 41
0.000000
 66
  1
  0
VERTEX
  8
gg1
 10
-0.446500
 20
-0.726800
  0
VERTEX
  8
gg1
 10
-0.446500
 20
-0.711800
  0
SEQEND
  8
gg1
  0
POLYLINE
  8
gg1
 62
1
 40
0.000000
 41
0.000000
 66
  1
  0
VERTEX
  8
gg1
 10
-0.454000
 20
-0.750700
  0
VERTEX
  8
gg1
 10
-0.439000
 20
-0.750700
  0
SEQEND
  8
gg1
  0
POLYLINE
  8
gg1
 62
1
 40
0.000000
 41
0.000000
 66
  1
  0
VERTEX
  8
gg1
 10
-0.446500
 20
-0.758200
  0
VERTEX
  8
gg1
 10
-0.446500
 20
-0.743200
  0
SEQEND
  8
gg1
  0
POLYLINE
  8
gg1
 62
1
 40
0.000000
 41
0.000000
 66
  1
  0
VERTEX
  8
gg1
 10
-0.391000
 20
-0.750700
  0
VERTEX
  8
gg1
 10
-0.376000
 20
-0.750700
  0
SEQEND
  8
gg1
  0
POLYLINE
  8
gg1
 62
1
 40
0.000000
 41
0.000000
 66
  1
  0
VERTEX
  8
gg1
 10
-0.383500
 20
-0.758200
  0
VERTEX
  8
gg1
 10
-0.383500
 20
-0.743200
  0
SEQEND
  8
gg1
  0
POLYLINE
  8
gg1
 62
1
 40
0.000000
 41
0.000000
 66
  1
  0
VERTEX
  8
gg1
 10
-0.422500
 20
-0.735000
  0
VERTEX
  8
gg1
 10
-0.407500
 20
-0.735000
  0
SEQEND
  8
gg1
  0
POLYLINE
  8
gg1
 62
1
 40
0.000000
 41
0.000000
 66
  1
  0
VERTEX
  8
gg1
 10
-0.415000
 20
-0.742500
  0
VERTEX
  8
gg1
 10
-0.415000
 20
-0.727500
  0
SEQEND
  8
gg1
  0
POLYLINE
  8
gg1
 62
1
 40
0.000000
 41
0.000000
 66
  1
  0
VERTEX
  8
gg1
 10
-0.391000
 20
-0.719300
  0
VERTEX
  8
gg1
 10
-0.376000
 20
-0.719300
  0
SEQEND
  8
gg1
  0
POLYLINE
  8
gg1
 62
1
 40
0.000000
 41
0.000000
 66
  1
  0
VERTEX
  8
gg1
 10
-0.383500
 20
-0.726800
  0
VERTEX
  8
gg1
 10
-0.383500
 20
-0.711800
  0
SEQEND
  8
gg1
  0
POLYLINE
  8
gg1
 62
1
 40
0.000000
 41
0.000000
 66
  1
  0
VERTEX
  8
gg1
 10
-0.577500
 20
1.425000
  0
VERTEX
  8
gg1
 10
-0.562500
 20
1.425000
  0
SEQEND
  8
gg1
  0
POLYLINE
  8
gg1
 62
1
 40
0.000000
 41
0.000000
 66
  1
  0
VERTEX
  8
gg1
 10
-0.570000
 20
1.417500
  0
VERTEX
  8
gg1
 10
-0.570000
 20
1.432500
  0
SEQEND
  8
gg1
  0
POLYLINE
  8
gg1
 62
1
 40
0.000000
 41
0.000000
 66
  1
  0
VERTEX
  8
gg1
 10
-0.837500
 20
-0.530000
  0
VERTEX
  8
gg1
 10
-0.822500
 20
-0.530000
  0
SEQEND
  8
gg1
  0
POLYLINE
  8
gg1
 62
1
 40
0.000000
 41
0.000000
 66
  1
  0
VERTEX
  8
gg1
 10
-0.830000
 20
-0.537500
  0
VERTEX
  8
gg1
 10
-0.830000
 20
-0.522500
  0
SEQEND
  8
gg1
  0
POLYLINE
  8
gg1
 62
1
 40
0.000000
 41
0.000000
 66
  1
  0
VERTEX
  8
gg1
 10
-0.872500
 20
-0.530000
  0
VERTEX
  8
gg1
 10
-0.857500
 20
-0.530000
  0
SEQEND
  8
gg1
  0
POLYLINE
  8
gg1
 62
1
 40
0.000000
 41
0.000000
 66
  1
  0
VERTEX
  8
gg1
 10
-0.865000
 20
-0.537500
  0
VERTEX
  8
gg1
 10
-0.865000
 20
-0.522500
  0
SEQEND
  8
gg1
  0
POLYLINE
  8
gg1
 62
1
 40
0.000000
 41
0.000000
 66
  1
  0
VERTEX
  8
gg1
 10
-0.952500
 20
-0.530000
  0
VERTEX
  8
gg1
 10
-0.937500
 20
-0.530000
  0
SEQEND
  8
gg1
  0
POLYLINE
  8
gg1
 62
1
 40
0.000000
 41
0.000000
 66
  1
  0
VERTEX
  8
gg1
 10
-0.945000
 20
-0.537500
  0
VERTEX
  8
gg1
 10
-0.945000
 20
-0.522500
  0
SEQEND
  8
gg1
  0
POLYLINE
  8
gg1
 62
1
 40
0.000000
 41
0.000000
 66
  1
  0
VERTEX
  8
gg1
 10
-0.912500
 20
-0.530000
  0
VERTEX
  8
gg1
 10
-0.897500
 20
-0.530000
  0
SEQEND
  8
gg1
  0
POLYLINE
  8
gg1
 62
1
 40
0.000000
 41
0.000000
 66
  1
  0
VERTEX
  8
gg1
 10
-0.905000
 20
-0.537500
  0
VERTEX
  8
gg1
 10
-0.905000
 20
-0.522500
  0
SEQEND
  8
gg1
  0
POLYLINE
  8
gg1
 62
1
 40
0.000000
 41
0.000000
 66
  1
  0
VERTEX
  8
gg1
 10
-0.952500
 20
-0.580000
  0
VERTEX
  8
gg1
 10
-0.937500
 20
-0.580000
  0
SEQEND
  8
gg1
  0
POLYLINE
  8
gg1
 62
1
 40
0.000000
 41
0.000000
 66
  1
  0
VERTEX
  8
gg1
 10
-0.945000
 20
-0.587500
  0
VERTEX
  8
gg1
 10
-0.945000
 20
-0.572500
  0
SEQEND
  8
gg1
  0
POLYLINE
  8
gg1
 62
1
 40
0.000000
 41
0.000000
 66
  1
  0
VERTEX
  8
gg1
 10
-0.912500
 20
-0.580000
  0
VERTEX
  8
gg1
 10
-0.897500
 20
-0.580000
  0
SEQEND
  8
gg1
  0
POLYLINE
  8
gg1
 62
1
 40
0.000000
 41
0.000000
 66
  1
  0
VERTEX
  8
gg1
 10
-0.905000
 20
-0.587500
  0
VERTEX
  8
gg1
 10
-0.905000
 20
-0.572500
  0
SEQEND
  8
gg1
  0
POLYLINE
  8
gg1
 62
1
 40
0.000000
 41
0.000000
 66
  1
  0
VERTEX
  8
gg1
 10
-0.892500
 20
-0.555000
  0
VERTEX
  8
gg1
 10
-0.877500
 20
-0.555000
  0
SEQEND
  8
gg1
  0
POLYLINE
  8
gg1
 62
1
 40
0.000000
 41
0.000000
 66
  1
  0
VERTEX
  8
gg1
 10
-0.885000
 20
-0.562500
  0
VERTEX
  8
gg1
 10
-0.885000
 20
-0.547500
  0
SEQEND
  8
gg1
  0
POLYLINE
  8
gg1
 62
1
 40
0.000000
 41
0.000000
 66
  1
  0
VERTEX
  8
gg1
 10
-0.932500
 20
-0.555000
  0
VERTEX
  8
gg1
 10
-0.917500
 20
-0.555000
  0
SEQEND
  8
gg1
  0
POLYLINE
  8
gg1
 62
1
 40
0.000000
 41
0.000000
 66
  1
  0
VERTEX
  8
gg1
 10
-0.925000
 20
-0.562500
  0
VERTEX
  8
gg1
 10
-0.925000
 20
-0.547500
  0
SEQEND
  8
gg1
  0
POLYLINE
  8
gg1
 62
1
 40
0.000000
 41
0.000000
 66
  1
  0
VERTEX
  8
gg1
 10
-0.737500
 20
0.050000
  0
VERTEX
  8
gg1
 10
-0.722500
 20
0.050000
  0
SEQEND
  8
gg1
  0
POLYLINE
  8
gg1
 62
1
 40
0.000000
 41
0.000000
 66
  1
  0
VERTEX
  8
gg1
 10
-0.730000
 20
0.042500
  0
VERTEX
  8
gg1
 10
-0.730000
 20
0.057500
  0
SEQEND
  8
gg1
  0
POLYLINE
  8
gg1
 62
1
 40
0.000000
 41
0.000000
 66
  1
  0
VERTEX
  8
gg1
 10
-0.842500
 20
0.580000
  0
VERTEX
  8
gg1
 10
-0.827500
 20
0.580000
  0
SEQEND
  8
gg1
  0
POLYLINE
  8
gg1
 62
1
 40
0.000000
 41
0.000000
 66
  1
  0
VERTEX
  8
gg1
 10
-0.835000
 20
0.572500
  0
VERTEX
  8
gg1
 10
-0.835000
 20
0.587500
  0
SEQEND
  8
gg1
  0
POLYLINE
  8
gg1
 62
1
 40
0.000000
 41
0.000000
 66
  1
  0
VERTEX
  8
gg1
 10
-0.777500
 20
0.010000
  0
VERTEX
  8
gg1
 10
-0.762500
 20
0.010000
  0
SEQEND
  8
gg1
  0
POLYLINE
  8
gg1
 62
1
 40
0.000000
 41
0.000000
 66
  1
  0
VERTEX
  8
gg1
 10
-0.770000
 20
0.002500
  0
VERTEX
  8
gg1
 10
-0.770000
 20
0.017500
  0
SEQEND
  8
gg1
  0
POLYLINE
  8
gg1
 62
1
 40
0.000000
 41
0.000000
 66
  1
  0
VERTEX
  8
gg1
 10
-0.777500
 20
0.090000
  0
VERTEX
  8
gg1
 10
-0.762500
 20
0.090000
  0
SEQEND
  8
gg1
  0
POLYLINE
  8
gg1
 62
1
 40
0.000000
 41
0.000000
 66
  1
  0
VERTEX
  8
gg1
 10
-0.770000
 20
0.082500
  0
VERTEX
  8
gg1
 10
-0.770000
 20
0.097500
  0
SEQEND
  8
gg1
  0
POLYLINE
  8
gg1
 62
1
 40
0.000000
 41
0.000000
 66
  1
  0
VERTEX
  8
gg1
 10
-0.492500
 20
-0.805000
  0
VERTEX
  8
gg1
 10
-0.477500
 20
-0.805000
  0
SEQEND
  8
gg1
  0
POLYLINE
  8
gg1
 62
1
 40
0.000000
 41
0.000000
 66
  1
  0
VERTEX
  8
gg1
 10
-0.485000
 20
-0.812500
  0
VERTEX
  8
gg1
 10
-0.485000
 20
-0.797500
  0
SEQEND
  8
gg1
  0
POLYLINE
  8
gg1
 62
1
 40
0.000000
 41
0.000000
 66
  1
  0
VERTEX
  8
gg1
 10
-0.852500
 20
0.275000
  0
VERTEX
  8
gg1
 10
-0.837500
 20
0.275000
  0
SEQEND
  8
gg1
  0
POLYLINE
  8
gg1
 62
1
 40
0.000000
 41
0.000000
 66
  1
  0
VERTEX
  8
gg1
 10
-0.845000
 20
0.267500
  0
VERTEX
  8
gg1
 10
-0.845000
 20
0.282500
  0
SEQEND
  8
gg1
  0
POLYLINE
  8
gg1
 62
1
 40
0.000000
 41
0.000000
 66
  1
  0
VERTEX
  8
gg1
 10
-0.892500
 20
0.275000
  0
VERTEX
  8
gg1
 10
-0.877500
 20
0.275000
  0
SEQEND
  8
gg1
  0
POLYLINE
  8
gg1
 62
1
 40
0.000000
 41
0.000000
 66
  1
  0
VERTEX
  8
gg1
 10
-0.885000
 20
0.267500
  0
VERTEX
  8
gg1
 10
-0.885000
 20
0.282500
  0
SEQEND
  8
gg1
  0
POLYLINE
  8
gg1
 62
1
 40
0.000000
 41
0.000000
 66
  1
  0
VERTEX
  8
gg1
 10
-0.932500
 20
0.275000
  0
VERTEX
  8
gg1
 10
-0.917500
 20
0.275000
  0
SEQEND
  8
gg1
  0
POLYLINE
  8
gg1
 62
1
 40
0.000000
 41
0.000000
 66
  1
  0
VERTEX
  8
gg1
 10
-0.925000
 20
0.267500
  0
VERTEX
  8
gg1
 10
-0.925000
 20
0.282500
  0
SEQEND
  8
gg1
  0
POLYLINE
  8
gg1
 62
1
 40
0.000000
 41
0.000000
 66
  1
  0
VERTEX
  8
gg1
 10
-0.912500
 20
0.250000
  0
VERTEX
  8
gg1
 10
-0.897500
 20
0.250000
  0
SEQEND
  8
gg1
  0
POLYLINE
  8
gg1
 62
1
 40
0.000000
 41
0.000000
 66
  1
  0
VERTEX
  8
gg1
 10
-0.905000
 20
0.242500
  0
VERTEX
  8
gg1
 10
-0.905000
 20
0.257500
  0
SEQEND
  8
gg1
  0
POLYLINE
  8
gg1
 62
1
 40
0.000000
 41
0.000000
 66
  1
  0
VERTEX
  8
gg1
 10
-0.872500
 20
0.250000
  0
VERTEX
  8
gg1
 10
-0.857500
 20
0.250000
  0
SEQEND
  8
gg1
  0
POLYLINE
  8
gg1
 62
1
 40
0.000000
 41
0.000000
 66
  1
  0
VERTEX
  8
gg1
 10
-0.865000
 20
0.242500
  0
VERTEX
  8
gg1
 10
-0.865000
 20
0.257500
  0
SEQEND
  8
gg1
  0
POLYLINE
  8
gg1
 62
1
 40
0.000000
 41
0.000000
 66
  1
  0
VERTEX
  8
gg1
 10
-0.892500
 20
0.225000
  0
VERTEX
  8
gg1
 10
-0.877500
 20
0.225000
  0
SEQEND
  8
gg1
  0
POLYLINE
  8
gg1
 62
1
 40
0.000000
 41
0.000000
 66
  1
  0
VERTEX
  8
gg1
 10
-0.885000
 20
0.217500
  0
VERTEX
  8
gg1
 10
-0.885000
 20
0.232500
  0
SEQEND
  8
gg1
  0
POLYLINE
  8
gg1
 62
1
 40
0.000000
 41
0.000000
 66
  1
  0
VERTEX
  8
gg1
 10
-0.812500
 20
0.510000
  0
VERTEX
  8
gg1
 10
-0.797500
 20
0.510000
  0
SEQEND
  8
gg1
  0
POLYLINE
  8
gg1
 62
1
 40
0.000000
 41
0.000000
 66
  1
  0
VERTEX
  8
gg1
 10
-0.805000
 20
0.502500
  0
VERTEX
  8
gg1
 10
-0.805000
 20
0.517500
  0
SEQEND
  8
gg1
  0
POLYLINE
  8
gg1
 62
1
 40
0.000000
 41
0.000000
 66
  1
  0
VERTEX
  8
gg1
 10
-0.782500
 20
0.510000
  0
VERTEX
  8
gg1
 10
-0.767500
 20
0.510000
  0
SEQEND
  8
gg1
  0
POLYLINE
  8
gg1
 62
1
 40
0.000000
 41
0.000000
 66
  1
  0
VERTEX
  8
gg1
 10
-0.775000
 20
0.502500
  0
VERTEX
  8
gg1
 10
-0.775000
 20
0.517500
  0
SEQEND
  8
gg1
  0
POLYLINE
  8
gg1
 62
1
 40
0.000000
 41
0.000000
 66
  1
  0
VERTEX
  8
gg1
 10
-0.797500
 20
0.485000
  0
VERTEX
  8
gg1
 10
-0.782500
 20
0.485000
  0
SEQEND
  8
gg1
  0
POLYLINE
  8
gg1
 62
1
 40
0.000000
 41
0.000000
 66
  1
  0
VERTEX
  8
gg1
 10
-0.790000
 20
0.477500
  0
VERTEX
  8
gg1
 10
-0.790000
 20
0.492500
  0
SEQEND
  8
gg1
  0
POLYLINE
  8
gg1
 62
1
 40
0.000000
 41
0.000000
 66
  1
  0
VERTEX
  8
gg1
 10
-0.762500
 20
0.370000
  0
VERTEX
  8
gg1
 10
-0.747500
 20
0.370000
  0
SEQEND
  8
gg1
  0
POLYLINE
  8
gg1
 62
1
 40
0.000000
 41
0.000000
 66
  1
  0
VERTEX
  8
gg1
 10
-0.755000
 20
0.362500
  0
VERTEX
  8
gg1
 10
-0.755000
 20
0.377500
  0
SEQEND
  8
gg1
  0
POLYLINE
  8
gg1
 62
1
 40
0.000000
 41
0.000000
 66
  1
  0
VERTEX
  8
gg1
 10
-0.730500
 20
-0.245000
  0
VERTEX
  8
gg1
 10
-0.715500
 20
-0.245000
  0
SEQEND
  8
gg1
  0
POLYLINE
  8
gg1
 62
1
 40
0.000000
 41
0.000000
 66
  1
  0
VERTEX
  8
gg1
 10
-0.723000
 20
-0.252500
  0
VERTEX
  8
gg1
 10
-0.723000
 20
-0.237500
  0
SEQEND
  8
gg1
  0
POLYLINE
  8
gg1
 62
1
 40
0.000000
 41
0.000000
 66
  1
  0
VERTEX
  8
gg1
 10
-0.790500
 20
-0.245000
  0
VERTEX
  8
gg1
 10
-0.775500
 20
-0.245000
  0
SEQEND
  8
gg1
  0
POLYLINE
  8
gg1
 62
1
 40
0.000000
 41
0.000000
 66
  1
  0
VERTEX
  8
gg1
 10
-0.783000
 20
-0.252500
  0
VERTEX
  8
gg1
 10
-0.783000
 20
-0.237500
  0
SEQEND
  8
gg1
  0
POLYLINE
  8
gg1
 62
1
 40
0.000000
 41
0.000000
 66
  1
  0
VERTEX
  8
gg1
 10
-0.760500
 20
-0.245000
  0
VERTEX
  8
gg1
 10
-0.745500
 20
-0.245000
  0
SEQEND
  8
gg1
  0
POLYLINE
  8
gg1
 62
1
 40
0.000000
 41
0.000000
 66
  1
  0
VERTEX
  8
gg1
 10
-0.753000
 20
-0.252500
  0
VERTEX
  8
gg1
 10
-0.753000
 20
-0.237500
  0
SEQEND
  8
gg1
  0
POLYLINE
  8
gg1
 62
1
 40
0.000000
 41
0.000000
 66
  1
  0
VERTEX
  8
gg1
 10
-0.787500
 20
-0.365000
  0
VERTEX
  8
gg1
 10
-0.772500
 20
-0.365000
  0
SEQEND
  8
gg1
  0
POLYLINE
  8
gg1
 62
1
 40
0.000000
 41
0.000000
 66
  1
  0
VERTEX
  8
gg1
 10
-0.780000
 20
-0.372500
  0
VERTEX
  8
gg1
 10
-0.780000
 20
-0.357500
  0
SEQEND
  8
gg1
  0
POLYLINE
  8
gg1
 62
1
 40
0.000000
 41
0.000000
 66
  1
  0
VERTEX
  8
gg1
 10
-0.760500
 20
-0.275000
  0
VERTEX
  8
gg1
 10
-0.745500
 20
-0.275000
  0
SEQEND
  8
gg1
  0
POLYLINE
  8
gg1
 62
1
 40
0.000000
 41
0.000000
 66
  1
  0
VERTEX
  8
gg1
 10
-0.753000
 20
-0.282500
  0
VERTEX
  8
gg1
 10
-0.753000
 20
-0.267500
  0
SEQEND
  8
gg1
  0
POLYLINE
  8
gg1
 62
1
 40
0.000000
 41
0.000000
 66
  1
  0
VERTEX
  8
gg1
 10
-0.282500
 20
-0.525000
  0
VERTEX
  8
gg1
 10
-0.267500
 20
-0.525000
  0
SEQEND
  8
gg1
  0
POLYLINE
  8
gg1
 62
1
 40
0.000000
 41
0.000000
 66
  1
  0
VERTEX
  8
gg1
 10
-0.275000
 20
-0.532500
  0
VERTEX
  8
gg1
 10
-0.275000
 20
-0.517500
  0
SEQEND
  8
gg1
  0
POLYLINE
  8
gg1
 62
1
 40
0.000000
 41
0.000000
 66
  1
  0
VERTEX
  8
gg1
 10
-0.677500
 20
-0.780000
  0
VERTEX
  8
gg1
 10
-0.662500
 20
-0.780000
  0
SEQEND
  8
gg1
  0
POLYLINE
  8
gg1
 62
1
 40
0.000000
 41
0.000000
 66
  1
  0
VERTEX
  8
gg1
 10
-0.670000
 20
-0.787500
  0
VERTEX
  8
gg1
 10
-0.670000
 20
-0.772500
  0
SEQEND
  8
gg1
  0
POLYLINE
  8
gg1
 62
1
 40
0.000000
 41
0.000000
 66
  1
  0
VERTEX
  8
gg1
 10
-0.620000
 20
-0.665000
  0
VERTEX
  8
gg1
 10
-0.605000
 20
-0.665000
  0
SEQEND
  8
gg1
  0
POLYLINE
  8
gg1
 62
1
 40
0.000000
 41
0.000000
 66
  1
  0
VERTEX
  8
gg1
 10
-0.612500
 20
-0.672500
  0
VERTEX
  8
gg1
 10
-0.612500
 20
-0.657500
  0
SEQEND
  8
gg1
  0
POLYLINE
  8
gg1
 62
1
 40
0.000000
 41
0.000000
 66
  1
  0
VERTEX
  8
gg1
 10
-0.620000
 20
-0.695000
  0
VERTEX
  8
gg1
 10
-0.605000
 20
-0.695000
  0
SEQEND
  8
gg1
  0
POLYLINE
  8
gg1
 62
1
 40
0.000000
 41
0.000000
 66
  1
  0
VERTEX
  8
gg1
 10
-0.612500
 20
-0.702500
  0
VERTEX
  8
gg1
 10
-0.612500
 20
-0.687500
  0
SEQEND
  8
gg1
  0
POLYLINE
  8
gg1
 62
1
 40
0.000000
 41
0.000000
 66
  1
  0
VERTEX
  8
gg1
 10
-0.697500
 20
0.370000
  0
VERTEX
  8
gg1
 10
-0.682500
 20
0.370000
  0
SEQEND
  8
gg1
  0
POLYLINE
  8
gg1
 62
1
 40
0.000000
 41
0.000000
 66
  1
  0
VERTEX
  8
gg1
 10
-0.690000
 20
0.362500
  0
VERTEX
  8
gg1
 10
-0.690000
 20
0.377500
  0
SEQEND
  8
gg1
  0
POLYLINE
  8
gg1
 62
1
 40
0.000000
 41
0.000000
 66
  1
  0
VERTEX
  8
gg1
 10
-0.730000
 20
0.435000
  0
VERTEX
  8
gg1
 10
-0.715000
 20
0.435000
  0
SEQEND
  8
gg1
  0
POLYLINE
  8
gg1
 62
1
 40
0.000000
 41
0.000000
 66
  1
  0
VERTEX
  8
gg1
 10
-0.722500
 20
0.427500
  0
VERTEX
  8
gg1
 10
-0.722500
 20
0.442500
  0
SEQEND
  8
gg1
  0
POLYLINE
  8
gg1
 62
1
 40
0.000000
 41
0.000000
 66
  1
  0
VERTEX
  8
gg1
 10
-0.972500
 20
-0.192500
  0
VERTEX
  8
gg1
 10
-0.957500
 20
-0.192500
  0
SEQEND
  8
gg1
  0
POLYLINE
  8
gg1
 62
1
 40
0.000000
 41
0.000000
 66
  1
  0
VERTEX
  8
gg1
 10
-0.965000
 20
-0.200000
  0
VERTEX
  8
gg1
 10
-0.965000
 20
-0.185000
  0
SEQEND
  8
gg1
  0
POLYLINE
  8
gg1
 62
1
 40
0.000000
 41
0.000000
 66
  1
  0
VERTEX
  8
gg1
 10
-0.602500
 20
-1.175000
  0
VERTEX
  8
gg1
 10
-0.587500
 20
-1.175000
  0
SEQEND
  8
gg1
  0
POLYLINE
  8
gg1
 62
1
 40
0.000000
 41
0.000000
 66
  1
  0
VERTEX
  8
gg1
 10
-0.595000
 20
-1.182500
  0
VERTEX
  8
gg1
 10
-0.595000
 20
-1.167500
  0
SEQEND
  8
gg1
  0
POLYLINE
  8
gg1
 62
1
 40
0.000000
 41
0.000000
 66
  1
  0
VERTEX
  8
gg1
 10
-0.972500
 20
-0.127500
  0
VERTEX
  8
gg1
 10
-0.957500
 20
-0.127500
  0
SEQEND
  8
gg1
  0
POLYLINE
  8
gg1
 62
1
 40
0.000000
 41
0.000000
 66
  1
  0
VERTEX
  8
gg1
 10
-0.965000
 20
-0.135000
  0
VERTEX
  8
gg1
 10
-0.965000
 20
-0.120000
  0
SEQEND
  8
gg1
  0
POLYLINE
  8
gg1
 62
1
 40
0.000000
 41
0.000000
 66
  1
  0
VERTEX
  8
gg1
 10
-0.972500
 20
-0.062500
  0
VERTEX
  8
gg1
 10
-0.957500
 20
-0.062500
  0
SEQEND
  8
gg1
  0
POLYLINE
  8
gg1
 62
1
 40
0.000000
 41
0.000000
 66
  1
  0
VERTEX
  8
gg1
 10
-0.965000
 20
-0.070000
  0
VERTEX
  8
gg1
 10
-0.965000
 20
-0.055000
  0
SEQEND
  8
gg1
  0
POLYLINE
  8
gg1
 62
1
 40
0.000000
 41
0.000000
 66
  1
  0
VERTEX
  8
gg1
 10
-0.827500
 20
-0.375000
  0
VERTEX
  8
gg1
 10
-0.812500
 20
-0.375000
  0
SEQEND
  8
gg1
  0
POLYLINE
  8
gg1
 62
1
 40
0.000000
 41
0.000000
 66
  1
  0
VERTEX
  8
gg1
 10
-0.820000
 20
-0.382500
  0
VERTEX
  8
gg1
 10
-0.820000
 20
-0.367500
  0
SEQEND
  8
gg1
  0
POLYLINE
  8
gg1
 62
1
 40
0.000000
 41
0.000000
 66
  1
  0
VERTEX
  8
gg1
 10
-1.017500
 20
-0.445000
  0
VERTEX
  8
gg1
 10
-1.002500
 20
-0.445000
  0
SEQEND
  8
gg1
  0
POLYLINE
  8
gg1
 62
1
 40
0.000000
 41
0.000000
 66
  1
  0
VERTEX
  8
gg1
 10
-1.010000
 20
-0.452500
  0
VERTEX
  8
gg1
 10
-1.010000
 20
-0.437500
  0
SEQEND
  8
gg1
  0
POLYLINE
  8
gg1
 62
1
 40
0.000000
 41
0.000000
 66
  1
  0
VERTEX
  8
gg1
 10
-0.827500
 20
-0.345000
  0
VERTEX
  8
gg1
 10
-0.812500
 20
-0.345000
  0
SEQEND
  8
gg1
  0
POLYLINE
  8
gg1
 62
1
 40
0.000000
 41
0.000000
 66
  1
  0
VERTEX
  8
gg1
 10
-0.820000
 20
-0.352500
  0
VERTEX
  8
gg1
 10
-0.820000
 20
-0.337500
  0
SEQEND
  8
gg1
  0
POLYLINE
  8
gg1
 62
1
 40
0.000000
 41
0.000000
 66
  1
  0
VERTEX
  8
gg1
 10
-0.892500
 20
-0.925000
  0
VERTEX
  8
gg1
 10
-0.877500
 20
-0.925000
  0
SEQEND
  8
gg1
  0
POLYLINE
  8
gg1
 62
1
 40
0.000000
 41
0.000000
 66
  1
  0
VERTEX
  8
gg1
 10
-0.885000
 20
-0.932500
  0
VERTEX
  8
gg1
 10
-0.885000
 20
-0.917500
  0
SEQEND
  8
gg1
  0
POLYLINE
  8
gg1
 62
1
 40
0.000000
 41
0.000000
 66
  1
  0
VERTEX
  8
gg1
 10
-0.812500
 20
-1.005000
  0
VERTEX
  8
gg1
 10
-0.797500
 20
-1.005000
  0
SEQEND
  8
gg1
  0
POLYLINE
  8
gg1
 62
1
 40
0.000000
 41
0.000000
 66
  1
  0
VERTEX
  8
gg1
 10
-0.805000
 20
-1.012500
  0
VERTEX
  8
gg1
 10
-0.805000
 20
-0.997500
  0
SEQEND
  8
gg1
  0
POLYLINE
  8
gg1
 62
1
 40
0.000000
 41
0.000000
 66
  1
  0
VERTEX
  8
gg1
 10
-0.762500
 20
-1.095000
  0
VERTEX
  8
gg1
 10
-0.747500
 20
-1.095000
  0
SEQEND
  8
gg1
  0
POLYLINE
  8
gg1
 62
1
 40
0.000000
 41
0.000000
 66
  1
  0
VERTEX
  8
gg1
 10
-0.755000
 20
-1.102500
  0
VERTEX
  8
gg1
 10
-0.755000
 20
-1.087500
  0
SEQEND
  8
gg1
  0
POLYLINE
  8
gg1
 62
1
 40
0.000000
 41
0.000000
 66
  1
  0
VERTEX
  8
gg1
 10
-0.722500
 20
-1.055000
  0
VERTEX
  8
gg1
 10
-0.707500
 20
-1.055000
  0
SEQEND
  8
gg1
  0
POLYLINE
  8
gg1
 62
1
 40
0.000000
 41
0.000000
 66
  1
  0
VERTEX
  8
gg1
 10
-0.715000
 20
-1.062500
  0
VERTEX
  8
gg1
 10
-0.715000
 20
-1.047500
  0
SEQEND
  8
gg1
  0
POLYLINE
  8
gg1
 62
1
 40
0.000000
 41
0.000000
 66
  1
  0
VERTEX
  8
gg1
 10
-0.802500
 20
-1.055000
  0
VERTEX
  8
gg1
 10
-0.787500
 20
-1.055000
  0
SEQEND
  8
gg1
  0
POLYLINE
  8
gg1
 62
1
 40
0.000000
 41
0.000000
 66
  1
  0
VERTEX
  8
gg1
 10
-0.795000
 20
-1.062500
  0
VERTEX
  8
gg1
 10
-0.795000
 20
-1.047500
  0
SEQEND
  8
gg1
  0
POLYLINE
  8
gg1
 62
1
 40
0.000000
 41
0.000000
 66
  1
  0
VERTEX
  8
gg1
 10
-0.812500
 20
-0.955000
  0
VERTEX
  8
gg1
 10
-0.797500
 20
-0.955000
  0
SEQEND
  8
gg1
  0
POLYLINE
  8
gg1
 62
1
 40
0.000000
 41
0.000000
 66
  1
  0
VERTEX
  8
gg1
 10
-0.805000
 20
-0.962500
  0
VERTEX
  8
gg1
 10
-0.805000
 20
-0.947500
  0
SEQEND
  8
gg1
  0
POLYLINE
  8
gg1
 62
1
 40
0.000000
 41
0.000000
 66
  1
  0
VERTEX
  8
gg1
 10
-0.707500
 20
-1.210000
  0
VERTEX
  8
gg1
 10
-0.692500
 20
-1.210000
  0
SEQEND
  8
gg1
  0
POLYLINE
  8
gg1
 62
1
 40
0.000000
 41
0.000000
 66
  1
  0
VERTEX
  8
gg1
 10
-0.700000
 20
-1.217500
  0
VERTEX
  8
gg1
 10
-0.700000
 20
-1.202500
  0
SEQEND
  8
gg1
  0
POLYLINE
  8
gg1
 62
1
 40
0.000000
 41
0.000000
 66
  1
  0
VERTEX
  8
gg1
 10
-0.997500
 20
-0.805000
  0
VERTEX
  8
gg1
 10
-0.982500
 20
-0.805000
  0
SEQEND
  8
gg1
  0
POLYLINE
  8
gg1
 62
1
 40
0.000000
 41
0.000000
 66
  1
  0
VERTEX
  8
gg1
 10
-0.990000
 20
-0.812500
  0
VERTEX
  8
gg1
 10
-0.990000
 20
-0.797500
  0
SEQEND
  8
gg1
  0
POLYLINE
  8
gg1
 62
1
 40
0.000000
 41
0.000000
 66
  1
  0
VERTEX
  8
gg1
 10
-0.892500
 20
-0.975000
  0
VERTEX
  8
gg1
 10
-0.877500
 20
-0.975000
  0
SEQEND
  8
gg1
  0
POLYLINE
  8
gg1
 62
1
 40
0.000000
 41
0.000000
 66
  1
  0
VERTEX
  8
gg1
 10
-0.885000
 20
-0.982500
  0
VERTEX
  8
gg1
 10
-0.885000
 20
-0.967500
  0
SEQEND
  8
gg1
  0
POLYLINE
  8
gg1
 62
1
 40
0.000000
 41
0.000000
 66
  1
  0
VERTEX
  8
gg1
 10
-0.892500
 20
-0.875000
  0
VERTEX
  8
gg1
 10
-0.877500
 20
-0.875000
  0
SEQEND
  8
gg1
  0
POLYLINE
  8
gg1
 62
1
 40
0.000000
 41
0.000000
 66
  1
  0
VERTEX
  8
gg1
 10
-0.885000
 20
-0.882500
  0
VERTEX
  8
gg1
 10
-0.885000
 20
-0.867500
  0
SEQEND
  8
gg1
  0
POLYLINE
  8
gg1
 62
1
 40
0.000000
 41
0.000000
 66
  1
  0
VERTEX
  8
gg1
 10
-0.957500
 20
-0.232500
  0
VERTEX
  8
gg1
 10
-0.942500
 20
-0.232500
  0
SEQEND
  8
gg1
  0
POLYLINE
  8
gg1
 62
1
 40
0.000000
 41
0.000000
 66
  1
  0
VERTEX
  8
gg1
 10
-0.950000
 20
-0.240000
  0
VERTEX
  8
gg1
 10
-0.950000
 20
-0.225000
  0
SEQEND
  8
gg1
  0
POLYLINE
  8
gg1
 62
1
 40
0.000000
 41
0.000000
 66
  1
  0
VERTEX
  8
gg1
 10
-0.642500
 20
-0.620000
  0
VERTEX
  8
gg1
 10
-0.627500
 20
-0.620000
  0
SEQEND
  8
gg1
  0
POLYLINE
  8
gg1
 62
1
 40
0.000000
 41
0.000000
 66
  1
  0
VERTEX
  8
gg1
 10
-0.635000
 20
-0.627500
  0
VERTEX
  8
gg1
 10
-0.635000
 20
-0.612500
  0
SEQEND
  8
gg1
  0
POLYLINE
  8
gg1
 62
1
 40
0.000000
 41
0.000000
 66
  1
  0
VERTEX
  8
gg1
 10
-0.852500
 20
0.225000
  0
VERTEX
  8
gg1
 10
-0.837500
 20
0.225000
  0
SEQEND
  8
gg1
  0
POLYLINE
  8
gg1
 62
1
 40
0.000000
 41
0.000000
 66
  1
  0
VERTEX
  8
gg1
 10
-0.845000
 20
0.217500
  0
VERTEX
  8
gg1
 10
-0.845000
 20
0.232500
  0
SEQEND
  8
gg1
  0
POLYLINE
  8
gg1
 62
1
 40
0.000000
 41
0.000000
 66
  1
  0
VERTEX
  8
gg1
 10
-0.932500
 20
0.225000
  0
VERTEX
  8
gg1
 10
-0.917500
 20
0.225000
  0
SEQEND
  8
gg1
  0
POLYLINE
  8
gg1
 62
1
 40
0.000000
 41
0.000000
 66
  1
  0
VERTEX
  8
gg1
 10
-0.925000
 20
0.217500
  0
VERTEX
  8
gg1
 10
-0.925000
 20
0.232500
  0
SEQEND
  8
gg1
  0
POLYLINE
  8
gg1
 62
1
 40
0.000000
 41
0.000000
 66
  1
  0
VERTEX
  8
gg1
 10
-0.747500
 20
-0.360000
  0
VERTEX
  8
gg1
 10
-0.732500
 20
-0.360000
  0
SEQEND
  8
gg1
  0
POLYLINE
  8
gg1
 62
1
 40
0.000000
 41
0.000000
 66
  1
  0
VERTEX
  8
gg1
 10
-0.740000
 20
-0.367500
  0
VERTEX
  8
gg1
 10
-0.740000
 20
-0.352500
  0
SEQEND
  8
gg1
  0
POLYLINE
  8
gg1
 62
1
 40
0.000000
 41
0.000000
 66
  1
  0
VERTEX
  8
gg1
 10
-0.637500
 20
-0.360000
  0
VERTEX
  8
gg1
 10
-0.622500
 20
-0.360000
  0
SEQEND
  8
gg1
  0
POLYLINE
  8
gg1
 62
1
 40
0.000000
 41
0.000000
 66
  1
  0
VERTEX
  8
gg1
 10
-0.630000
 20
-0.367500
  0
VERTEX
  8
gg1
 10
-0.630000
 20
-0.352500
  0
SEQEND
  8
gg1
  0
POLYLINE
  8
gg1
 62
1
 40
0.000000
 41
0.000000
 66
  1
  0
VERTEX
  8
gg1
 10
-0.662500
 20
-0.480000
  0
VERTEX
  8
gg1
 10
-0.647500
 20
-0.480000
  0
SEQEND
  8
gg1
  0
POLYLINE
  8
gg1
 62
1
 40
0.000000
 41
0.000000
 66
  1
  0
VERTEX
  8
gg1
 10
-0.655000
 20
-0.487500
  0
VERTEX
  8
gg1
 10
-0.655000
 20
-0.472500
  0
SEQEND
  8
gg1
  0
POLYLINE
  8
gg1
 62
1
 40
0.000000
 41
0.000000
 66
  1
  0
VERTEX
  8
gg1
 10
-0.482500
 20
-0.425000
  0
VERTEX
  8
gg1
 10
-0.467500
 20
-0.425000
  0
SEQEND
  8
gg1
  0
POLYLINE
  8
gg1
 62
1
 40
0.000000
 41
0.000000
 66
  1
  0
VERTEX
  8
gg1
 10
-0.475000
 20
-0.432500
  0
VERTEX
  8
gg1
 10
-0.475000
 20
-0.417500
  0
SEQEND
  8
gg1
  0
POLYLINE
  8
gg1
 62
1
 40
0.000000
 41
0.000000
 66
  1
  0
VERTEX
  8
gg1
 10
-0.602500
 20
-0.260000
  0
VERTEX
  8
gg1
 10
-0.587500
 20
-0.260000
  0
SEQEND
  8
gg1
  0
POLYLINE
  8
gg1
 62
1
 40
0.000000
 41
0.000000
 66
  1
  0
VERTEX
  8
gg1
 10
-0.595000
 20
-0.267500
  0
VERTEX
  8
gg1
 10
-0.595000
 20
-0.252500
  0
SEQEND
  8
gg1
  0
POLYLINE
  8
gg1
 62
1
 40
0.000000
 41
0.000000
 66
  1
  0
VERTEX
  8
gg1
 10
-0.722500
 20
-0.180000
  0
VERTEX
  8
gg1
 10
-0.707500
 20
-0.180000
  0
SEQEND
  8
gg1
  0
POLYLINE
  8
gg1
 62
1
 40
0.000000
 41
0.000000
 66
  1
  0
VERTEX
  8
gg1
 10
-0.715000
 20
-0.187500
  0
VERTEX
  8
gg1
 10
-0.715000
 20
-0.172500
  0
SEQEND
  8
gg1
  0
POLYLINE
  8
gg1
 62
1
 40
0.000000
 41
0.000000
 66
  1
  0
VERTEX
  8
gg1
 10
-0.730500
 20
-0.275000
  0
VERTEX
  8
gg1
 10
-0.715500
 20
-0.275000
  0
SEQEND
  8
gg1
  0
POLYLINE
  8
gg1
 62
1
 40
0.000000
 41
0.000000
 66
  1
  0
VERTEX
  8
gg1
 10
-0.723000
 20
-0.282500
  0
VERTEX
  8
gg1
 10
-0.723000
 20
-0.267500
  0
SEQEND
  8
gg1
  0
POLYLINE
  8
gg1
 62
1
 40
0.000000
 41
0.000000
 66
  1
  0
VERTEX
  8
gg1
 10
-0.790500
 20
-0.275000
  0
VERTEX
  8
gg1
 10
-0.775500
 20
-0.275000
  0
SEQEND
  8
gg1
  0
POLYLINE
  8
gg1
 62
1
 40
0.000000
 41
0.000000
 66
  1
  0
VERTEX
  8
gg1
 10
-0.783000
 20
-0.282500
  0
VERTEX
  8
gg1
 10
-0.783000
 20
-0.267500
  0
SEQEND
  8
gg1
  0
POLYLINE
  8
gg1
 62
1
 40
0.000000
 41
0.000000
 66
  1
  0
VERTEX
  8
gg1
 10
-0.687500
 20
-0.715000
  0
VERTEX
  8
gg1
 10
-0.672500
 20
-0.715000
  0
SEQEND
  8
gg1
  0
POLYLINE
  8
gg1
 62
1
 40
0.000000
 41
0.000000
 66
  1
  0
VERTEX
  8
gg1
 10
-0.680000
 20
-0.722500
  0
VERTEX
  8
gg1
 10
-0.680000
 20
-0.707500
  0
SEQEND
  8
gg1
  0
POLYLINE
  8
gg1
 62
1
 40
0.000000
 41
0.000000
 66
  1
  0
VERTEX
  8
gg1
 10
-0.802000
 20
-0.792700
  0
VERTEX
  8
gg1
 10
-0.787000
 20
-0.792700
  0
SEQEND
  8
gg1
  0
POLYLINE
  8
gg1
 62
1
 40
0.000000
 41
0.000000
 66
  1
  0
VERTEX
  8
gg1
 10
-0.794500
 20
-0.800200
  0
VERTEX
  8
gg1
 10
-0.794500
 20
-0.785200
  0
SEQEND
  8
gg1
  0
POLYLINE
  8
gg1
 62
1
 40
0.000000
 41
0.000000
 66
  1
  0
VERTEX
  8
gg1
 10
-0.802000
 20
-0.757300
  0
VERTEX
  8
gg1
 10
-0.787000
 20
-0.757300
  0
SEQEND
  8
gg1
  0
POLYLINE
  8
gg1
 62
1
 40
0.000000
 41
0.000000
 66
  1
  0
VERTEX
  8
gg1
 10
-0.794500
 20
-0.764800
  0
VERTEX
  8
gg1
 10
-0.794500
 20
-0.749800
  0
SEQEND
  8
gg1
  0
POLYLINE
  8
gg1
 62
1
 40
0.000000
 41
0.000000
 66
  1
  0
VERTEX
  8
gg1
 10
-0.743000
 20
-0.757300
  0
VERTEX
  8
gg1
 10
-0.728000
 20
-0.757300
  0
SEQEND
  8
gg1
  0
POLYLINE
  8
gg1
 62
1
 40
0.000000
 41
0.000000
 66
  1
  0
VERTEX
  8
gg1
 10
-0.735500
 20
-0.764800
  0
VERTEX
  8
gg1
 10
-0.735500
 20
-0.749800
  0
SEQEND
  8
gg1
  0
POLYLINE
  8
gg1
 62
1
 40
0.000000
 41
0.000000
 66
  1
  0
VERTEX
  8
gg1
 10
-0.743000
 20
-0.792700
  0
VERTEX
  8
gg1
 10
-0.728000
 20
-0.792700
  0
SEQEND
  8
gg1
  0
POLYLINE
  8
gg1
 62
1
 40
0.000000
 41
0.000000
 66
  1
  0
VERTEX
  8
gg1
 10
-0.735500
 20
-0.800200
  0
VERTEX
  8
gg1
 10
-0.735500
 20
-0.785200
  0
SEQEND
  8
gg1
  0
POLYLINE
  8
gg1
 62
1
 40
0.000000
 41
0.000000
 66
  1
  0
VERTEX
  8
gg1
 10
-0.772500
 20
-0.775000
  0
VERTEX
  8
gg1
 10
-0.757500
 20
-0.775000
  0
SEQEND
  8
gg1
  0
POLYLINE
  8
gg1
 62
1
 40
0.000000
 41
0.000000
 66
  1
  0
VERTEX
  8
gg1
 10
-0.765000
 20
-0.782500
  0
VERTEX
  8
gg1
 10
-0.765000
 20
-0.767500
  0
SEQEND
  8
gg1
  0
POLYLINE
  8
gg1
 62
1
 40
0.000000
 41
0.000000
 66
  1
  0
VERTEX
  8
gg1
 10
-0.102500
 20
1.380000
  0
VERTEX
  8
gg1
 10
-0.087500
 20
1.380000
  0
SEQEND
  8
gg1
  0
POLYLINE
  8
gg1
 62
1
 40
0.000000
 41
0.000000
 66
  1
  0
VERTEX
  8
gg1
 10
-0.095000
 20
1.372500
  0
VERTEX
  8
gg1
 10
-0.095000
 20
1.387500
  0
SEQEND
  8
gg1
  0
POLYLINE
  8
gg1
 62
1
 40
0.000000
 41
0.000000
 66
  1
  0
VERTEX
  8
gg1
 10
0.267500
 20
1.400000
  0
VERTEX
  8
gg1
 10
0.282500
 20
1.400000
  0
SEQEND
  8
gg1
  0
POLYLINE
  8
gg1
 62
1
 40
0.000000
 41
0.000000
 66
  1
  0
VERTEX
  8
gg1
 10
0.275000
 20
1.392500
  0
VERTEX
  8
gg1
 10
0.275000
 20
1.407500
  0
SEQEND
  8
gg1
  0
POLYLINE
  8
gg1
 62
1
 40
0.000000
 41
0.000000
 66
  1
  0
VERTEX
  8
gg1
 10
-0.102500
 20
1.490000
  0
VERTEX
  8
gg1
 10
-0.087500
 20
1.490000
  0
SEQEND
  8
gg1
  0
POLYLINE
  8
gg1
 62
1
 40
0.000000
 41
0.000000
 66
  1
  0
VERTEX
  8
gg1
 10
-0.095000
 20
1.482500
  0
VERTEX
  8
gg1
 10
-0.095000
 20
1.497500
  0
SEQEND
  8
gg1
  0
POLYLINE
  8
gg1
 62
1
 40
0.000000
 41
0.000000
 66
  1
  0
VERTEX
  8
gg1
 10
1.087500
 20
0.985000
  0
VERTEX
  8
gg1
 10
1.102500
 20
0.985000
  0
SEQEND
  8
gg1
  0
POLYLINE
  8
gg1
 62
1
 40
0.000000
 41
0.000000
 66
  1
  0
VERTEX
  8
gg1
 10
1.095000
 20
0.977500
  0
VERTEX
  8
gg1
 10
1.095000
 20
0.992500
  0
SEQEND
  8
gg1
  0
POLYLINE
  8
gg1
 62
1
 40
0.000000
 41
0.000000
 66
  1
  0
VERTEX
  8
gg1
 10
0.542500
 20
1.555000
  0
VERTEX
  8
gg1
 10
0.557500
 20
1.555000
  0
SEQEND
  8
gg1
  0
POLYLINE
  8
gg1
 62
1
 40
0.000000
 41
0.000000
 66
  1
  0
VERTEX
  8
gg1
 10
0.550000
 20
1.547500
  0
VERTEX
  8
gg1
 10
0.550000
 20
1.562500
  0
SEQEND
  8
gg1
  0
POLYLINE
  8
gg1
 62
1
 40
0.000000
 41
0.000000
 66
  1
  0
VERTEX
  8
gg1
 10
-0.102500
 20
1.680000
  0
VERTEX
  8
gg1
 10
-0.087500
 20
1.680000
  0
SEQEND
  8
gg1
  0
POLYLINE
  8
gg1
 62
1
 40
0.000000
 41
0.000000
 66
  1
  0
VERTEX
  8
gg1
 10
-0.095000
 20
1.672500
  0
VERTEX
  8
gg1
 10
-0.095000
 20
1.687500
  0
SEQEND
  8
gg1
  0
POLYLINE
  8
gg1
 62
1
 40
0.000000
 41
0.000000
 66
  1
  0
VERTEX
  8
gg1
 10
0.087500
 20
1.680000
  0
VERTEX
  8
gg1
 10
0.102500
 20
1.680000
  0
SEQEND
  8
gg1
  0
POLYLINE
  8
gg1
 62
1
 40
0.000000
 41
0.000000
 66
  1
  0
VERTEX
  8
gg1
 10
0.095000
 20
1.672500
  0
VERTEX
  8
gg1
 10
0.095000
 20
1.687500
  0
SEQEND
  8
gg1
  0
POLYLINE
  8
gg1
 62
1
 40
0.000000
 41
0.000000
 66
  1
  0
VERTEX
  8
gg1
 10
0.052500
 20
1.490000
  0
VERTEX
  8
gg1
 10
0.067500
 20
1.490000
  0
SEQEND
  8
gg1
  0
POLYLINE
  8
gg1
 62
1
 40
0.000000
 41
0.000000
 66
  1
  0
VERTEX
  8
gg1
 10
0.060000
 20
1.482500
  0
VERTEX
  8
gg1
 10
0.060000
 20
1.497500
  0
SEQEND
  8
gg1
  0
POLYLINE
  8
gg1
 62
1
 40
0.000000
 41
0.000000
 66
  1
  0
VERTEX
  8
gg1
 10
-0.072500
 20
-0.410300
  0
VERTEX
  8
gg1
 10
-0.057500
 20
-0.410300
  0
SEQEND
  8
gg1
  0
POLYLINE
  8
gg1
 62
1
 40
0.000000
 41
0.000000
 66
  1
  0
VERTEX
  8
gg1
 10
-0.065000
 20
-0.417800
  0
VERTEX
  8
gg1
 10
-0.065000
 20
-0.402800
  0
SEQEND
  8
gg1
  0
POLYLINE
  8
gg1
 62
1
 40
0.000000
 41
0.000000
 66
  1
  0
VERTEX
  8
gg1
 10
1.237500
 20
-0.810000
  0
VERTEX
  8
gg1
 10
1.252500
 20
-0.810000
  0
SEQEND
  8
gg1
  0
POLYLINE
  8
gg1
 62
1
 40
0.000000
 41
0.000000
 66
  1
  0
VERTEX
  8
gg1
 10
1.245000
 20
-0.817500
  0
VERTEX
  8
gg1
 10
1.245000
 20
-0.802500
  0
SEQEND
  8
gg1
  0
POLYLINE
  8
gg1
 62
1
 40
0.000000
 41
0.000000
 66
  1
  0
VERTEX
  8
gg1
 10
0.017500
 20
-0.690000
  0
VERTEX
  8
gg1
 10
0.032500
 20
-0.690000
  0
SEQEND
  8
gg1
  0
POLYLINE
  8
gg1
 62
1
 40
0.000000
 41
0.000000
 66
  1
  0
VERTEX
  8
gg1
 10
0.025000
 20
-0.697500
  0
VERTEX
  8
gg1
 10
0.025000
 20
-0.682500
  0
SEQEND
  8
gg1
  0
POLYLINE
  8
gg1
 62
1
 40
0.000000
 41
0.000000
 66
  1
  0
VERTEX
  8
gg1
 10
-0.942500
 20
1.110000
  0
VERTEX
  8
gg1
 10
-0.927500
 20
1.110000
  0
SEQEND
  8
gg1
  0
POLYLINE
  8
gg1
 62
1
 40
0.000000
 41
0.000000
 66
  1
  0
VERTEX
  8
gg1
 10
-0.935000
 20
1.102500
  0
VERTEX
  8
gg1
 10
-0.935000
 20
1.117500
  0
SEQEND
  8
gg1
  0
POLYLINE
  8
gg1
 62
1
 40
0.000000
 41
0.000000
 66
  1
  0
VERTEX
  8
gg1
 10
-0.847500
 20
1.090000
  0
VERTEX
  8
gg1
 10
-0.832500
 20
1.090000
  0
SEQEND
  8
gg1
  0
POLYLINE
  8
gg1
 62
1
 40
0.000000
 41
0.000000
 66
  1
  0
VERTEX
  8
gg1
 10
-0.840000
 20
1.082500
  0
VERTEX
  8
gg1
 10
-0.840000
 20
1.097500
  0
SEQEND
  8
gg1
  0
POLYLINE
  8
gg1
 62
1
 40
0.000000
 41
0.000000
 66
  1
  0
VERTEX
  8
gg1
 10
-0.812500
 20
1.475000
  0
VERTEX
  8
gg1
 10
-0.797500
 20
1.475000
  0
SEQEND
  8
gg1
  0
POLYLINE
  8
gg1
 62
1
 40
0.000000
 41
0.000000
 66
  1
  0
VERTEX
  8
gg1
 10
-0.805000
 20
1.467500
  0
VERTEX
  8
gg1
 10
-0.805000
 20
1.482500
  0
SEQEND
  8
gg1
  0
POLYLINE
  8
gg1
 62
1
 40
0.000000
 41
0.000000
 66
  1
  0
VERTEX
  8
gg1
 10
-0.892500
 20
1.180000
  0
VERTEX
  8
gg1
 10
-0.877500
 20
1.180000
  0
SEQEND
  8
gg1
  0
POLYLINE
  8
gg1
 62
1
 40
0.000000
 41
0.000000
 66
  1
  0
VERTEX
  8
gg1
 10
-0.885000
 20
1.172500
  0
VERTEX
  8
gg1
 10
-0.885000
 20
1.187500
  0
SEQEND
  8
gg1
  0
POLYLINE
  8
gg1
 62
1
 40
0.000000
 41
0.000000
 66
  1
  0
VERTEX
  8
gg1
 10
0.312500
 20
1.120000
  0
VERTEX
  8
gg1
 10
0.327500
 20
1.120000
  0
SEQEND
  8
gg1
  0
POLYLINE
  8
gg1
 62
1
 40
0.000000
 41
0.000000
 66
  1
  0
VERTEX
  8
gg1
 10
0.320000
 20
1.112500
  0
VERTEX
  8
gg1
 10
0.320000
 20
1.127500
  0
SEQEND
  8
gg1
  0
POLYLINE
  8
gg1
 62
1
 40
0.000000
 41
0.000000
 66
  1
  0
VERTEX
  8
gg1
 10
0.127500
 20
1.300000
  0
VERTEX
  8
gg1
 10
0.142500
 20
1.300000
  0
SEQEND
  8
gg1
  0
POLYLINE
  8
gg1
 62
1
 40
0.000000
 41
0.000000
 66
  1
  0
VERTEX
  8
gg1
 10
0.135000
 20
1.292500
  0
VERTEX
  8
gg1
 10
0.135000
 20
1.307500
  0
SEQEND
  8
gg1
  0
POLYLINE
  8
gg1
 62
1
 40
0.000000
 41
0.000000
 66
  1
  0
VERTEX
  8
gg1
 10
-0.212500
 20
-0.265000
  0
VERTEX
  8
gg1
 10
-0.197500
 20
-0.265000
  0
SEQEND
  8
gg1
  0
POLYLINE
  8
gg1
 62
1
 40
0.000000
 41
0.000000
 66
  1
  0
VERTEX
  8
gg1
 10
-0.205000
 20
-0.272500
  0
VERTEX
  8
gg1
 10
-0.205000
 20
-0.257500
  0
SEQEND
  8
gg1
  0
POLYLINE
  8
gg1
 62
1
 40
0.000000
 41
0.000000
 66
  1
  0
VERTEX
  8
gg1
 10
0.857500
 20
1.305000
  0
VERTEX
  8
gg1
 10
0.872500
 20
1.305000
  0
SEQEND
  8
gg1
  0
POLYLINE
  8
gg1
 62
1
 40
0.000000
 41
0.000000
 66
  1
  0
VERTEX
  8
gg1
 10
0.865000
 20
1.297500
  0
VERTEX
  8
gg1
 10
0.865000
 20
1.312500
  0
SEQEND
  8
gg1
  0
POLYLINE
  8
gg1
 62
1
 40
0.000000
 41
0.000000
 66
  1
  0
VERTEX
  8
gg1
 10
1.017500
 20
1.200000
  0
VERTEX
  8
gg1
 10
1.032500
 20
1.200000
  0
SEQEND
  8
gg1
  0
POLYLINE
  8
gg1
 62
1
 40
0.000000
 41
0.000000
 66
  1
  0
VERTEX
  8
gg1
 10
1.025000
 20
1.192500
  0
VERTEX
  8
gg1
 10
1.025000
 20
1.207500
  0
SEQEND
  8
gg1
  0
POLYLINE
  8
gg1
 62
1
 40
0.000000
 41
0.000000
 66
  1
  0
VERTEX
  8
gg1
 10
0.722500
 20
1.200000
  0
VERTEX
  8
gg1
 10
0.737500
 20
1.200000
  0
SEQEND
  8
gg1
  0
POLYLINE
  8
gg1
 62
1
 40
0.000000
 41
0.000000
 66
  1
  0
VERTEX
  8
gg1
 10
0.730000
 20
1.192500
  0
VERTEX
  8
gg1
 10
0.730000
 20
1.207500
  0
SEQEND
  8
gg1
  0
POLYLINE
  8
gg1
 62
1
 40
0.000000
 41
0.000000
 66
  1
  0
VERTEX
  8
gg1
 10
0.557500
 20
1.305000
  0
VERTEX
  8
gg1
 10
0.572500
 20
1.305000
  0
SEQEND
  8
gg1
  0
POLYLINE
  8
gg1
 62
1
 40
0.000000
 41
0.000000
 66
  1
  0
VERTEX
  8
gg1
 10
0.565000
 20
1.297500
  0
VERTEX
  8
gg1
 10
0.565000
 20
1.312500
  0
SEQEND
  8
gg1
  0
POLYLINE
  8
gg1
 62
1
 40
0.000000
 41
0.000000
 66
  1
  0
VERTEX
  8
gg1
 10
0.587500
 20
1.065000
  0
VERTEX
  8
gg1
 10
0.602500
 20
1.065000
  0
SEQEND
  8
gg1
  0
POLYLINE
  8
gg1
 62
1
 40
0.000000
 41
0.000000
 66
  1
  0
VERTEX
  8
gg1
 10
0.595000
 20
1.057500
  0
VERTEX
  8
gg1
 10
0.595000
 20
1.072500
  0
SEQEND
  8
gg1
  0
POLYLINE
  8
gg1
 62
1
 40
0.000000
 41
0.000000
 66
  1
  0
VERTEX
  8
gg1
 10
0.912500
 20
0.665000
  0
VERTEX
  8
gg1
 10
0.927500
 20
0.665000
  0
SEQEND
  8
gg1
  0
POLYLINE
  8
gg1
 62
1
 40
0.000000
 41
0.000000
 66
  1
  0
VERTEX
  8
gg1
 10
0.920000
 20
0.657500
  0
VERTEX
  8
gg1
 10
0.920000
 20
0.672500
  0
SEQEND
  8
gg1
  0
POLYLINE
  8
gg1
 62
1
 40
0.000000
 41
0.000000
 66
  1
  0
VERTEX
  8
gg1
 10
1.017500
 20
0.665000
  0
VERTEX
  8
gg1
 10
1.032500
 20
0.665000
  0
SEQEND
  8
gg1
  0
POLYLINE
  8
gg1
 62
1
 40
0.000000
 41
0.000000
 66
  1
  0
VERTEX
  8
gg1
 10
1.025000
 20
0.657500
  0
VERTEX
  8
gg1
 10
1.025000
 20
0.672500
  0
SEQEND
  8
gg1
  0
POLYLINE
  8
gg1
 62
1
 40
0.000000
 41
0.000000
 66
  1
  0
VERTEX
  8
gg1
 10
0.672500
 20
-1.080000
  0
VERTEX
  8
gg1
 10
0.687500
 20
-1.080000
  0
SEQEND
  8
gg1
  0
POLYLINE
  8
gg1
 62
1
 40
0.000000
 41
0.000000
 66
  1
  0
VERTEX
  8
gg1
 10
0.680000
 20
-1.087500
  0
VERTEX
  8
gg1
 10
0.680000
 20
-1.072500
  0
SEQEND
  8
gg1
  0
POLYLINE
  8
gg1
 62
1
 40
0.000000
 41
0.000000
 66
  1
  0
VERTEX
  8
gg1
 10
0.432500
 20
-1.275000
  0
VERTEX
  8
gg1
 10
0.447500
 20
-1.275000
  0
SEQEND
  8
gg1
  0
POLYLINE
  8
gg1
 62
1
 40
0.000000
 41
0.000000
 66
  1
  0
VERTEX
  8
gg1
 10
0.440000
 20
-1.282500
  0
VERTEX
  8
gg1
 10
0.440000
 20
-1.267500
  0
SEQEND
  8
gg1
  0
POLYLINE
  8
gg1
 62
1
 40
0.000000
 41
0.000000
 66
  1
  0
VERTEX
  8
gg1
 10
0.817500
 20
-1.125000
  0
VERTEX
  8
gg1
 10
0.832500
 20
-1.125000
  0
SEQEND
  8
gg1
  0
POLYLINE
  8
gg1
 62
1
 40
0.000000
 41
0.000000
 66
  1
  0
VERTEX
  8
gg1
 10
0.825000
 20
-1.132500
  0
VERTEX
  8
gg1
 10
0.825000
 20
-1.117500
  0
SEQEND
  8
gg1
  0
POLYLINE
  8
gg1
 62
1
 40
0.000000
 41
0.000000
 66
  1
  0
VERTEX
  8
gg1
 10
0.892500
 20
-1.000000
  0
VERTEX
  8
gg1
 10
0.907500
 20
-1.000000
  0
SEQEND
  8
gg1
  0
POLYLINE
  8
gg1
 62
1
 40
0.000000
 41
0.000000
 66
  1
  0
VERTEX
  8
gg1
 10
0.900000
 20
-1.007500
  0
VERTEX
  8
gg1
 10
0.900000
 20
-0.992500
  0
SEQEND
  8
gg1
  0
POLYLINE
  8
gg1
 62
1
 40
0.000000
 41
0.000000
 66
  1
  0
VERTEX
  8
gg1
 10
1.062500
 20
-0.915000
  0
VERTEX
  8
gg1
 10
1.077500
 20
-0.915000
  0
SEQEND
  8
gg1
  0
POLYLINE
  8
gg1
 62
1
 40
0.000000
 41
0.000000
 66
  1
  0
VERTEX
  8
gg1
 10
1.070000
 20
-0.922500
  0
VERTEX
  8
gg1
 10
1.070000
 20
-0.907500
  0
SEQEND
  8
gg1
  0
POLYLINE
  8
gg1
 62
1
 40
0.000000
 41
0.000000
 66
  1
  0
VERTEX
  8
gg1
 10
0.732500
 20
-0.885000
  0
VERTEX
  8
gg1
 10
0.747500
 20
-0.885000
  0
SEQEND
  8
gg1
  0
POLYLINE
  8
gg1
 62
1
 40
0.000000
 41
0.000000
 66
  1
  0
VERTEX
  8
gg1
 10
0.740000
 20
-0.892500
  0
VERTEX
  8
gg1
 10
0.740000
 20
-0.877500
  0
SEQEND
  8
gg1
  0
POLYLINE
  8
gg1
 62
1
 40
0.000000
 41
0.000000
 66
  1
  0
VERTEX
  8
gg1
 10
0.717500
 20
-1.405000
  0
VERTEX
  8
gg1
 10
0.732500
 20
-1.405000
  0
SEQEND
  8
gg1
  0
POLYLINE
  8
gg1
 62
1
 40
0.000000
 41
0.000000
 66
  1
  0
VERTEX
  8
gg1
 10
0.725000
 20
-1.412500
  0
VERTEX
  8
gg1
 10
0.725000
 20
-1.397500
  0
SEQEND
  8
gg1
  0
POLYLINE
  8
gg1
 62
1
 40
0.000000
 41
0.000000
 66
  1
  0
VERTEX
  8
gg1
 10
-0.257500
 20
-1.405000
  0
VERTEX
  8
gg1
 10
-0.242500
 20
-1.405000
  0
SEQEND
  8
gg1
  0
POLYLINE
  8
gg1
 62
1
 40
0.000000
 41
0.000000
 66
  1
  0
VERTEX
  8
gg1
 10
-0.250000
 20
-1.412500
  0
VERTEX
  8
gg1
 10
-0.250000
 20
-1.397500
  0
SEQEND
  8
gg1
  0
POLYLINE
  8
gg1
 62
1
 40
0.000000
 41
0.000000
 66
  1
  0
VERTEX
  8
gg1
 10
-0.067500
 20
-1.045000
  0
VERTEX
  8
gg1
 10
-0.052500
 20
-1.045000
  0
SEQEND
  8
gg1
  0
POLYLINE
  8
gg1
 62
1
 40
0.000000
 41
0.000000
 66
  1
  0
VERTEX
  8
gg1
 10
-0.060000
 20
-1.052500
  0
VERTEX
  8
gg1
 10
-0.060000
 20
-1.037500
  0
SEQEND
  8
gg1
  0
POLYLINE
  8
gg1
 62
1
 40
0.000000
 41
0.000000
 66
  1
  0
VERTEX
  8
gg1
 10
-0.332500
 20
-1.100000
  0
VERTEX
  8
gg1
 10
-0.317500
 20
-1.100000
  0
SEQEND
  8
gg1
  0
POLYLINE
  8
gg1
 62
1
 40
0.000000
 41
0.000000
 66
  1
  0
VERTEX
  8
gg1
 10
-0.325000
 20
-1.107500
  0
VERTEX
  8
gg1
 10
-0.325000
 20
-1.092500
  0
SEQEND
  8
gg1
  0
POLYLINE
  8
gg1
 62
1
 40
0.000000
 41
0.000000
 66
  1
  0
VERTEX
  8
gg1
 10
-0.477500
 20
-1.215000
  0
VERTEX
  8
gg1
 10
-0.462500
 20
-1.215000
  0
SEQEND
  8
gg1
  0
POLYLINE
  8
gg1
 62
1
 40
0.000000
 41
0.000000
 66
  1
  0
VERTEX
  8
gg1
 10
-0.470000
 20
-1.222500
  0
VERTEX
  8
gg1
 10
-0.470000
 20
-1.207500
  0
SEQEND
  8
gg1
  0
POLYLINE
  8
gg1
 62
1
 40
0.000000
 41
0.000000
 66
  1
  0
VERTEX
  8
gg1
 10
-0.187500
 20
-0.655000
  0
VERTEX
  8
gg1
 10
-0.172500
 20
-0.655000
  0
SEQEND
  8
gg1
  0
POLYLINE
  8
gg1
 62
1
 40
0.000000
 41
0.000000
 66
  1
  0
VERTEX
  8
gg1
 10
-0.180000
 20
-0.662500
  0
VERTEX
  8
gg1
 10
-0.180000
 20
-0.647500
  0
SEQEND
  8
gg1
  0
POLYLINE
  8
gg1
 62
1
 40
0.000000
 41
0.000000
 66
  1
  0
VERTEX
  8
gg1
 10
-0.267500
 20
-0.420000
  0
VERTEX
  8
gg1
 10
-0.252500
 20
-0.420000
  0
SEQEND
  8
gg1
  0
POLYLINE
  8
gg1
 62
1
 40
0.000000
 41
0.000000
 66
  1
  0
VERTEX
  8
gg1
 10
-0.260000
 20
-0.427500
  0
VERTEX
  8
gg1
 10
-0.260000
 20
-0.412500
  0
SEQEND
  8
gg1
  0
POLYLINE
  8
gg1
 62
1
 40
0.000000
 41
0.000000
 66
  1
  0
VERTEX
  8
gg1
 10
-0.697500
 20
0.010000
  0
VERTEX
  8
gg1
 10
-0.682500
 20
0.010000
  0
SEQEND
  8
gg1
  0
POLYLINE
  8
gg1
 62
1
 40
0.000000
 41
0.000000
 66
  1
  0
VERTEX
  8
gg1
 10
-0.690000
 20
0.002500
  0
VERTEX
  8
gg1
 10
-0.690000
 20
0.017500
  0
SEQEND
  8
gg1
  0
POLYLINE
  8
gg1
 62
1
 40
0.000000
 41
0.000000
 66
  1
  0
VERTEX
  8
gg1
 10
-0.712500
 20
0.635000
  0
VERTEX
  8
gg1
 10
-0.697500
 20
0.635000
  0
SEQEND
  8
gg1
  0
POLYLINE
  8
gg1
 62
1
 40
0.000000
 41
0.000000
 66
  1
  0
VERTEX
  8
gg1
 10
-0.705000
 20
0.627500
  0
VERTEX
  8
gg1
 10
-0.705000
 20
0.642500
  0
SEQEND
  8
gg1
  0
POLYLINE
  8
gg1
 62
1
 40
0.000000
 41
0.000000
 66
  1
  0
VERTEX
  8
gg1
 10
-0.842500
 20
0.860000
  0
VERTEX
  8
gg1
 10
-0.827500
 20
0.860000
  0
SEQEND
  8
gg1
  0
POLYLINE
  8
gg1
 62
1
 40
0.000000
 41
0.000000
 66
  1
  0
VERTEX
  8
gg1
 10
-0.835000
 20
0.852500
  0
VERTEX
  8
gg1
 10
-0.835000
 20
0.867500
  0
SEQEND
  8
gg1
  0
POLYLINE
  8
gg1
 62
1
 40
0.000000
 41
0.000000
 66
  1
  0
VERTEX
  8
gg1
 10
-0.782500
 20
0.635000
  0
VERTEX
  8
gg1
 10
-0.767500
 20
0.635000
  0
SEQEND
  8
gg1
  0
POLYLINE
  8
gg1
 62
1
 40
0.000000
 41
0.000000
 66
  1
  0
VERTEX
  8
gg1
 10
-0.775000
 20
0.627500
  0
VERTEX
  8
gg1
 10
-0.775000
 20
0.642500
  0
SEQEND
  8
gg1
  0
POLYLINE
  8
gg1
 62
1
 40
0.000000
 41
0.000000
 66
  1
  0
VERTEX
  8
gg1
 10
-0.747500
 20
0.805000
  0
VERTEX
  8
gg1
 10
-0.732500
 20
0.805000
  0
SEQEND
  8
gg1
  0
POLYLINE
  8
gg1
 62
1
 40
0.000000
 41
0.000000
 66
  1
  0
VERTEX
  8
gg1
 10
-0.740000
 20
0.797500
  0
VERTEX
  8
gg1
 10
-0.740000
 20
0.812500
  0
SEQEND
  8
gg1
  0
POLYLINE
  8
gg1
 62
1
 40
0.000000
 41
0.000000
 66
  1
  0
VERTEX
  8
gg1
 10
-0.747500
 20
0.915000
  0
VERTEX
  8
gg1
 10
-0.732500
 20
0.915000
  0
SEQEND
  8
gg1
  0
POLYLINE
  8
gg1
 62
1
 40
0.000000
 41
0.000000
 66
  1
  0
VERTEX
  8
gg1
 10
-0.740000
 20
0.907500
  0
VERTEX
  8
gg1
 10
-0.740000
 20
0.922500
  0
SEQEND
  8
gg1
  0
POLYLINE
  8
gg1
 62
1
 40
0.000000
 41
0.000000
 66
  1
  0
VERTEX
  8
gg1
 10
-0.652500
 20
0.860000
  0
VERTEX
  8
gg1
 10
-0.637500
 20
0.860000
  0
SEQEND
  8
gg1
  0
POLYLINE
  8
gg1
 62
1
 40
0.000000
 41
0.000000
 66
  1
  0
VERTEX
  8
gg1
 10
-0.645000
 20
0.852500
  0
VERTEX
  8
gg1
 10
-0.645000
 20
0.867500
  0
SEQEND
  8
gg1
  0
POLYLINE
  8
gg1
 62
1
 40
0.000000
 41
0.000000
 66
  1
  0
VERTEX
  8
gg1
 10
-0.652500
 20
0.580000
  0
VERTEX
  8
gg1
 10
-0.637500
 20
0.580000
  0
SEQEND
  8
gg1
  0
POLYLINE
  8
gg1
 62
1
 40
0.000000
 41
0.000000
 66
  1
  0
VERTEX
  8
gg1
 10
-0.645000
 20
0.572500
  0
VERTEX
  8
gg1
 10
-0.645000
 20
0.587500
  0
SEQEND
  8
gg1
  0
POLYLINE
  8
gg1
 62
1
 40
0.000000
 41
0.000000
 66
  1
  0
VERTEX
  8
gg1
 10
-0.437500
 20
0.715000
  0
VERTEX
  8
gg1
 10
-0.422500
 20
0.715000
  0
SEQEND
  8
gg1
  0
POLYLINE
  8
gg1
 62
1
 40
0.000000
 41
0.000000
 66
  1
  0
VERTEX
  8
gg1
 10
-0.430000
 20
0.707500
  0
VERTEX
  8
gg1
 10
-0.430000
 20
0.722500
  0
SEQEND
  8
gg1
  0
POLYLINE
  8
gg1
 62
1
 40
0.000000
 41
0.000000
 66
  1
  0
VERTEX
  8
gg1
 10
-0.107500
 20
-0.010000
  0
VERTEX
  8
gg1
 10
-0.092500
 20
-0.010000
  0
SEQEND
  8
gg1
  0
POLYLINE
  8
gg1
 62
1
 40
0.000000
 41
0.000000
 66
  1
  0
VERTEX
  8
gg1
 10
-0.100000
 20
-0.017500
  0
VERTEX
  8
gg1
 10
-0.100000
 20
-0.002500
  0
SEQEND
  8
gg1
  0
POLYLINE
  8
gg1
 62
1
 40
0.000000
 41
0.000000
 66
  1
  0
VERTEX
  8
gg1
 10
0.557500
 20
1.200000
  0
VERTEX
  8
gg1
 10
0.572500
 20
1.200000
  0
SEQEND
  8
gg1
  0
POLYLINE
  8
gg1
 62
1
 40
0.000000
 41
0.000000
 66
  1
  0
VERTEX
  8
gg1
 10
0.565000
 20
1.192500
  0
VERTEX
  8
gg1
 10
0.565000
 20
1.207500
  0
SEQEND
  8
gg1
  0
POLYLINE
  8
gg1
 62
1
 40
0.000000
 41
0.000000
 66
  1
  0
VERTEX
  8
gg1
 10
-1.187500
 20
0.925000
  0
VERTEX
  8
gg1
 10
-1.172500
 20
0.925000
  0
SEQEND
  8
gg1
  0
POLYLINE
  8
gg1
 62
1
 40
0.000000
 41
0.000000
 66
  1
  0
VERTEX
  8
gg1
 10
-1.180000
 20
0.917500
  0
VERTEX
  8
gg1
 10
-1.180000
 20
0.932500
  0
SEQEND
  8
gg1
  0
POLYLINE
  8
gg1
 62
1
 40
0.000000
 41
0.000000
 66
  1
  0
VERTEX
  8
gg1
 10
-1.182500
 20
1.230000
  0
VERTEX
  8
gg1
 10
-1.167500
 20
1.230000
  0
SEQEND
  8
gg1
  0
POLYLINE
  8
gg1
 62
1
 40
0.000000
 41
0.000000
 66
  1
  0
VERTEX
  8
gg1
 10
-1.175000
 20
1.222500
  0
VERTEX
  8
gg1
 10
-1.175000
 20
1.237500
  0
SEQEND
  8
gg1
  0
POLYLINE
  8
gg1
 62
1
 40
0.000000
 41
0.000000
 66
  1
  0
VERTEX
  8
gg1
 10
-1.072500
 20
1.265000
  0
VERTEX
  8
gg1
 10
-1.057500
 20
1.265000
  0
SEQEND
  8
gg1
  0
POLYLINE
  8
gg1
 62
1
 40
0.000000
 41
0.000000
 66
  1
  0
VERTEX
  8
gg1
 10
-1.065000
 20
1.257500
  0
VERTEX
  8
gg1
 10
-1.065000
 20
1.272500
  0
SEQEND
  8
gg1
  0
POLYLINE
  8
gg1
 62
1
 40
0.000000
 41
0.000000
 66
  1
  0
VERTEX
  8
gg1
 10
-0.937500
 20
1.395000
  0
VERTEX
  8
gg1
 10
-0.922500
 20
1.395000
  0
SEQEND
  8
gg1
  0
POLYLINE
  8
gg1
 62
1
 40
0.000000
 41
0.000000
 66
  1
  0
VERTEX
  8
gg1
 10
-0.930000
 20
1.387500
  0
VERTEX
  8
gg1
 10
-0.930000
 20
1.402500
  0
SEQEND
  8
gg1
  0
POLYLINE
  8
gg1
 62
1
 40
0.000000
 41
0.000000
 66
  1
  0
VERTEX
  8
gg1
 10
-0.332500
 20
1.315000
  0
VERTEX
  8
gg1
 10
-0.317500
 20
1.315000
  0
SEQEND
  8
gg1
  0
POLYLINE
  8
gg1
 62
1
 40
0.000000
 41
0.000000
 66
  1
  0
VERTEX
  8
gg1
 10
-0.325000
 20
1.307500
  0
VERTEX
  8
gg1
 10
-0.325000
 20
1.322500
  0
SEQEND
  8
gg1
  0
POLYLINE
  8
gg1
 62
1
 40
0.000000
 41
0.000000
 66
  1
  0
VERTEX
  8
gg1
 10
0.297500
 20
1.300000
  0
VERTEX
  8
gg1
 10
0.312500
 20
1.300000
  0
SEQEND
  8
gg1
  0
POLYLINE
  8
gg1
 62
1
 40
0.000000
 41
0.000000
 66
  1
  0
VERTEX
  8
gg1
 10
0.305000
 20
1.292500
  0
VERTEX
  8
gg1
 10
0.305000
 20
1.307500
  0
SEQEND
  8
gg1
  0
POLYLINE
  8
gg1
 62
1
 40
0.000000
 41
0.000000
 66
  1
  0
VERTEX
  8
gg1
 10
0.442500
 20
1.120000
  0
VERTEX
  8
gg1
 10
0.457500
 20
1.120000
  0
SEQEND
  8
gg1
  0
POLYLINE
  8
gg1
 62
1
 40
0.000000
 41
0.000000
 66
  1
  0
VERTEX
  8
gg1
 10
0.450000
 20
1.112500
  0
VERTEX
  8
gg1
 10
0.450000
 20
1.127500
  0
SEQEND
  8
gg1
  0
POLYLINE
  8
gg1
 62
1
 40
0.000000
 41
0.000000
 66
  1
  0
VERTEX
  8
gg1
 10
-0.507500
 20
1.580000
  0
VERTEX
  8
gg1
 10
-0.492500
 20
1.580000
  0
SEQEND
  8
gg1
  0
POLYLINE
  8
gg1
 62
1
 40
0.000000
 41
0.000000
 66
  1
  0
VERTEX
  8
gg1
 10
-0.500000
 20
1.572500
  0
VERTEX
  8
gg1
 10
-0.500000
 20
1.587500
  0
SEQEND
  8
gg1
  0
POLYLINE
  8
gg1
 62
1
 40
0.000000
 41
0.000000
 66
  1
  0
VERTEX
  8
gg1
 10
-0.187500
 20
1.120000
  0
VERTEX
  8
gg1
 10
-0.172500
 20
1.120000
  0
SEQEND
  8
gg1
  0
POLYLINE
  8
gg1
 62
1
 40
0.000000
 41
0.000000
 66
  1
  0
VERTEX
  8
gg1
 10
-0.180000
 20
1.112500
  0
VERTEX
  8
gg1
 10
-0.180000
 20
1.127500
  0
SEQEND
  8
gg1
  0
POLYLINE
  8
gg1
 62
1
 40
0.000000
 41
0.000000
 66
  1
  0
VERTEX
  8
gg1
 10
-0.252500
 20
1.380000
  0
VERTEX
  8
gg1
 10
-0.237500
 20
1.380000
  0
SEQEND
  8
gg1
  0
POLYLINE
  8
gg1
 62
1
 40
0.000000
 41
0.000000
 66
  1
  0
VERTEX
  8
gg1
 10
-0.245000
 20
1.372500
  0
VERTEX
  8
gg1
 10
-0.245000
 20
1.387500
  0
SEQEND
  8
gg1
  0
POLYLINE
  8
gg1
 62
1
 40
0.000000
 41
0.000000
 66
  1
  0
VERTEX
  8
gg1
 10
-0.057500
 20
1.120000
  0
VERTEX
  8
gg1
 10
-0.042500
 20
1.120000
  0
SEQEND
  8
gg1
  0
POLYLINE
  8
gg1
 62
1
 40
0.000000
 41
0.000000
 66
  1
  0
VERTEX
  8
gg1
 10
-0.050000
 20
1.112500
  0
VERTEX
  8
gg1
 10
-0.050000
 20
1.127500
  0
SEQEND
  8
gg1
  0
POLYLINE
  8
gg1
 62
1
 40
0.000000
 41
0.000000
 66
  1
  0
VERTEX
  8
gg1
 10
0.077500
 20
1.200000
  0
VERTEX
  8
gg1
 10
0.092500
 20
1.200000
  0
SEQEND
  8
gg1
  0
POLYLINE
  8
gg1
 62
1
 40
0.000000
 41
0.000000
 66
  1
  0
VERTEX
  8
gg1
 10
0.085000
 20
1.192500
  0
VERTEX
  8
gg1
 10
0.085000
 20
1.207500
  0
SEQEND
  8
gg1
  0
POLYLINE
  8
gg1
 62
1
 40
0.000000
 41
0.000000
 66
  1
  0
VERTEX
  8
gg1
 10
0.157500
 20
1.120000
  0
VERTEX
  8
gg1
 10
0.172500
 20
1.120000
  0
SEQEND
  8
gg1
  0
POLYLINE
  8
gg1
 62
1
 40
0.000000
 41
0.000000
 66
  1
  0
VERTEX
  8
gg1
 10
0.165000
 20
1.112500
  0
VERTEX
  8
gg1
 10
0.165000
 20
1.127500
  0
SEQEND
  8
gg1
  0
POLYLINE
  8
gg1
 62
1
 40
0.000000
 41
0.000000
 66
  1
  0
VERTEX
  8
gg1
 10
1.137500
 20
1.255000
  0
VERTEX
  8
gg1
 10
1.152500
 20
1.255000
  0
SEQEND
  8
gg1
  0
POLYLINE
  8
gg1
 62
1
 40
0.000000
 41
0.000000
 66
  1
  0
VERTEX
  8
gg1
 10
1.145000
 20
1.247500
  0
VERTEX
  8
gg1
 10
1.145000
 20
1.262500
  0
SEQEND
  8
gg1
  0
POLYLINE
  8
gg1
 62
1
 40
0.000000
 41
0.000000
 66
  1
  0
VERTEX
  8
gg1
 10
0.732500
 20
1.520000
  0
VERTEX
  8
gg1
 10
0.747500
 20
1.520000
  0
SEQEND
  8
gg1
  0
POLYLINE
  8
gg1
 62
1
 40
0.000000
 41
0.000000
 66
  1
  0
VERTEX
  8
gg1
 10
0.740000
 20
1.512500
  0
VERTEX
  8
gg1
 10
0.740000
 20
1.527500
  0
SEQEND
  8
gg1
  0
POLYLINE
  8
gg1
 62
1
 40
0.000000
 41
0.000000
 66
  1
  0
VERTEX
  8
gg1
 10
0.857500
 20
1.425000
  0
VERTEX
  8
gg1
 10
0.872500
 20
1.425000
  0
SEQEND
  8
gg1
  0
POLYLINE
  8
gg1
 62
1
 40
0.000000
 41
0.000000
 66
  1
  0
VERTEX
  8
gg1
 10
0.865000
 20
1.417500
  0
VERTEX
  8
gg1
 10
0.865000
 20
1.432500
  0
SEQEND
  8
gg1
  0
POLYLINE
  8
gg1
 62
1
 40
0.000000
 41
0.000000
 66
  1
  0
VERTEX
  8
gg1
 10
0.672500
 20
1.425000
  0
VERTEX
  8
gg1
 10
0.687500
 20
1.425000
  0
SEQEND
  8
gg1
  0
POLYLINE
  8
gg1
 62
1
 40
0.000000
 41
0.000000
 66
  1
  0
VERTEX
  8
gg1
 10
0.680000
 20
1.417500
  0
VERTEX
  8
gg1
 10
0.680000
 20
1.432500
  0
SEQEND
  8
gg1
  0
POLYLINE
  8
gg1
 62
1
 40
0.000000
 41
0.000000
 66
  1
  0
VERTEX
  8
gg1
 10
1.247500
 20
0.990000
  0
VERTEX
  8
gg1
 10
1.262500
 20
0.990000
  0
SEQEND
  8
gg1
  0
POLYLINE
  8
gg1
 62
1
 40
0.000000
 41
0.000000
 66
  1
  0
VERTEX
  8
gg1
 10
1.255000
 20
0.982500
  0
VERTEX
  8
gg1
 10
1.255000
 20
0.997500
  0
SEQEND
  8
gg1
  0
POLYLINE
  8
gg1
 62
1
 40
0.000000
 41
0.000000
 66
  1
  0
VERTEX
  8
gg1
 10
1.077500
 20
-0.470000
  0
VERTEX
  8
gg1
 10
1.092500
 20
-0.470000
  0
SEQEND
  8
gg1
  0
POLYLINE
  8
gg1
 62
1
 40
0.000000
 41
0.000000
 66
  1
  0
VERTEX
  8
gg1
 10
1.085000
 20
-0.477500
  0
VERTEX
  8
gg1
 10
1.085000
 20
-0.462500
  0
SEQEND
  8
gg1
  0
POLYLINE
  8
gg1
 62
1
 40
0.000000
 41
0.000000
 66
  1
  0
VERTEX
  8
gg1
 10
0.432500
 20
1.400000
  0
VERTEX
  8
gg1
 10
0.447500
 20
1.400000
  0
SEQEND
  8
gg1
  0
POLYLINE
  8
gg1
 62
1
 40
0.000000
 41
0.000000
 66
  1
  0
VERTEX
  8
gg1
 10
0.440000
 20
1.392500
  0
VERTEX
  8
gg1
 10
0.440000
 20
1.407500
  0
SEQEND
  8
gg1
  0
POLYLINE
  8
gg1
 62
1
 40
0.000000
 41
0.000000
 66
  1
  0
VERTEX
  8
gg1
 10
0.822500
 20
-0.660000
  0
VERTEX
  8
gg1
 10
0.837500
 20
-0.660000
  0
SEQEND
  8
gg1
  0
POLYLINE
  8
gg1
 62
1
 40
0.000000
 41
0.000000
 66
  1
  0
VERTEX
  8
gg1
 10
0.830000
 20
-0.667500
  0
VERTEX
  8
gg1
 10
0.830000
 20
-0.652500
  0
SEQEND
  8
gg1
  0
POLYLINE
  8
gg1
 62
1
 40
0.000000
 41
0.000000
 66
  1
  0
VERTEX
  8
gg1
 10
-0.342500
 20
-0.525000
  0
VERTEX
  8
gg1
 10
-0.327500
 20
-0.525000
  0
SEQEND
  8
gg1
  0
POLYLINE
  8
gg1
 62
1
 40
0.000000
 41
0.000000
 66
  1
  0
VERTEX
  8
gg1
 10
-0.335000
 20
-0.532500
  0
VERTEX
  8
gg1
 10
-0.335000
 20
-0.517500
  0
SEQEND
  8
gg1
  0
POLYLINE
  8
gg1
 62
1
 40
0.000000
 41
0.000000
 66
  1
  0
VERTEX
  8
gg1
 10
-0.057500
 20
-1.275000
  0
VERTEX
  8
gg1
 10
-0.042500
 20
-1.275000
  0
SEQEND
  8
gg1
  0
POLYLINE
  8
gg1
 62
1
 40
0.000000
 41
0.000000
 66
  1
  0
VERTEX
  8
gg1
 10
-0.050000
 20
-1.282500
  0
VERTEX
  8
gg1
 10
-0.050000
 20
-1.267500
  0
SEQEND
  8
gg1
  0
POLYLINE
  8
gg1
 62
1
 40
0.000000
 41
0.000000
 66
  1
  0
VERTEX
  8
gg1
 10
-0.567500
 20
-1.405000
  0
VERTEX
  8
gg1
 10
-0.552500
 20
-1.405000
  0
SEQEND
  8
gg1
  0
POLYLINE
  8
gg1
 62
1
 40
0.000000
 41
0.000000
 66
  1
  0
VERTEX
  8
gg1
 10
-0.560000
 20
-1.412500
  0
VERTEX
  8
gg1
 10
-0.560000
 20
-1.397500
  0
SEQEND
  8
gg1
  0
POLYLINE
  8
gg1
 62
1
 40
0.000000
 41
0.000000
 66
  1
  0
VERTEX
  8
gg1
 10
-0.602500
 20
-1.445000
  0
VERTEX
  8
gg1
 10
-0.587500
 20
-1.445000
  0
SEQEND
  8
gg1
  0
POLYLINE
  8
gg1
 62
1
 40
0.000000
 41
0.000000
 66
  1
  0
VERTEX
  8
gg1
 10
-0.595000
 20
-1.452500
  0
VERTEX
  8
gg1
 10
-0.595000
 20
-1.437500
  0
SEQEND
  8
gg1
  0
POLYLINE
  8
gg1
 62
1
 40
0.000000
 41
0.000000
 66
  1
  0
VERTEX
  8
gg1
 10
-0.792500
 20
0.435000
  0
VERTEX
  8
gg1
 10
-0.777500
 20
0.435000
  0
SEQEND
  8
gg1
  0
POLYLINE
  8
gg1
 62
1
 40
0.000000
 41
0.000000
 66
  1
  0
VERTEX
  8
gg1
 10
-0.785000
 20
0.427500
  0
VERTEX
  8
gg1
 10
-0.785000
 20
0.442500
  0
SEQEND
  8
gg1
  0
POLYLINE
  8
gg1
 62
1
 40
0.000000
 41
0.000000
 66
  1
  0
VERTEX
  8
gg1
 10
-0.612500
 20
0.340000
  0
VERTEX
  8
gg1
 10
-0.597500
 20
0.340000
  0
SEQEND
  8
gg1
  0
POLYLINE
  8
gg1
 62
1
 40
0.000000
 41
0.000000
 66
  1
  0
VERTEX
  8
gg1
 10
-0.605000
 20
0.332500
  0
VERTEX
  8
gg1
 10
-0.605000
 20
0.347500
  0
SEQEND
  8
gg1
  0
POLYLINE
  8
gg1
 62
1
 40
0.000000
 41
0.000000
 66
  1
  0
VERTEX
  8
gg1
 10
-0.597500
 20
0.315000
  0
VERTEX
  8
gg1
 10
-0.582500
 20
0.315000
  0
SEQEND
  8
gg1
  0
POLYLINE
  8
gg1
 62
1
 40
0.000000
 41
0.000000
 66
  1
  0
VERTEX
  8
gg1
 10
-0.590000
 20
0.307500
  0
VERTEX
  8
gg1
 10
-0.590000
 20
0.322500
  0
SEQEND
  8
gg1
  0
POLYLINE
  8
gg1
 62
1
 40
0.000000
 41
0.000000
 66
  1
  0
VERTEX
  8
gg1
 10
-0.567500
 20
0.175000
  0
VERTEX
  8
gg1
 10
-0.552500
 20
0.175000
  0
SEQEND
  8
gg1
  0
POLYLINE
  8
gg1
 62
1
 40
0.000000
 41
0.000000
 66
  1
  0
VERTEX
  8
gg1
 10
-0.560000
 20
0.167500
  0
VERTEX
  8
gg1
 10
-0.560000
 20
0.182500
  0
SEQEND
  8
gg1
  0
POLYLINE
  8
gg1
 62
1
 40
0.000000
 41
0.000000
 66
  1
  0
VERTEX
  8
gg1
 10
-0.597500
 20
0.175000
  0
VERTEX
  8
gg1
 10
-0.582500
 20
0.175000
  0
SEQEND
  8
gg1
  0
POLYLINE
  8
gg1
 62
1
 40
0.000000
 41
0.000000
 66
  1
  0
VERTEX
  8
gg1
 10
-0.590000
 20
0.167500
  0
VERTEX
  8
gg1
 10
-0.590000
 20
0.182500
  0
SEQEND
  8
gg1
  0
POLYLINE
  8
gg1
 62
1
 40
0.000000
 41
0.000000
 66
  1
  0
VERTEX
  8
gg1
 10
-0.627500
 20
0.175000
  0
VERTEX
  8
gg1
 10
-0.612500
 20
0.175000
  0
SEQEND
  8
gg1
  0
POLYLINE
  8
gg1
 62
1
 40
0.000000
 41
0.000000
 66
  1
  0
VERTEX
  8
gg1
 10
-0.620000
 20
0.167500
  0
VERTEX
  8
gg1
 10
-0.620000
 20
0.182500
  0
SEQEND
  8
gg1
  0
POLYLINE
  8
gg1
 62
1
 40
0.000000
 41
0.000000
 66
  1
  0
VERTEX
  8
gg1
 10
0.497500
 20
-0.450000
  0
VERTEX
  8
gg1
 10
0.512500
 20
-0.450000
  0
SEQEND
  8
gg1
  0
POLYLINE
  8
gg1
 62
1
 40
0.000000
 41
0.000000
 66
  1
  0
VERTEX
  8
gg1
 10
0.505000
 20
-0.457500
  0
VERTEX
  8
gg1
 10
0.505000
 20
-0.442500
  0
SEQEND
  8
gg1
  0
POLYLINE
  8
gg1
 62
1
 40
0.000000
 41
0.000000
 66
  1
  0
VERTEX
  8
gg1
 10
0.497500
 20
-0.530000
  0
VERTEX
  8
gg1
 10
0.512500
 20
-0.530000
  0
SEQEND
  8
gg1
  0
POLYLINE
  8
gg1
 62
1
 40
0.000000
 41
0.000000
 66
  1
  0
VERTEX
  8
gg1
 10
0.505000
 20
-0.537500
  0
VERTEX
  8
gg1
 10
0.505000
 20
-0.522500
  0
SEQEND
  8
gg1
  0
POLYLINE
  8
gg1
 62
1
 40
0.000000
 41
0.000000
 66
  1
  0
VERTEX
  8
gg1
 10
-0.697500
 20
0.090000
  0
VERTEX
  8
gg1
 10
-0.682500
 20
0.090000
  0
SEQEND
  8
gg1
  0
POLYLINE
  8
gg1
 62
1
 40
0.000000
 41
0.000000
 66
  1
  0
VERTEX
  8
gg1
 10
-0.690000
 20
0.082500
  0
VERTEX
  8
gg1
 10
-0.690000
 20
0.097500
  0
SEQEND
  8
gg1
  0
POLYLINE
  8
gg1
 62
1
 40
0.000000
 41
0.000000
 66
  1
  0
VERTEX
  8
gg1
 10
-0.347500
 20
-0.220000
  0
VERTEX
  8
gg1
 10
-0.332500
 20
-0.220000
  0
SEQEND
  8
gg1
  0
POLYLINE
  8
gg1
 62
1
 40
0.000000
 41
0.000000
 66
  1
  0
VERTEX
  8
gg1
 10
-0.340000
 20
-0.227500
  0
VERTEX
  8
gg1
 10
-0.340000
 20
-0.212500
  0
SEQEND
  8
gg1
  0
POLYLINE
  8
gg1
 62
1
 40
0.000000
 41
0.000000
 66
  1
  0
VERTEX
  8
gg1
 10
-0.387500
 20
-0.220000
  0
VERTEX
  8
gg1
 10
-0.372500
 20
-0.220000
  0
SEQEND
  8
gg1
  0
POLYLINE
  8
gg1
 62
1
 40
0.000000
 41
0.000000
 66
  1
  0
VERTEX
  8
gg1
 10
-0.380000
 20
-0.227500
  0
VERTEX
  8
gg1
 10
-0.380000
 20
-0.212500
  0
SEQEND
  8
gg1
  0
POLYLINE
  8
gg1
 62
1
 40
0.000000
 41
0.000000
 66
  1
  0
VERTEX
  8
gg1
 10
-0.372500
 20
-0.435000
  0
VERTEX
  8
gg1
 10
-0.357500
 20
-0.435000
  0
SEQEND
  8
gg1
  0
POLYLINE
  8
gg1
 62
1
 40
0.000000
 41
0.000000
 66
  1
  0
VERTEX
  8
gg1
 10
-0.365000
 20
-0.442500
  0
VERTEX
  8
gg1
 10
-0.365000
 20
-0.427500
  0
SEQEND
  8
gg1
  0
POLYLINE
  8
gg1
 62
1
 40
0.000000
 41
0.000000
 66
  1
  0
VERTEX
  8
gg1
 10
0.117500
 20
-0.015000
  0
VERTEX
  8
gg1
 10
0.132500
 20
-0.015000
  0
SEQEND
  8
gg1
  0
POLYLINE
  8
gg1
 62
1
 40
0.000000
 41
0.000000
 66
  1
  0
VERTEX
  8
gg1
 10
0.125000
 20
-0.022500
  0
VERTEX
  8
gg1
 10
0.125000
 20
-0.007500
  0
SEQEND
  8
gg1
  0
POLYLINE
  8
gg1
 62
1
 40
0.000000
 41
0.000000
 66
  1
  0
VERTEX
  8
gg1
 10
-0.347500
 20
-0.715000
  0
VERTEX
  8
gg1
 10
-0.332500
 20
-0.715000
  0
SEQEND
  8
gg1
  0
POLYLINE
  8
gg1
 62
1
 40
0.000000
 41
0.000000
 66
  1
  0
VERTEX
  8
gg1
 10
-0.340000
 20
-0.722500
  0
VERTEX
  8
gg1
 10
-0.340000
 20
-0.707500
  0
SEQEND
  8
gg1
  0
POLYLINE
  8
gg1
 62
1
 40
0.000000
 41
0.000000
 66
  1
  0
VERTEX
  8
gg1
 10
-0.997500
 20
-0.840000
  0
VERTEX
  8
gg1
 10
-0.982500
 20
-0.840000
  0
SEQEND
  8
gg1
  0
POLYLINE
  8
gg1
 62
1
 40
0.000000
 41
0.000000
 66
  1
  0
VERTEX
  8
gg1
 10
-0.990000
 20
-0.847500
  0
VERTEX
  8
gg1
 10
-0.990000
 20
-0.832500
  0
SEQEND
  8
gg1
  0
POLYLINE
  8
gg1
 62
1
 40
0.000000
 41
0.000000
 66
  1
  0
VERTEX
  8
gg1
 10
-0.907500
 20
-1.035000
  0
VERTEX
  8
gg1
 10
-0.892500
 20
-1.035000
  0
SEQEND
  8
gg1
  0
POLYLINE
  8
gg1
 62
1
 40
0.000000
 41
0.000000
 66
  1
  0
VERTEX
  8
gg1
 10
-0.900000
 20
-1.042500
  0
VERTEX
  8
gg1
 10
-0.900000
 20
-1.027500
  0
SEQEND
  8
gg1
  0
POLYLINE
  8
gg1
 62
1
 40
0.000000
 41
0.000000
 66
  1
  0
VERTEX
  8
gg1
 10
0.692500
 20
-0.780000
  0
VERTEX
  8
gg1
 10
0.707500
 20
-0.780000
  0
SEQEND
  8
gg1
  0
POLYLINE
  8
gg1
 62
1
 40
0.000000
 41
0.000000
 66
  1
  0
VERTEX
  8
gg1
 10
0.700000
 20
-0.787500
  0
VERTEX
  8
gg1
 10
0.700000
 20
-0.772500
  0
SEQEND
  8
gg1
  0
POLYLINE
  8
gg1
 62
1
 40
0.000000
 41
0.000000
 66
  1
  0
VERTEX
  8
gg1
 10
0.707500
 20
-0.215000
  0
VERTEX
  8
gg1
 10
0.722500
 20
-0.215000
  0
SEQEND
  8
gg1
  0
POLYLINE
  8
gg1
 62
1
 40
0.000000
 41
0.000000
 66
  1
  0
VERTEX
  8
gg1
 10
0.715000
 20
-0.222500
  0
VERTEX
  8
gg1
 10
0.715000
 20
-0.207500
  0
SEQEND
  8
gg1
  0
POLYLINE
  8
gg1
 62
1
 40
0.000000
 41
0.000000
 66
  1
  0
VERTEX
  8
gg1
 10
-0.457500
 20
-1.515000
  0
VERTEX
  8
gg1
 10
-0.442500
 20
-1.515000
  0
SEQEND
  8
gg1
  0
POLYLINE
  8
gg1
 62
1
 40
0.000000
 41
0.000000
 66
  1
  0
VERTEX
  8
gg1
 10
-0.450000
 20
-1.522500
  0
VERTEX
  8
gg1
 10
-0.450000
 20
-1.507500
  0
SEQEND
  8
gg1
  0
POLYLINE
  8
gg1
 62
1
 40
0.000000
 41
0.000000
 66
  1
  0
VERTEX
  8
gg1
 10
-0.457500
 20
-1.485000
  0
VERTEX
  8
gg1
 10
-0.442500
 20
-1.485000
  0
SEQEND
  8
gg1
  0
POLYLINE
  8
gg1
 62
1
 40
0.000000
 41
0.000000
 66
  1
  0
VERTEX
  8
gg1
 10
-0.450000
 20
-1.492500
  0
VERTEX
  8
gg1
 10
-0.450000
 20
-1.477500
  0
SEQEND
  8
gg1
  0
POLYLINE
  8
gg1
 62
1
 40
0.000000
 41
0.000000
 66
  1
  0
VERTEX
  8
gg1
 10
-0.717500
 20
-1.410000
  0
VERTEX
  8
gg1
 10
-0.702500
 20
-1.410000
  0
SEQEND
  8
gg1
  0
POLYLINE
  8
gg1
 62
1
 40
0.000000
 41
0.000000
 66
  1
  0
VERTEX
  8
gg1
 10
-0.710000
 20
-1.417500
  0
VERTEX
  8
gg1
 10
-0.710000
 20
-1.402500
  0
SEQEND
  8
gg1
  0
POLYLINE
  8
gg1
 62
1
 40
0.000000
 41
0.000000
 66
  1
  0
VERTEX
  8
gg1
 10
-0.747500
 20
-1.410000
  0
VERTEX
  8
gg1
 10
-0.732500
 20
-1.410000
  0
SEQEND
  8
gg1
  0
POLYLINE
  8
gg1
 62
1
 40
0.000000
 41
0.000000
 66
  1
  0
VERTEX
  8
gg1
 10
-0.740000
 20
-1.417500
  0
VERTEX
  8
gg1
 10
-0.740000
 20
-1.402500
  0
SEQEND
  8
gg1
  0
POLYLINE
  8
gg1
 62
1
 40
0.000000
 41
0.000000
 66
  1
  0
VERTEX
  8
gg1
 10
-0.747500
 20
-1.440000
  0
VERTEX
  8
gg1
 10
-0.732500
 20
-1.440000
  0
SEQEND
  8
gg1
  0
POLYLINE
  8
gg1
 62
1
 40
0.000000
 41
0.000000
 66
  1
  0
VERTEX
  8
gg1
 10
-0.740000
 20
-1.447500
  0
VERTEX
  8
gg1
 10
-0.740000
 20
-1.432500
  0
SEQEND
  8
gg1
  0
POLYLINE
  8
gg1
 62
1
 40
0.000000
 41
0.000000
 66
  1
  0
VERTEX
  8
gg1
 10
-0.747500
 20
-1.380000
  0
VERTEX
  8
gg1
 10
-0.732500
 20
-1.380000
  0
SEQEND
  8
gg1
  0
POLYLINE
  8
gg1
 62
1
 40
0.000000
 41
0.000000
 66
  1
  0
VERTEX
  8
gg1
 10
-0.740000
 20
-1.387500
  0
VERTEX
  8
gg1
 10
-0.740000
 20
-1.372500
  0
SEQEND
  8
gg1
  0
POLYLINE
  8
gg1
 62
1
 40
0.000000
 41
0.000000
 66
  1
  0
VERTEX
  8
gg1
 10
-0.717500
 20
-1.440000
  0
VERTEX
  8
gg1
 10
-0.702500
 20
-1.440000
  0
SEQEND
  8
gg1
  0
POLYLINE
  8
gg1
 62
1
 40
0.000000
 41
0.000000
 66
  1
  0
VERTEX
  8
gg1
 10
-0.710000
 20
-1.447500
  0
VERTEX
  8
gg1
 10
-0.710000
 20
-1.432500
  0
SEQEND
  8
gg1
  0
POLYLINE
  8
gg1
 62
1
 40
0.000000
 41
0.000000
 66
  1
  0
VERTEX
  8
gg1
 10
-0.717500
 20
-1.380000
  0
VERTEX
  8
gg1
 10
-0.702500
 20
-1.380000
  0
SEQEND
  8
gg1
  0
POLYLINE
  8
gg1
 62
1
 40
0.000000
 41
0.000000
 66
  1
  0
VERTEX
  8
gg1
 10
-0.710000
 20
-1.387500
  0
VERTEX
  8
gg1
 10
-0.710000
 20
-1.372500
  0
SEQEND
  8
gg1
  0
POLYLINE
  8
gg1
 62
1
 40
0.000000
 41
0.000000
 66
  1
  0
VERTEX
  8
gg1
 10
-0.167500
 20
-0.395000
  0
VERTEX
  8
gg1
 10
-0.152500
 20
-0.395000
  0
SEQEND
  8
gg1
  0
POLYLINE
  8
gg1
 62
1
 40
0.000000
 41
0.000000
 66
  1
  0
VERTEX
  8
gg1
 10
-0.160000
 20
-0.402500
  0
VERTEX
  8
gg1
 10
-0.160000
 20
-0.387500
  0
SEQEND
  8
gg1
  0
POLYLINE
  8
gg1
 62
1
 40
0.000000
 41
0.000000
 66
  1
  0
VERTEX
  8
gg1
 10
-0.167500
 20
-0.305000
  0
VERTEX
  8
gg1
 10
-0.152500
 20
-0.305000
  0
SEQEND
  8
gg1
  0
POLYLINE
  8
gg1
 62
1
 40
0.000000
 41
0.000000
 66
  1
  0
VERTEX
  8
gg1
 10
-0.160000
 20
-0.312500
  0
VERTEX
  8
gg1
 10
-0.160000
 20
-0.297500
  0
SEQEND
  8
gg1
  0
POLYLINE
  8
gg1
 62
1
 40
0.000000
 41
0.000000
 66
  1
  0
VERTEX
  8
gg1
 10
0.422500
 20
-0.760500
  0
VERTEX
  8
gg1
 10
0.437500
 20
-0.760500
  0
SEQEND
  8
gg1
  0
POLYLINE
  8
gg1
 62
1
 40
0.000000
 41
0.000000
 66
  1
  0
VERTEX
  8
gg1
 10
0.430000
 20
-0.768000
  0
VERTEX
  8
gg1
 10
0.430000
 20
-0.753000
  0
SEQEND
  8
gg1
  0
POLYLINE
  8
gg1
 62
1
 40
0.000000
 41
0.000000
 66
  1
  0
VERTEX
  8
gg1
 10
0.662500
 20
-1.010000
  0
VERTEX
  8
gg1
 10
0.677500
 20
-1.010000
  0
SEQEND
  8
gg1
  0
POLYLINE
  8
gg1
 62
1
 40
0.000000
 41
0.000000
 66
  1
  0
VERTEX
  8
gg1
 10
0.670000
 20
-1.017500
  0
VERTEX
  8
gg1
 10
0.670000
 20
-1.002500
  0
SEQEND
  8
gg1
  0
POLYLINE
  8
gg1
 62
1
 40
0.000000
 41
0.000000
 66
  1
  0
VERTEX
  8
gg1
 10
0.172500
 20
-0.810000
  0
VERTEX
  8
gg1
 10
0.187500
 20
-0.810000
  0
SEQEND
  8
gg1
  0
POLYLINE
  8
gg1
 62
1
 40
0.000000
 41
0.000000
 66
  1
  0
VERTEX
  8
gg1
 10
0.180000
 20
-0.817500
  0
VERTEX
  8
gg1
 10
0.180000
 20
-0.802500
  0
SEQEND
  8
gg1
  0
POLYLINE
  8
gg1
 62
1
 40
0.000000
 41
0.000000
 66
  1
  0
VERTEX
  8
gg1
 10
-0.132500
 20
-0.645000
  0
VERTEX
  8
gg1
 10
-0.117500
 20
-0.645000
  0
SEQEND
  8
gg1
  0
POLYLINE
  8
gg1
 62
1
 40
0.000000
 41
0.000000
 66
  1
  0
VERTEX
  8
gg1
 10
-0.125000
 20
-0.652500
  0
VERTEX
  8
gg1
 10
-0.125000
 20
-0.637500
  0
SEQEND
  8
gg1
  0
POLYLINE
  8
gg1
 62
1
 40
0.000000
 41
0.000000
 66
  1
  0
VERTEX
  8
gg1
 10
-0.042500
 20
-0.625000
  0
VERTEX
  8
gg1
 10
-0.027500
 20
-0.625000
  0
SEQEND
  8
gg1
  0
POLYLINE
  8
gg1
 62
1
 40
0.000000
 41
0.000000
 66
  1
  0
VERTEX
  8
gg1
 10
-0.035000
 20
-0.632500
  0
VERTEX
  8
gg1
 10
-0.035000
 20
-0.617500
  0
SEQEND
  8
gg1
  0
POLYLINE
  8
gg1
 62
1
 40
0.000000
 41
0.000000
 66
  1
  0
VERTEX
  8
gg1
 10
-1.097500
 20
1.045000
  0
VERTEX
  8
gg1
 10
-1.082500
 20
1.045000
  0
SEQEND
  8
gg1
  0
POLYLINE
  8
gg1
 62
1
 40
0.000000
 41
0.000000
 66
  1
  0
VERTEX
  8
gg1
 10
-1.090000
 20
1.037500
  0
VERTEX
  8
gg1
 10
-1.090000
 20
1.052500
  0
SEQEND
  8
gg1
  0
POLYLINE
  8
gg1
 62
1
 40
0.000000
 41
0.000000
 66
  1
  0
VERTEX
  8
gg1
 10
-0.767500
 20
1.130000
  0
VERTEX
  8
gg1
 10
-0.752500
 20
1.130000
  0
SEQEND
  8
gg1
  0
POLYLINE
  8
gg1
 62
1
 40
0.000000
 41
0.000000
 66
  1
  0
VERTEX
  8
gg1
 10
-0.760000
 20
1.122500
  0
VERTEX
  8
gg1
 10
-0.760000
 20
1.137500
  0
SEQEND
  8
gg1
  0
POLYLINE
  8
gg1
 62
1
 40
0.000000
 41
0.000000
 66
  1
  0
VERTEX
  8
gg1
 10
0.872500
 20
1.350000
  0
VERTEX
  8
gg1
 10
0.887500
 20
1.350000
  0
SEQEND
  8
gg1
  0
POLYLINE
  8
gg1
 62
1
 40
0.000000
 41
0.000000
 66
  1
  0
VERTEX
  8
gg1
 10
0.880000
 20
1.342500
  0
VERTEX
  8
gg1
 10
0.880000
 20
1.357500
  0
SEQEND
  8
gg1
  0
POLYLINE
  8
gg1
 62
1
 40
0.000000
 41
0.000000
 66
  1
  0
VERTEX
  8
gg1
 10
-0.522500
 20
1.625000
  0
VERTEX
  8
gg1
 10
-0.507500
 20
1.625000
  0
SEQEND
  8
gg1
  0
POLYLINE
  8
gg1
 62
1
 40
0.000000
 41
0.000000
 66
  1
  0
VERTEX
  8
gg1
 10
-0.515000
 20
1.617500
  0
VERTEX
  8
gg1
 10
-0.515000
 20
1.632500
  0
SEQEND
  8
gg1
  0
POLYLINE
  8
gg1
 62
1
 40
0.000000
 41
0.000000
 66
  1
  0
VERTEX
  8
gg1
 10
-0.367500
 20
1.230000
  0
VERTEX
  8
gg1
 10
-0.352500
 20
1.230000
  0
SEQEND
  8
gg1
  0
POLYLINE
  8
gg1
 62
1
 40
0.000000
 41
0.000000
 66
  1
  0
VERTEX
  8
gg1
 10
-0.360000
 20
1.222500
  0
VERTEX
  8
gg1
 10
-0.360000
 20
1.237500
  0
SEQEND
  8
gg1
  0
POLYLINE
  8
gg1
 62
1
 40
0.000000
 41
0.000000
 66
  1
  0
VERTEX
  8
gg1
 10
-0.637500
 20
1.415000
  0
VERTEX
  8
gg1
 10
-0.622500
 20
1.415000
  0
SEQEND
  8
gg1
  0
POLYLINE
  8
gg1
 62
1
 40
0.000000
 41
0.000000
 66
  1
  0
VERTEX
  8
gg1
 10
-0.630000
 20
1.407500
  0
VERTEX
  8
gg1
 10
-0.630000
 20
1.422500
  0
SEQEND
  8
gg1
  0
POLYLINE
  8
gg1
 62
1
 40
0.000000
 41
0.000000
 66
  1
  0
VERTEX
  8
gg1
 10
-0.762500
 20
1.260000
  0
VERTEX
  8
gg1
 10
-0.747500
 20
1.260000
  0
SEQEND
  8
gg1
  0
POLYLINE
  8
gg1
 62
1
 40
0.000000
 41
0.000000
 66
  1
  0
VERTEX
  8
gg1
 10
-0.755000
 20
1.252500
  0
VERTEX
  8
gg1
 10
-0.755000
 20
1.267500
  0
SEQEND
  8
gg1
  0
POLYLINE
  8
gg1
 62
1
 40
0.000000
 41
0.000000
 66
  1
  0
VERTEX
  8
gg1
 10
-0.547500
 20
1.505000
  0
VERTEX
  8
gg1
 10
-0.532500
 20
1.505000
  0
SEQEND
  8
gg1
  0
POLYLINE
  8
gg1
 62
1
 40
0.000000
 41
0.000000
 66
  1
  0
VERTEX
  8
gg1
 10
-0.540000
 20
1.497500
  0
VERTEX
  8
gg1
 10
-0.540000
 20
1.512500
  0
SEQEND
  8
gg1
  0
POLYLINE
  8
gg1
 62
1
 40
0.000000
 41
0.000000
 66
  1
  0
VERTEX
  8
gg1
 10
-0.472500
 20
1.090000
  0
VERTEX
  8
gg1
 10
-0.457500
 20
1.090000
  0
SEQEND
  8
gg1
  0
POLYLINE
  8
gg1
 62
1
 40
0.000000
 41
0.000000
 66
  1
  0
VERTEX
  8
gg1
 10
-0.465000
 20
1.082500
  0
VERTEX
  8
gg1
 10
-0.465000
 20
1.097500
  0
SEQEND
  8
gg1
  0
POLYLINE
  8
gg1
 62
1
 40
0.000000
 41
0.000000
 66
  1
  0
VERTEX
  8
gg1
 10
-0.367500
 20
1.080000
  0
VERTEX
  8
gg1
 10
-0.352500
 20
1.080000
  0
SEQEND
  8
gg1
  0
POLYLINE
  8
gg1
 62
1
 40
0.000000
 41
0.000000
 66
  1
  0
VERTEX
  8
gg1
 10
-0.360000
 20
1.072500
  0
VERTEX
  8
gg1
 10
-0.360000
 20
1.087500
  0
SEQEND
  8
gg1
  0
POLYLINE
  8
gg1
 62
1
 40
0.000000
 41
0.000000
 66
  1
  0
VERTEX
  8
gg1
 10
0.492500
 20
1.455000
  0
VERTEX
  8
gg1
 10
0.507500
 20
1.455000
  0
SEQEND
  8
gg1
  0
POLYLINE
  8
gg1
 62
1
 40
0.000000
 41
0.000000
 66
  1
  0
VERTEX
  8
gg1
 10
0.500000
 20
1.447500
  0
VERTEX
  8
gg1
 10
0.500000
 20
1.462500
  0
SEQEND
  8
gg1
  0
POLYLINE
  8
gg1
 62
1
 40
0.000000
 41
0.000000
 66
  1
  0
VERTEX
  8
gg1
 10
0.527500
 20
1.085000
  0
VERTEX
  8
gg1
 10
0.542500
 20
1.085000
  0
SEQEND
  8
gg1
  0
POLYLINE
  8
gg1
 62
1
 40
0.000000
 41
0.000000
 66
  1
  0
VERTEX
  8
gg1
 10
0.535000
 20
1.077500
  0
VERTEX
  8
gg1
 10
0.535000
 20
1.092500
  0
SEQEND
  8
gg1
  0
POLYLINE
  8
gg1
 62
1
 40
0.000000
 41
0.000000
 66
  1
  0
VERTEX
  8
gg1
 10
0.215000
 20
1.340000
  0
VERTEX
  8
gg1
 10
0.230000
 20
1.340000
  0
SEQEND
  8
gg1
  0
POLYLINE
  8
gg1
 62
1
 40
0.000000
 41
0.000000
 66
  1
  0
VERTEX
  8
gg1
 10
0.222500
 20
1.332500
  0
VERTEX
  8
gg1
 10
0.222500
 20
1.347500
  0
SEQEND
  8
gg1
  0
POLYLINE
  8
gg1
 62
1
 40
0.000000
 41
0.000000
 66
  1
  0
VERTEX
  8
gg1
 10
0.215000
 20
1.400000
  0
VERTEX
  8
gg1
 10
0.230000
 20
1.400000
  0
SEQEND
  8
gg1
  0
POLYLINE
  8
gg1
 62
1
 40
0.000000
 41
0.000000
 66
  1
  0
VERTEX
  8
gg1
 10
0.222500
 20
1.392500
  0
VERTEX
  8
gg1
 10
0.222500
 20
1.407500
  0
SEQEND
  8
gg1
  0
POLYLINE
  8
gg1
 62
1
 40
0.000000
 41
0.000000
 66
  1
  0
VERTEX
  8
gg1
 10
0.042500
 20
1.300000
  0
VERTEX
  8
gg1
 10
0.057500
 20
1.300000
  0
SEQEND
  8
gg1
  0
POLYLINE
  8
gg1
 62
1
 40
0.000000
 41
0.000000
 66
  1
  0
VERTEX
  8
gg1
 10
0.050000
 20
1.292500
  0
VERTEX
  8
gg1
 10
0.050000
 20
1.307500
  0
SEQEND
  8
gg1
  0
POLYLINE
  8
gg1
 62
1
 40
0.000000
 41
0.000000
 66
  1
  0
VERTEX
  8
gg1
 10
-0.037500
 20
1.300000
  0
VERTEX
  8
gg1
 10
-0.022500
 20
1.300000
  0
SEQEND
  8
gg1
  0
POLYLINE
  8
gg1
 62
1
 40
0.000000
 41
0.000000
 66
  1
  0
VERTEX
  8
gg1
 10
-0.030000
 20
1.292500
  0
VERTEX
  8
gg1
 10
-0.030000
 20
1.307500
  0
SEQEND
  8
gg1
  0
POLYLINE
  8
gg1
 62
1
 40
0.000000
 41
0.000000
 66
  1
  0
VERTEX
  8
gg1
 10
0.277500
 20
1.450000
  0
VERTEX
  8
gg1
 10
0.292500
 20
1.450000
  0
SEQEND
  8
gg1
  0
POLYLINE
  8
gg1
 62
1
 40
0.000000
 41
0.000000
 66
  1
  0
VERTEX
  8
gg1
 10
0.285000
 20
1.442500
  0
VERTEX
  8
gg1
 10
0.285000
 20
1.457500
  0
SEQEND
  8
gg1
  0
POLYLINE
  8
gg1
 62
1
 40
0.000000
 41
0.000000
 66
  1
  0
VERTEX
  8
gg1
 10
-0.282500
 20
1.490000
  0
VERTEX
  8
gg1
 10
-0.267500
 20
1.490000
  0
SEQEND
  8
gg1
  0
POLYLINE
  8
gg1
 62
1
 40
0.000000
 41
0.000000
 66
  1
  0
VERTEX
  8
gg1
 10
-0.275000
 20
1.482500
  0
VERTEX
  8
gg1
 10
-0.275000
 20
1.497500
  0
SEQEND
  8
gg1
  0
POLYLINE
  8
gg1
 62
1
 40
0.000000
 41
0.000000
 66
  1
  0
VERTEX
  8
gg1
 10
0.202500
 20
0.610000
  0
VERTEX
  8
gg1
 10
0.217500
 20
0.610000
  0
SEQEND
  8
gg1
  0
POLYLINE
  8
gg1
 62
1
 40
0.000000
 41
0.000000
 66
  1
  0
VERTEX
  8
gg1
 10
0.210000
 20
0.602500
  0
VERTEX
  8
gg1
 10
0.210000
 20
0.617500
  0
SEQEND
  8
gg1
  0
POLYLINE
  8
gg1
 62
1
 40
0.000000
 41
0.000000
 66
  1
  0
VERTEX
  8
gg1
 10
0.162500
 20
0.605000
  0
VERTEX
  8
gg1
 10
0.177500
 20
0.605000
  0
SEQEND
  8
gg1
  0
POLYLINE
  8
gg1
 62
1
 40
0.000000
 41
0.000000
 66
  1
  0
VERTEX
  8
gg1
 10
0.170000
 20
0.597500
  0
VERTEX
  8
gg1
 10
0.170000
 20
0.612500
  0
SEQEND
  8
gg1
  0
POLYLINE
  8
gg1
 62
1
 40
0.000000
 41
0.000000
 66
  1
  0
VERTEX
  8
gg1
 10
0.732500
 20
1.005000
  0
VERTEX
  8
gg1
 10
0.747500
 20
1.005000
  0
SEQEND
  8
gg1
  0
POLYLINE
  8
gg1
 62
1
 40
0.000000
 41
0.000000
 66
  1
  0
VERTEX
  8
gg1
 10
0.740000
 20
0.997500
  0
VERTEX
  8
gg1
 10
0.740000
 20
1.012500
  0
SEQEND
  8
gg1
  0
POLYLINE
  8
gg1
 62
1
 40
0.000000
 41
0.000000
 66
  1
  0
VERTEX
  8
gg1
 10
0.702500
 20
0.865000
  0
VERTEX
  8
gg1
 10
0.717500
 20
0.865000
  0
SEQEND
  8
gg1
  0
POLYLINE
  8
gg1
 62
1
 40
0.000000
 41
0.000000
 66
  1
  0
VERTEX
  8
gg1
 10
0.710000
 20
0.857500
  0
VERTEX
  8
gg1
 10
0.710000
 20
0.872500
  0
SEQEND
  8
gg1
  0
POLYLINE
  8
gg1
 62
1
 40
0.000000
 41
0.000000
 66
  1
  0
VERTEX
  8
gg1
 10
0.637500
 20
0.965000
  0
VERTEX
  8
gg1
 10
0.652500
 20
0.965000
  0
SEQEND
  8
gg1
  0
POLYLINE
  8
gg1
 62
1
 40
0.000000
 41
0.000000
 66
  1
  0
VERTEX
  8
gg1
 10
0.645000
 20
0.957500
  0
VERTEX
  8
gg1
 10
0.645000
 20
0.972500
  0
SEQEND
  8
gg1
  0
POLYLINE
  8
gg1
 62
1
 40
0.000000
 41
0.000000
 66
  1
  0
VERTEX
  8
gg1
 10
0.672500
 20
0.945000
  0
VERTEX
  8
gg1
 10
0.687500
 20
0.945000
  0
SEQEND
  8
gg1
  0
POLYLINE
  8
gg1
 62
1
 40
0.000000
 41
0.000000
 66
  1
  0
VERTEX
  8
gg1
 10
0.680000
 20
0.937500
  0
VERTEX
  8
gg1
 10
0.680000
 20
0.952500
  0
SEQEND
  8
gg1
  0
POLYLINE
  8
gg1
 62
1
 40
0.000000
 41
0.000000
 66
  1
  0
VERTEX
  8
gg1
 10
0.607500
 20
0.885000
  0
VERTEX
  8
gg1
 10
0.622500
 20
0.885000
  0
SEQEND
  8
gg1
  0
POLYLINE
  8
gg1
 62
1
 40
0.000000
 41
0.000000
 66
  1
  0
VERTEX
  8
gg1
 10
0.615000
 20
0.877500
  0
VERTEX
  8
gg1
 10
0.615000
 20
0.892500
  0
SEQEND
  8
gg1
  0
POLYLINE
  8
gg1
 62
1
 40
0.000000
 41
0.000000
 66
  1
  0
VERTEX
  8
gg1
 10
0.082500
 20
1.435000
  0
VERTEX
  8
gg1
 10
0.097500
 20
1.435000
  0
SEQEND
  8
gg1
  0
POLYLINE
  8
gg1
 62
1
 40
0.000000
 41
0.000000
 66
  1
  0
VERTEX
  8
gg1
 10
0.090000
 20
1.427500
  0
VERTEX
  8
gg1
 10
0.090000
 20
1.442500
  0
SEQEND
  8
gg1
  0
POLYLINE
  8
gg1
 62
1
 40
0.000000
 41
0.000000
 66
  1
  0
VERTEX
  8
gg1
 10
-0.282500
 20
1.435000
  0
VERTEX
  8
gg1
 10
-0.267500
 20
1.435000
  0
SEQEND
  8
gg1
  0
POLYLINE
  8
gg1
 62
1
 40
0.000000
 41
0.000000
 66
  1
  0
VERTEX
  8
gg1
 10
-0.275000
 20
1.427500
  0
VERTEX
  8
gg1
 10
-0.275000
 20
1.442500
  0
SEQEND
  8
gg1
  0
POLYLINE
  8
gg1
 62
1
 40
0.000000
 41
0.000000
 66
  1
  0
VERTEX
  8
gg1
 10
0.762500
 20
0.580000
  0
VERTEX
  8
gg1
 10
0.777500
 20
0.580000
  0
SEQEND
  8
gg1
  0
POLYLINE
  8
gg1
 62
1
 40
0.000000
 41
0.000000
 66
  1
  0
VERTEX
  8
gg1
 10
0.770000
 20
0.572500
  0
VERTEX
  8
gg1
 10
0.770000
 20
0.587500
  0
SEQEND
  8
gg1
  0
POLYLINE
  8
gg1
 62
1
 40
0.000000
 41
0.000000
 66
  1
  0
VERTEX
  8
gg1
 10
0.862500
 20
0.600000
  0
VERTEX
  8
gg1
 10
0.877500
 20
0.600000
  0
SEQEND
  8
gg1
  0
POLYLINE
  8
gg1
 62
1
 40
0.000000
 41
0.000000
 66
  1
  0
VERTEX
  8
gg1
 10
0.870000
 20
0.592500
  0
VERTEX
  8
gg1
 10
0.870000
 20
0.607500
  0
SEQEND
  8
gg1
  0
POLYLINE
  8
gg1
 62
1
 40
0.000000
 41
0.000000
 66
  1
  0
VERTEX
  8
gg1
 10
0.562500
 20
0.555000
  0
VERTEX
  8
gg1
 10
0.577500
 20
0.555000
  0
SEQEND
  8
gg1
  0
POLYLINE
  8
gg1
 62
1
 40
0.000000
 41
0.000000
 66
  1
  0
VERTEX
  8
gg1
 10
0.570000
 20
0.547500
  0
VERTEX
  8
gg1
 10
0.570000
 20
0.562500
  0
SEQEND
  8
gg1
  0
POLYLINE
  8
gg1
 62
1
 40
0.000000
 41
0.000000
 66
  1
  0
VERTEX
  8
gg1
 10
0.607500
 20
0.555000
  0
VERTEX
  8
gg1
 10
0.622500
 20
0.555000
  0
SEQEND
  8
gg1
  0
POLYLINE
  8
gg1
 62
1
 40
0.000000
 41
0.000000
 66
  1
  0
VERTEX
  8
gg1
 10
0.615000
 20
0.547500
  0
VERTEX
  8
gg1
 10
0.615000
 20
0.562500
  0
SEQEND
  8
gg1
  0
POLYLINE
  8
gg1
 62
1
 40
0.000000
 41
0.000000
 66
  1
  0
VERTEX
  8
gg1
 10
0.712500
 20
0.505000
  0
VERTEX
  8
gg1
 10
0.727500
 20
0.505000
  0
SEQEND
  8
gg1
  0
POLYLINE
  8
gg1
 62
1
 40
0.000000
 41
0.000000
 66
  1
  0
VERTEX
  8
gg1
 10
0.720000
 20
0.497500
  0
VERTEX
  8
gg1
 10
0.720000
 20
0.512500
  0
SEQEND
  8
gg1
  0
POLYLINE
  8
gg1
 62
1
 40
0.000000
 41
0.000000
 66
  1
  0
VERTEX
  8
gg1
 10
0.722500
 20
0.465000
  0
VERTEX
  8
gg1
 10
0.737500
 20
0.465000
  0
SEQEND
  8
gg1
  0
POLYLINE
  8
gg1
 62
1
 40
0.000000
 41
0.000000
 66
  1
  0
VERTEX
  8
gg1
 10
0.730000
 20
0.457500
  0
VERTEX
  8
gg1
 10
0.730000
 20
0.472500
  0
SEQEND
  8
gg1
  0
POLYLINE
  8
gg1
 62
1
 40
0.000000
 41
0.000000
 66
  1
  0
VERTEX
  8
gg1
 10
0.382500
 20
0.465000
  0
VERTEX
  8
gg1
 10
0.397500
 20
0.465000
  0
SEQEND
  8
gg1
  0
POLYLINE
  8
gg1
 62
1
 40
0.000000
 41
0.000000
 66
  1
  0
VERTEX
  8
gg1
 10
0.390000
 20
0.457500
  0
VERTEX
  8
gg1
 10
0.390000
 20
0.472500
  0
SEQEND
  8
gg1
  0
POLYLINE
  8
gg1
 62
1
 40
0.000000
 41
0.000000
 66
  1
  0
VERTEX
  8
gg1
 10
0.352500
 20
0.495000
  0
VERTEX
  8
gg1
 10
0.367500
 20
0.495000
  0
SEQEND
  8
gg1
  0
POLYLINE
  8
gg1
 62
1
 40
0.000000
 41
0.000000
 66
  1
  0
VERTEX
  8
gg1
 10
0.360000
 20
0.487500
  0
VERTEX
  8
gg1
 10
0.360000
 20
0.502500
  0
SEQEND
  8
gg1
  0
POLYLINE
  8
gg1
 62
1
 40
0.000000
 41
0.000000
 66
  1
  0
VERTEX
  8
gg1
 10
-0.637500
 20
-1.210000
  0
VERTEX
  8
gg1
 10
-0.622500
 20
-1.210000
  0
SEQEND
  8
gg1
  0
POLYLINE
  8
gg1
 62
1
 40
0.000000
 41
0.000000
 66
  1
  0
VERTEX
  8
gg1
 10
-0.630000
 20
-1.217500
  0
VERTEX
  8
gg1
 10
-0.630000
 20
-1.202500
  0
SEQEND
  8
gg1
  0
POLYLINE
  8
gg1
 62
1
 40
0.000000
 41
0.000000
 66
  1
  0
VERTEX
  8
gg1
 10
0.217500
 20
-0.810000
  0
VERTEX
  8
gg1
 10
0.232500
 20
-0.810000
  0
SEQEND
  8
gg1
  0
POLYLINE
  8
gg1
 62
1
 40
0.000000
 41
0.000000
 66
  1
  0
VERTEX
  8
gg1
 10
0.225000
 20
-0.817500
  0
VERTEX
  8
gg1
 10
0.225000
 20
-0.802500
  0
SEQEND
  8
gg1
  0
POLYLINE
  8
gg1
 62
1
 40
0.000000
 41
0.000000
 66
  1
  0
VERTEX
  8
gg1
 10
0.752500
 20
0.320000
  0
VERTEX
  8
gg1
 10
0.767500
 20
0.320000
  0
SEQEND
  8
gg1
  0
POLYLINE
  8
gg1
 62
1
 40
0.000000
 41
0.000000
 66
  1
  0
VERTEX
  8
gg1
 10
0.760000
 20
0.312500
  0
VERTEX
  8
gg1
 10
0.760000
 20
0.327500
  0
SEQEND
  8
gg1
  0
POLYLINE
  8
gg1
 62
1
 40
0.000000
 41
0.000000
 66
  1
  0
VERTEX
  8
gg1
 10
0.417500
 20
0.335000
  0
VERTEX
  8
gg1
 10
0.432500
 20
0.335000
  0
SEQEND
  8
gg1
  0
POLYLINE
  8
gg1
 62
1
 40
0.000000
 41
0.000000
 66
  1
  0
VERTEX
  8
gg1
 10
0.425000
 20
0.327500
  0
VERTEX
  8
gg1
 10
0.425000
 20
0.342500
  0
SEQEND
  8
gg1
  0
POLYLINE
  8
gg1
 62
1
 40
0.000000
 41
0.000000
 66
  1
  0
VERTEX
  8
gg1
 10
0.582500
 20
0.335000
  0
VERTEX
  8
gg1
 10
0.597500
 20
0.335000
  0
SEQEND
  8
gg1
  0
POLYLINE
  8
gg1
 62
1
 40
0.000000
 41
0.000000
 66
  1
  0
VERTEX
  8
gg1
 10
0.590000
 20
0.327500
  0
VERTEX
  8
gg1
 10
0.590000
 20
0.342500
  0
SEQEND
  8
gg1
  0
POLYLINE
  8
gg1
 62
1
 40
0.000000
 41
0.000000
 66
  1
  0
VERTEX
  8
gg1
 10
0.547500
 20
0.315000
  0
VERTEX
  8
gg1
 10
0.562500
 20
0.315000
  0
SEQEND
  8
gg1
  0
POLYLINE
  8
gg1
 62
1
 40
0.000000
 41
0.000000
 66
  1
  0
VERTEX
  8
gg1
 10
0.555000
 20
0.307500
  0
VERTEX
  8
gg1
 10
0.555000
 20
0.322500
  0
SEQEND
  8
gg1
  0
POLYLINE
  8
gg1
 62
1
 40
0.000000
 41
0.000000
 66
  1
  0
VERTEX
  8
gg1
 10
0.292500
 20
1.520000
  0
VERTEX
  8
gg1
 10
0.307500
 20
1.520000
  0
SEQEND
  8
gg1
  0
POLYLINE
  8
gg1
 62
1
 40
0.000000
 41
0.000000
 66
  1
  0
VERTEX
  8
gg1
 10
0.300000
 20
1.512500
  0
VERTEX
  8
gg1
 10
0.300000
 20
1.527500
  0
SEQEND
  8
gg1
  0
POLYLINE
  8
gg1
 62
1
 40
0.000000
 41
0.000000
 66
  1
  0
VERTEX
  8
gg1
 10
-0.367500
 20
-0.125000
  0
VERTEX
  8
gg1
 10
-0.352500
 20
-0.125000
  0
SEQEND
  8
gg1
  0
POLYLINE
  8
gg1
 62
1
 40
0.000000
 41
0.000000
 66
  1
  0
VERTEX
  8
gg1
 10
-0.360000
 20
-0.132500
  0
VERTEX
  8
gg1
 10
-0.360000
 20
-0.117500
  0
SEQEND
  8
gg1
  0
POLYLINE
  8
gg1
 62
1
 40
0.000000
 41
0.000000
 66
  1
  0
VERTEX
  8
gg1
 10
0.402500
 20
0.035000
  0
VERTEX
  8
gg1
 10
0.417500
 20
0.035000
  0
SEQEND
  8
gg1
  0
POLYLINE
  8
gg1
 62
1
 40
0.000000
 41
0.000000
 66
  1
  0
VERTEX
  8
gg1
 10
0.410000
 20
0.027500
  0
VERTEX
  8
gg1
 10
0.410000
 20
0.042500
  0
SEQEND
  8
gg1
  0
POLYLINE
  8
gg1
 62
1
 40
0.000000
 41
0.000000
 66
  1
  0
VERTEX
  8
gg1
 10
0.377500
 20
0.010000
  0
VERTEX
  8
gg1
 10
0.392500
 20
0.010000
  0
SEQEND
  8
gg1
  0
POLYLINE
  8
gg1
 62
1
 40
0.000000
 41
0.000000
 66
  1
  0
VERTEX
  8
gg1
 10
0.385000
 20
0.002500
  0
VERTEX
  8
gg1
 10
0.385000
 20
0.017500
  0
SEQEND
  8
gg1
  0
POLYLINE
  8
gg1
 62
1
 40
0.000000
 41
0.000000
 66
  1
  0
VERTEX
  8
gg1
 10
0.877500
 20
0.065000
  0
VERTEX
  8
gg1
 10
0.892500
 20
0.065000
  0
SEQEND
  8
gg1
  0
POLYLINE
  8
gg1
 62
1
 40
0.000000
 41
0.000000
 66
  1
  0
VERTEX
  8
gg1
 10
0.885000
 20
0.057500
  0
VERTEX
  8
gg1
 10
0.885000
 20
0.072500
  0
SEQEND
  8
gg1
  0
POLYLINE
  8
gg1
 62
1
 40
0.000000
 41
0.000000
 66
  1
  0
VERTEX
  8
gg1
 10
0.842500
 20
-0.430000
  0
VERTEX
  8
gg1
 10
0.857500
 20
-0.430000
  0
SEQEND
  8
gg1
  0
POLYLINE
  8
gg1
 62
1
 40
0.000000
 41
0.000000
 66
  1
  0
VERTEX
  8
gg1
 10
0.850000
 20
-0.437500
  0
VERTEX
  8
gg1
 10
0.850000
 20
-0.422500
  0
SEQEND
  8
gg1
  0
POLYLINE
  8
gg1
 62
1
 40
0.000000
 41
0.000000
 66
  1
  0
VERTEX
  8
gg1
 10
0.762500
 20
0.360000
  0
VERTEX
  8
gg1
 10
0.777500
 20
0.360000
  0
SEQEND
  8
gg1
  0
POLYLINE
  8
gg1
 62
1
 40
0.000000
 41
0.000000
 66
  1
  0
VERTEX
  8
gg1
 10
0.770000
 20
0.352500
  0
VERTEX
  8
gg1
 10
0.770000
 20
0.367500
  0
SEQEND
  8
gg1
  0
POLYLINE
  8
gg1
 62
1
 40
0.000000
 41
0.000000
 66
  1
  0
VERTEX
  8
gg1
 10
0.287500
 20
-0.390000
  0
VERTEX
  8
gg1
 10
0.302500
 20
-0.390000
  0
SEQEND
  8
gg1
  0
POLYLINE
  8
gg1
 62
1
 40
0.000000
 41
0.000000
 66
  1
  0
VERTEX
  8
gg1
 10
0.295000
 20
-0.397500
  0
VERTEX
  8
gg1
 10
0.295000
 20
-0.382500
  0
SEQEND
  8
gg1
  0
POLYLINE
  8
gg1
 62
1
 40
0.000000
 41
0.000000
 66
  1
  0
VERTEX
  8
gg1
 10
0.292500
 20
-0.295000
  0
VERTEX
  8
gg1
 10
0.307500
 20
-0.295000
  0
SEQEND
  8
gg1
  0
POLYLINE
  8
gg1
 62
1
 40
0.000000
 41
0.000000
 66
  1
  0
VERTEX
  8
gg1
 10
0.300000
 20
-0.302500
  0
VERTEX
  8
gg1
 10
0.300000
 20
-0.287500
  0
SEQEND
  8
gg1
  0
POLYLINE
  8
gg1
 62
1
 40
0.000000
 41
0.000000
 66
  1
  0
VERTEX
  8
gg1
 10
0.207500
 20
-0.420000
  0
VERTEX
  8
gg1
 10
0.222500
 20
-0.420000
  0
SEQEND
  8
gg1
  0
POLYLINE
  8
gg1
 62
1
 40
0.000000
 41
0.000000
 66
  1
  0
VERTEX
  8
gg1
 10
0.215000
 20
-0.427500
  0
VERTEX
  8
gg1
 10
0.215000
 20
-0.412500
  0
SEQEND
  8
gg1
  0
POLYLINE
  8
gg1
 62
1
 40
0.000000
 41
0.000000
 66
  1
  0
VERTEX
  8
gg1
 10
0.402500
 20
-0.195000
  0
VERTEX
  8
gg1
 10
0.417500
 20
-0.195000
  0
SEQEND
  8
gg1
  0
POLYLINE
  8
gg1
 62
1
 40
0.000000
 41
0.000000
 66
  1
  0
VERTEX
  8
gg1
 10
0.410000
 20
-0.202500
  0
VERTEX
  8
gg1
 10
0.410000
 20
-0.187500
  0
SEQEND
  8
gg1
  0
POLYLINE
  8
gg1
 62
1
 40
0.000000
 41
0.000000
 66
  1
  0
VERTEX
  8
gg1
 10
0.342500
 20
-0.335000
  0
VERTEX
  8
gg1
 10
0.357500
 20
-0.335000
  0
SEQEND
  8
gg1
  0
POLYLINE
  8
gg1
 62
1
 40
0.000000
 41
0.000000
 66
  1
  0
VERTEX
  8
gg1
 10
0.350000
 20
-0.342500
  0
VERTEX
  8
gg1
 10
0.350000
 20
-0.327500
  0
SEQEND
  8
gg1
  0
POLYLINE
  8
gg1
 62
1
 40
0.000000
 41
0.000000
 66
  1
  0
VERTEX
  8
gg1
 10
0.242500
 20
-1.405000
  0
VERTEX
  8
gg1
 10
0.257500
 20
-1.405000
  0
SEQEND
  8
gg1
  0
POLYLINE
  8
gg1
 62
1
 40
0.000000
 41
0.000000
 66
  1
  0
VERTEX
  8
gg1
 10
0.250000
 20
-1.412500
  0
VERTEX
  8
gg1
 10
0.250000
 20
-1.397500
  0
SEQEND
  8
gg1
  0
POLYLINE
  8
gg1
 62
1
 40
0.000000
 41
0.000000
 66
  1
  0
VERTEX
  8
gg1
 10
0.547500
 20
-0.380000
  0
VERTEX
  8
gg1
 10
0.562500
 20
-0.380000
  0
SEQEND
  8
gg1
  0
POLYLINE
  8
gg1
 62
1
 40
0.000000
 41
0.000000
 66
  1
  0
VERTEX
  8
gg1
 10
0.555000
 20
-0.387500
  0
VERTEX
  8
gg1
 10
0.555000
 20
-0.372500
  0
SEQEND
  8
gg1
  0
POLYLINE
  8
gg1
 62
1
 40
0.000000
 41
0.000000
 66
  1
  0
VERTEX
  8
gg1
 10
0.117500
 20
-0.560000
  0
VERTEX
  8
gg1
 10
0.132500
 20
-0.560000
  0
SEQEND
  8
gg1
  0
POLYLINE
  8
gg1
 62
1
 40
0.000000
 41
0.000000
 66
  1
  0
VERTEX
  8
gg1
 10
0.125000
 20
-0.567500
  0
VERTEX
  8
gg1
 10
0.125000
 20
-0.552500
  0
SEQEND
  8
gg1
  0
POLYLINE
  8
gg1
 62
1
 40
0.000000
 41
0.000000
 66
  1
  0
VERTEX
  8
gg1
 10
0.187500
 20
-0.455000
  0
VERTEX
  8
gg1
 10
0.202500
 20
-0.455000
  0
SEQEND
  8
gg1
  0
POLYLINE
  8
gg1
 62
1
 40
0.000000
 41
0.000000
 66
  1
  0
VERTEX
  8
gg1
 10
0.195000
 20
-0.462500
  0
VERTEX
  8
gg1
 10
0.195000
 20
-0.447500
  0
SEQEND
  8
gg1
  0
POLYLINE
  8
gg1
 62
1
 40
0.000000
 41
0.000000
 66
  1
  0
VERTEX
  8
gg1
 10
0.122500
 20
-0.505000
  0
VERTEX
  8
gg1
 10
0.137500
 20
-0.505000
  0
SEQEND
  8
gg1
  0
POLYLINE
  8
gg1
 62
1
 40
0.000000
 41
0.000000
 66
  1
  0
VERTEX
  8
gg1
 10
0.130000
 20
-0.512500
  0
VERTEX
  8
gg1
 10
0.130000
 20
-0.497500
  0
SEQEND
  8
gg1
  0
POLYLINE
  8
gg1
 62
1
 40
0.000000
 41
0.000000
 66
  1
  0
VERTEX
  8
gg1
 10
0.417500
 20
-0.610000
  0
VERTEX
  8
gg1
 10
0.432500
 20
-0.610000
  0
SEQEND
  8
gg1
  0
POLYLINE
  8
gg1
 62
1
 40
0.000000
 41
0.000000
 66
  1
  0
VERTEX
  8
gg1
 10
0.425000
 20
-0.617500
  0
VERTEX
  8
gg1
 10
0.425000
 20
-0.602500
  0
SEQEND
  8
gg1
  0
POLYLINE
  8
gg1
 62
1
 40
0.000000
 41
0.000000
 66
  1
  0
VERTEX
  8
gg1
 10
0.337500
 20
-0.610000
  0
VERTEX
  8
gg1
 10
0.352500
 20
-0.610000
  0
SEQEND
  8
gg1
  0
POLYLINE
  8
gg1
 62
1
 40
0.000000
 41
0.000000
 66
  1
  0
VERTEX
  8
gg1
 10
0.345000
 20
-0.617500
  0
VERTEX
  8
gg1
 10
0.345000
 20
-0.602500
  0
SEQEND
  8
gg1
  0
POLYLINE
  8
gg1
 62
1
 40
0.000000
 41
0.000000
 66
  1
  0
VERTEX
  8
gg1
 10
0.337500
 20
-0.450000
  0
VERTEX
  8
gg1
 10
0.352500
 20
-0.450000
  0
SEQEND
  8
gg1
  0
POLYLINE
  8
gg1
 62
1
 40
0.000000
 41
0.000000
 66
  1
  0
VERTEX
  8
gg1
 10
0.345000
 20
-0.457500
  0
VERTEX
  8
gg1
 10
0.345000
 20
-0.442500
  0
SEQEND
  8
gg1
  0
POLYLINE
  8
gg1
 62
1
 40
0.000000
 41
0.000000
 66
  1
  0
VERTEX
  8
gg1
 10
0.602500
 20
-0.720000
  0
VERTEX
  8
gg1
 10
0.617500
 20
-0.720000
  0
SEQEND
  8
gg1
  0
POLYLINE
  8
gg1
 62
1
 40
0.000000
 41
0.000000
 66
  1
  0
VERTEX
  8
gg1
 10
0.610000
 20
-0.727500
  0
VERTEX
  8
gg1
 10
0.610000
 20
-0.712500
  0
SEQEND
  8
gg1
  0
POLYLINE
  8
gg1
 62
1
 40
0.000000
 41
0.000000
 66
  1
  0
VERTEX
  8
gg1
 10
0.147500
 20
-0.535000
  0
VERTEX
  8
gg1
 10
0.162500
 20
-0.535000
  0
SEQEND
  8
gg1
  0
POLYLINE
  8
gg1
 62
1
 40
0.000000
 41
0.000000
 66
  1
  0
VERTEX
  8
gg1
 10
0.155000
 20
-0.542500
  0
VERTEX
  8
gg1
 10
0.155000
 20
-0.527500
  0
SEQEND
  8
gg1
  0
POLYLINE
  8
gg1
 62
1
 40
0.000000
 41
0.000000
 66
  1
  0
VERTEX
  8
gg1
 10
0.152500
 20
-0.475000
  0
VERTEX
  8
gg1
 10
0.167500
 20
-0.475000
  0
SEQEND
  8
gg1
  0
POLYLINE
  8
gg1
 62
1
 40
0.000000
 41
0.000000
 66
  1
  0
VERTEX
  8
gg1
 10
0.160000
 20
-0.482500
  0
VERTEX
  8
gg1
 10
0.160000
 20
-0.467500
  0
SEQEND
  8
gg1
  0
POLYLINE
  8
gg1
 62
1
 40
0.000000
 41
0.000000
 66
  1
  0
VERTEX
  8
gg1
 10
0.227500
 20
-0.460000
  0
VERTEX
  8
gg1
 10
0.242500
 20
-0.460000
  0
SEQEND
  8
gg1
  0
POLYLINE
  8
gg1
 62
1
 40
0.000000
 41
0.000000
 66
  1
  0
VERTEX
  8
gg1
 10
0.235000
 20
-0.467500
  0
VERTEX
  8
gg1
 10
0.235000
 20
-0.452500
  0
SEQEND
  8
gg1
  0
POLYLINE
  8
gg1
 62
1
 40
0.000000
 41
0.000000
 66
  1
  0
VERTEX
  8
gg1
 10
0.542500
 20
1.505000
  0
VERTEX
  8
gg1
 10
0.557500
 20
1.505000
  0
SEQEND
  8
gg1
  0
POLYLINE
  8
gg1
 62
1
 40
0.000000
 41
0.000000
 66
  1
  0
VERTEX
  8
gg1
 10
0.550000
 20
1.497500
  0
VERTEX
  8
gg1
 10
0.550000
 20
1.512500
  0
SEQEND
  8
gg1
  0
POLYLINE
  8
gg1
 62
1
 40
0.000000
 41
0.000000
 66
  1
  0
VERTEX
  8
gg1
 10
0.497500
 20
1.600000
  0
VERTEX
  8
gg1
 10
0.512500
 20
1.600000
  0
SEQEND
  8
gg1
  0
POLYLINE
  8
gg1
 62
1
 40
0.000000
 41
0.000000
 66
  1
  0
VERTEX
  8
gg1
 10
0.505000
 20
1.592500
  0
VERTEX
  8
gg1
 10
0.505000
 20
1.607500
  0
SEQEND
  8
gg1
  0
POLYLINE
  8
gg1
 62
1
 40
0.000000
 41
0.000000
 66
  1
  0
VERTEX
  8
gg1
 10
1.220800
 20
1.210000
  0
VERTEX
  8
gg1
 10
1.235800
 20
1.210000
  0
SEQEND
  8
gg1
  0
POLYLINE
  8
gg1
 62
1
 40
0.000000
 41
0.000000
 66
  1
  0
VERTEX
  8
gg1
 10
1.228300
 20
1.202500
  0
VERTEX
  8
gg1
 10
1.228300
 20
1.217500
  0
SEQEND
  8
gg1
  0
POLYLINE
  8
gg1
 62
1
 40
0.000000
 41
0.000000
 66
  1
  0
VERTEX
  8
gg1
 10
0.339000
 20
1.682000
  0
VERTEX
  8
gg1
 10
0.354000
 20
1.682000
  0
SEQEND
  8
gg1
  0
POLYLINE
  8
gg1
 62
1
 40
0.000000
 41
0.000000
 66
  1
  0
VERTEX
  8
gg1
 10
0.346500
 20
1.674500
  0
VERTEX
  8
gg1
 10
0.346500
 20
1.689500
  0
SEQEND
  8
gg1
  0
POLYLINE
  8
gg1
 62
1
 40
0.000000
 41
0.000000
 66
  1
  0
VERTEX
  8
gg1
 10
-0.354000
 20
1.682000
  0
VERTEX
  8
gg1
 10
-0.339000
 20
1.682000
  0
SEQEND
  8
gg1
  0
POLYLINE
  8
gg1
 62
1
 40
0.000000
 41
0.000000
 66
  1
  0
VERTEX
  8
gg1
 10
-0.346500
 20
1.674500
  0
VERTEX
  8
gg1
 10
-0.346500
 20
1.689500
  0
SEQEND
  8
gg1
  0
POLYLINE
  8
gg1
 62
1
 40
0.000000
 41
0.000000
 66
  1
  0
VERTEX
  8
gg1
 10
-0.627500
 20
0.315000
  0
VERTEX
  8
gg1
 10
-0.612500
 20
0.315000
  0
SEQEND
  8
gg1
  0
POLYLINE
  8
gg1
 62
1
 40
0.000000
 41
0.000000
 66
  1
  0
VERTEX
  8
gg1
 10
-0.620000
 20
0.307500
  0
VERTEX
  8
gg1
 10
-0.620000
 20
0.322500
  0
SEQEND
  8
gg1
  0
POLYLINE
  8
gg1
 62
1
 40
0.000000
 41
0.000000
 66
  1
  0
VERTEX
  8
gg1
 10
0.357500
 20
-0.190000
  0
VERTEX
  8
gg1
 10
0.372500
 20
-0.190000
  0
SEQEND
  8
gg1
  0
POLYLINE
  8
gg1
 62
1
 40
0.000000
 41
0.000000
 66
  1
  0
VERTEX
  8
gg1
 10
0.365000
 20
-0.197500
  0
VERTEX
  8
gg1
 10
0.365000
 20
-0.182500
  0
SEQEND
  8
gg1
  0
POLYLINE
  8
gg1
 62
1
 40
0.000000
 41
0.000000
 66
  1
  0
VERTEX
  8
gg1
 10
-0.402500
 20
-0.175000
  0
VERTEX
  8
gg1
 10
-0.387500
 20
-0.175000
  0
SEQEND
  8
gg1
  0
POLYLINE
  8
gg1
 62
1
 40
0.000000
 41
0.000000
 66
  1
  0
VERTEX
  8
gg1
 10
-0.395000
 20
-0.182500
  0
VERTEX
  8
gg1
 10
-0.395000
 20
-0.167500
  0
SEQEND
  8
gg1
  0
POLYLINE
  8
gg1
 62
1
 40
0.000000
 41
0.000000
 66
  1
  0
VERTEX
  8
gg1
 10
0.102500
 20
-0.605000
  0
VERTEX
  8
gg1
 10
0.117500
 20
-0.605000
  0
SEQEND
  8
gg1
  0
POLYLINE
  8
gg1
 62
1
 40
0.000000
 41
0.000000
 66
  1
  0
VERTEX
  8
gg1
 10
0.110000
 20
-0.612500
  0
VERTEX
  8
gg1
 10
0.110000
 20
-0.597500
  0
SEQEND
  8
gg1
  0
POLYLINE
  8
gg1
 62
1
 40
0.000000
 41
0.000000
 66
  1
  0
VERTEX
  8
gg1
 10
0.502500
 20
-0.750000
  0
VERTEX
  8
gg1
 10
0.517500
 20
-0.750000
  0
SEQEND
  8
gg1
  0
POLYLINE
  8
gg1
 62
1
 40
0.000000
 41
0.000000
 66
  1
  0
VERTEX
  8
gg1
 10
0.510000
 20
-0.757500
  0
VERTEX
  8
gg1
 10
0.510000
 20
-0.742500
  0
SEQEND
  8
gg1
  0
POLYLINE
  8
gg1
 62
1
 40
0.000000
 41
0.000000
 66
  1
  0
VERTEX
  8
gg1
 10
0.562500
 20
-0.720000
  0
VERTEX
  8
gg1
 10
0.577500
 20
-0.720000
  0
SEQEND
  8
gg1
  0
POLYLINE
  8
gg1
 62
1
 40
0.000000
 41
0.000000
 66
  1
  0
VERTEX
  8
gg1
 10
0.570000
 20
-0.727500
  0
VERTEX
  8
gg1
 10
0.570000
 20
-0.712500
  0
SEQEND
  8
gg1
  0
POLYLINE
  8
gg1
 62
1
 40
0.000000
 41
0.000000
 66
  1
  0
VERTEX
  8
gg1
 10
0.492500
 20
-0.790000
  0
VERTEX
  8
gg1
 10
0.507500
 20
-0.790000
  0
SEQEND
  8
gg1
  0
POLYLINE
  8
gg1
 62
1
 40
0.000000
 41
0.000000
 66
  1
  0
VERTEX
  8
gg1
 10
0.500000
 20
-0.797500
  0
VERTEX
  8
gg1
 10
0.500000
 20
-0.782500
  0
SEQEND
  8
gg1
  0
POLYLINE
  8
gg1
 62
1
 40
0.000000
 41
0.000000
 66
  1
  0
VERTEX
  8
gg1
 10
-0.312500
 20
-1.015000
  0
VERTEX
  8
gg1
 10
-0.297500
 20
-1.015000
  0
SEQEND
  8
gg1
  0
POLYLINE
  8
gg1
 62
1
 40
0.000000
 41
0.000000
 66
  1
  0
VERTEX
  8
gg1
 10
-0.305000
 20
-1.022500
  0
VERTEX
  8
gg1
 10
-0.305000
 20
-1.007500
  0
SEQEND
  8
gg1
  0
POLYLINE
  8
gg1
 62
1
 40
0.000000
 41
0.000000
 66
  1
  0
VERTEX
  8
gg1
 10
0.752500
 20
-0.675000
  0
VERTEX
  8
gg1
 10
0.767500
 20
-0.675000
  0
SEQEND
  8
gg1
  0
POLYLINE
  8
gg1
 62
1
 40
0.000000
 41
0.000000
 66
  1
  0
VERTEX
  8
gg1
 10
0.760000
 20
-0.682500
  0
VERTEX
  8
gg1
 10
0.760000
 20
-0.667500
  0
SEQEND
  8
gg1
  0
POLYLINE
  8
gg1
 62
1
 40
0.000000
 41
0.000000
 66
  1
  0
VERTEX
  8
gg1
 10
0.552500
 20
-0.660000
  0
VERTEX
  8
gg1
 10
0.567500
 20
-0.660000
  0
SEQEND
  8
gg1
  0
POLYLINE
  8
gg1
 62
1
 40
0.000000
 41
0.000000
 66
  1
  0
VERTEX
  8
gg1
 10
0.560000
 20
-0.667500
  0
VERTEX
  8
gg1
 10
0.560000
 20
-0.652500
  0
SEQEND
  8
gg1
  0
POLYLINE
  8
gg1
 62
1
 40
0.000000
 41
0.000000
 66
  1
  0
VERTEX
  8
gg1
 10
1.087500
 20
-0.800000
  0
VERTEX
  8
gg1
 10
1.102500
 20
-0.800000
  0
SEQEND
  8
gg1
  0
POLYLINE
  8
gg1
 62
1
 40
0.000000
 41
0.000000
 66
  1
  0
VERTEX
  8
gg1
 10
1.095000
 20
-0.807500
  0
VERTEX
  8
gg1
 10
1.095000
 20
-0.792500
  0
SEQEND
  8
gg1
  0
POLYLINE
  8
gg1
 62
1
 40
0.000000
 41
0.000000
 66
  1
  0
VERTEX
  8
gg1
 10
-0.272500
 20
-0.205000
  0
VERTEX
  8
gg1
 10
-0.257500
 20
-0.205000
  0
SEQEND
  8
gg1
  0
POLYLINE
  8
gg1
 62
1
 40
0.000000
 41
0.000000
 66
  1
  0
VERTEX
  8
gg1
 10
-0.265000
 20
-0.212500
  0
VERTEX
  8
gg1
 10
-0.265000
 20
-0.197500
  0
SEQEND
  8
gg1
  0
POLYLINE
  8
gg1
 62
1
 40
0.000000
 41
0.000000
 66
  1
  0
VERTEX
  8
gg1
 10
0.277500
 20
-0.050000
  0
VERTEX
  8
gg1
 10
0.292500
 20
-0.050000
  0
SEQEND
  8
gg1
  0
POLYLINE
  8
gg1
 62
1
 40
0.000000
 41
0.000000
 66
  1
  0
VERTEX
  8
gg1
 10
0.285000
 20
-0.057500
  0
VERTEX
  8
gg1
 10
0.285000
 20
-0.042500
  0
SEQEND
  8
gg1
  0
POLYLINE
  8
gg1
 62
1
 40
0.000000
 41
0.000000
 66
  1
  0
VERTEX
  8
gg1
 10
-0.392500
 20
-0.965000
  0
VERTEX
  8
gg1
 10
-0.377500
 20
-0.965000
  0
SEQEND
  8
gg1
  0
POLYLINE
  8
gg1
 62
1
 40
0.000000
 41
0.000000
 66
  1
  0
VERTEX
  8
gg1
 10
-0.385000
 20
-0.972500
  0
VERTEX
  8
gg1
 10
-0.385000
 20
-0.957500
  0
SEQEND
  8
gg1
  0
POLYLINE
  8
gg1
 62
1
 40
0.000000
 41
0.000000
 66
  1
  0
VERTEX
  8
gg1
 10
0.632500
 20
-0.620000
  0
VERTEX
  8
gg1
 10
0.647500
 20
-0.620000
  0
SEQEND
  8
gg1
  0
POLYLINE
  8
gg1
 62
1
 40
0.000000
 41
0.000000
 66
  1
  0
VERTEX
  8
gg1
 10
0.640000
 20
-0.627500
  0
VERTEX
  8
gg1
 10
0.640000
 20
-0.612500
  0
SEQEND
  8
gg1
  0
POLYLINE
  8
gg1
 62
1
 40
0.000000
 41
0.000000
 66
  1
  0
VERTEX
  8
gg1
 10
0.647500
 20
-0.545000
  0
VERTEX
  8
gg1
 10
0.662500
 20
-0.545000
  0
SEQEND
  8
gg1
  0
POLYLINE
  8
gg1
 62
1
 40
0.000000
 41
0.000000
 66
  1
  0
VERTEX
  8
gg1
 10
0.655000
 20
-0.552500
  0
VERTEX
  8
gg1
 10
0.655000
 20
-0.537500
  0
SEQEND
  8
gg1
  0
POLYLINE
  8
gg1
 62
1
 40
0.000000
 41
0.000000
 66
  1
  0
VERTEX
  8
gg1
 10
-0.777500
 20
-1.380000
  0
VERTEX
  8
gg1
 10
-0.762500
 20
-1.380000
  0
SEQEND
  8
gg1
  0
POLYLINE
  8
gg1
 62
1
 40
0.000000
 41
0.000000
 66
  1
  0
VERTEX
  8
gg1
 10
-0.770000
 20
-1.387500
  0
VERTEX
  8
gg1
 10
-0.770000
 20
-1.372500
  0
SEQEND
  8
gg1
  0
POLYLINE
  8
gg1
 62
1
 40
0.000000
 41
0.000000
 66
  1
  0
VERTEX
  8
gg1
 10
-0.687500
 20
-1.380000
  0
VERTEX
  8
gg1
 10
-0.672500
 20
-1.380000
  0
SEQEND
  8
gg1
  0
POLYLINE
  8
gg1
 62
1
 40
0.000000
 41
0.000000
 66
  1
  0
VERTEX
  8
gg1
 10
-0.680000
 20
-1.387500
  0
VERTEX
  8
gg1
 10
-0.680000
 20
-1.372500
  0
SEQEND
  8
gg1
  0
POLYLINE
  8
gg1
 62
1
 40
0.000000
 41
0.000000
 66
  1
  0
VERTEX
  8
gg1
 10
-0.457500
 20
-1.545000
  0
VERTEX
  8
gg1
 10
-0.442500
 20
-1.545000
  0
SEQEND
  8
gg1
  0
POLYLINE
  8
gg1
 62
1
 40
0.000000
 41
0.000000
 66
  1
  0
VERTEX
  8
gg1
 10
-0.450000
 20
-1.552500
  0
VERTEX
  8
gg1
 10
-0.450000
 20
-1.537500
  0
SEQEND
  8
gg1
  0
POLYLINE
  8
gg1
 62
1
 40
0.000000
 41
0.000000
 66
  1
  0
VERTEX
  8
gg1
 10
-0.457500
 20
-1.455000
  0
VERTEX
  8
gg1
 10
-0.442500
 20
-1.455000
  0
SEQEND
  8
gg1
  0
POLYLINE
  8
gg1
 62
1
 40
0.000000
 41
0.000000
 66
  1
  0
VERTEX
  8
gg1
 10
-0.450000
 20
-1.462500
  0
VERTEX
  8
gg1
 10
-0.450000
 20
-1.447500
  0
SEQEND
  8
gg1
  0
POLYLINE
  8
gg1
 62
1
 40
0.000000
 41
0.000000
 66
  1
  0
VERTEX
  8
gg1
 10
-0.517500
 20
-1.515000
  0
VERTEX
  8
gg1
 10
-0.502500
 20
-1.515000
  0
SEQEND
  8
gg1
  0
POLYLINE
  8
gg1
 62
1
 40
0.000000
 41
0.000000
 66
  1
  0
VERTEX
  8
gg1
 10
-0.510000
 20
-1.522500
  0
VERTEX
  8
gg1
 10
-0.510000
 20
-1.507500
  0
SEQEND
  8
gg1
  0
POLYLINE
  8
gg1
 62
1
 40
0.000000
 41
0.000000
 66
  1
  0
VERTEX
  8
gg1
 10
-0.517500
 20
-1.485000
  0
VERTEX
  8
gg1
 10
-0.502500
 20
-1.485000
  0
SEQEND
  8
gg1
  0
POLYLINE
  8
gg1
 62
1
 40
0.000000
 41
0.000000
 66
  1
  0
VERTEX
  8
gg1
 10
-0.510000
 20
-1.492500
  0
VERTEX
  8
gg1
 10
-0.510000
 20
-1.477500
  0
SEQEND
  8
gg1
  0
POLYLINE
  8
gg1
 62
1
 40
0.000000
 41
0.000000
 66
  1
  0
VERTEX
  8
gg1
 10
-0.487500
 20
-1.515000
  0
VERTEX
  8
gg1
 10
-0.472500
 20
-1.515000
  0
SEQEND
  8
gg1
  0
POLYLINE
  8
gg1
 62
1
 40
0.000000
 41
0.000000
 66
  1
  0
VERTEX
  8
gg1
 10
-0.480000
 20
-1.522500
  0
VERTEX
  8
gg1
 10
-0.480000
 20
-1.507500
  0
SEQEND
  8
gg1
  0
POLYLINE
  8
gg1
 62
1
 40
0.000000
 41
0.000000
 66
  1
  0
VERTEX
  8
gg1
 10
-0.487500
 20
-1.485000
  0
VERTEX
  8
gg1
 10
-0.472500
 20
-1.485000
  0
SEQEND
  8
gg1
  0
POLYLINE
  8
gg1
 62
1
 40
0.000000
 41
0.000000
 66
  1
  0
VERTEX
  8
gg1
 10
-0.480000
 20
-1.492500
  0
VERTEX
  8
gg1
 10
-0.480000
 20
-1.477500
  0
SEQEND
  8
gg1
  0
POLYLINE
  8
gg1
 62
1
 40
0.000000
 41
0.000000
 66
  1
  0
VERTEX
  8
gg1
 10
-0.487500
 20
-0.980000
  0
VERTEX
  8
gg1
 10
-0.472500
 20
-0.980000
  0
SEQEND
  8
gg1
  0
POLYLINE
  8
gg1
 62
1
 40
0.000000
 41
0.000000
 66
  1
  0
VERTEX
  8
gg1
 10
-0.480000
 20
-0.987500
  0
VERTEX
  8
gg1
 10
-0.480000
 20
-0.972500
  0
SEQEND
  8
gg1
  0
POLYLINE
  8
gg1
 62
1
 40
0.000000
 41
0.000000
 66
  1
  0
VERTEX
  8
gg1
 10
-0.222500
 20
-0.800000
  0
VERTEX
  8
gg1
 10
-0.207500
 20
-0.800000
  0
SEQEND
  8
gg1
  0
POLYLINE
  8
gg1
 62
1
 40
0.000000
 41
0.000000
 66
  1
  0
VERTEX
  8
gg1
 10
-0.215000
 20
-0.807500
  0
VERTEX
  8
gg1
 10
-0.215000
 20
-0.792500
  0
SEQEND
  8
gg1
  0
POLYLINE
  8
gg1
 62
1
 40
0.000000
 41
0.000000
 66
  1
  0
VERTEX
  8
gg1
 10
-0.347500
 20
-0.685000
  0
VERTEX
  8
gg1
 10
-0.332500
 20
-0.685000
  0
SEQEND
  8
gg1
  0
POLYLINE
  8
gg1
 62
1
 40
0.000000
 41
0.000000
 66
  1
  0
VERTEX
  8
gg1
 10
-0.340000
 20
-0.692500
  0
VERTEX
  8
gg1
 10
-0.340000
 20
-0.677500
  0
SEQEND
  8
gg1
  0
POLYLINE
  8
gg1
 62
1
 40
0.000000
 41
0.000000
 66
  1
  0
VERTEX
  8
gg1
 10
-0.072500
 20
-0.160000
  0
VERTEX
  8
gg1
 10
-0.057500
 20
-0.160000
  0
SEQEND
  8
gg1
  0
POLYLINE
  8
gg1
 62
1
 40
0.000000
 41
0.000000
 66
  1
  0
VERTEX
  8
gg1
 10
-0.065000
 20
-0.167500
  0
VERTEX
  8
gg1
 10
-0.065000
 20
-0.152500
  0
SEQEND
  8
gg1
  0
POLYLINE
  8
gg1
 62
1
 40
0.000000
 41
0.000000
 66
  1
  0
VERTEX
  8
gg1
 10
-0.252500
 20
-0.030000
  0
VERTEX
  8
gg1
 10
-0.237500
 20
-0.030000
  0
SEQEND
  8
gg1
  0
POLYLINE
  8
gg1
 62
1
 40
0.000000
 41
0.000000
 66
  1
  0
VERTEX
  8
gg1
 10
-0.245000
 20
-0.037500
  0
VERTEX
  8
gg1
 10
-0.245000
 20
-0.022500
  0
SEQEND
  8
gg1
  0
POLYLINE
  8
gg1
 62
1
 40
0.000000
 41
0.000000
 66
  1
  0
VERTEX
  8
gg1
 10
-0.412500
 20
0.045000
  0
VERTEX
  8
gg1
 10
-0.397500
 20
0.045000
  0
SEQEND
  8
gg1
  0
POLYLINE
  8
gg1
 62
1
 40
0.000000
 41
0.000000
 66
  1
  0
VERTEX
  8
gg1
 10
-0.405000
 20
0.037500
  0
VERTEX
  8
gg1
 10
-0.405000
 20
0.052500
  0
SEQEND
  8
gg1
  0
POLYLINE
  8
gg1
 62
1
 40
0.000000
 41
0.000000
 66
  1
  0
VERTEX
  8
gg1
 10
-0.412500
 20
0.015000
  0
VERTEX
  8
gg1
 10
-0.397500
 20
0.015000
  0
SEQEND
  8
gg1
  0
POLYLINE
  8
gg1
 62
1
 40
0.000000
 41
0.000000
 66
  1
  0
VERTEX
  8
gg1
 10
-0.405000
 20
0.007500
  0
VERTEX
  8
gg1
 10
-0.405000
 20
0.022500
  0
SEQEND
  8
gg1
  0
POLYLINE
  8
gg1
 62
1
 40
0.000000
 41
0.000000
 66
  1
  0
VERTEX
  8
gg1
 10
-1.077500
 20
-0.970000
  0
VERTEX
  8
gg1
 10
-1.062500
 20
-0.970000
  0
SEQEND
  8
gg1
  0
POLYLINE
  8
gg1
 62
1
 40
0.000000
 41
0.000000
 66
  1
  0
VERTEX
  8
gg1
 10
-1.070000
 20
-0.977500
  0
VERTEX
  8
gg1
 10
-1.070000
 20
-0.962500
  0
SEQEND
  8
gg1
  0
POLYLINE
  8
gg1
 62
1
 40
0.000000
 41
0.000000
 66
  1
  0
VERTEX
  8
gg1
 10
-0.862500
 20
-1.475000
  0
VERTEX
  8
gg1
 10
-0.847500
 20
-1.475000
  0
SEQEND
  8
gg1
  0
POLYLINE
  8
gg1
 62
1
 40
0.000000
 41
0.000000
 66
  1
  0
VERTEX
  8
gg1
 10
-0.855000
 20
-1.482500
  0
VERTEX
  8
gg1
 10
-0.855000
 20
-1.467500
  0
SEQEND
  8
gg1
  0
POLYLINE
  8
gg1
 62
1
 40
0.000000
 41
0.000000
 66
  1
  0
VERTEX
  8
gg1
 10
-0.382500
 20
-0.034300
  0
VERTEX
  8
gg1
 10
-0.367500
 20
-0.034300
  0
SEQEND
  8
gg1
  0
POLYLINE
  8
gg1
 62
1
 40
0.000000
 41
0.000000
 66
  1
  0
VERTEX
  8
gg1
 10
-0.375000
 20
-0.041800
  0
VERTEX
  8
gg1
 10
-0.375000
 20
-0.026800
  0
SEQEND
  8
gg1
  0
POLYLINE
  8
gg1
 62
1
 40
0.000000
 41
0.000000
 66
  1
  0
VERTEX
  8
gg1
 10
-0.382500
 20
-0.065700
  0
VERTEX
  8
gg1
 10
-0.367500
 20
-0.065700
  0
SEQEND
  8
gg1
  0
POLYLINE
  8
gg1
 62
1
 40
0.000000
 41
0.000000
 66
  1
  0
VERTEX
  8
gg1
 10
-0.375000
 20
-0.073200
  0
VERTEX
  8
gg1
 10
-0.375000
 20
-0.058200
  0
SEQEND
  8
gg1
  0
POLYLINE
  8
gg1
 62
1
 40
0.000000
 41
0.000000
 66
  1
  0
VERTEX
  8
gg1
 10
0.367500
 20
-0.065700
  0
VERTEX
  8
gg1
 10
0.382500
 20
-0.065700
  0
SEQEND
  8
gg1
  0
POLYLINE
  8
gg1
 62
1
 40
0.000000
 41
0.000000
 66
  1
  0
VERTEX
  8
gg1
 10
0.375000
 20
-0.073200
  0
VERTEX
  8
gg1
 10
0.375000
 20
-0.058200
  0
SEQEND
  8
gg1
  0
POLYLINE
  8
gg1
 62
1
 40
0.000000
 41
0.000000
 66
  1
  0
VERTEX
  8
gg1
 10
0.367500
 20
-0.034300
  0
VERTEX
  8
gg1
 10
0.382500
 20
-0.034300
  0
SEQEND
  8
gg1
  0
POLYLINE
  8
gg1
 62
1
 40
0.000000
 41
0.000000
 66
  1
  0
VERTEX
  8
gg1
 10
0.375000
 20
-0.041800
  0
VERTEX
  8
gg1
 10
0.375000
 20
-0.026800
  0
SEQEND
  8
gg1
  0
ENDSEC
  0
EOF
