  0
SECTION
  2
HEADER
  9
$EXTMIN
 10
-0.127000
 20
-0.126000
  9
$EXTMAX
 10
0.355000
 20
0.855000
  9
$LIMMIN
 10
-0.127000
 20
-0.126000
  9
$LIMMAX
 10
0.355000
 20
0.855000
  9
$FILLMODE
 70
  1
  0
ENDSEC
  0
SECTION
  2
TABLES
  0
TABLE
  2
LTYPE
 70
  1
  0
LTYPE
  2
CONTINUOUS
 70
 64
  3
Solid line
 72
 65
 73
  0
 40
0.0
  0
ENDTAB
  0
TABLE
  2
LAYER
 70
 1
  0
LAYER
  2
0
 70
  0
 62
7
  6
CONTINUOUS
  0
LAYER
  2
gg1
 70
  0
 62
1
  6
CONTINUOUS
  0
ENDTAB
  0
TABLE
  2
STYLE
 70
  1
  0
STYLE
  2
STANDARD
 70
  0
 40
0.0
 41
1.0
 50
0.0
 71
  0
 42
0.2
  3
txt
  4

  0
ENDTAB
  0
ENDSEC
  0
SECTION
  2
BLOCKS
  0
BLOCK
  8
0
  2
D10
 70
64
 10
0.0
 20
0.0
  3
D10
  0
CIRCLE
  8
0
 10
0.000000
 20
0.000000
 40
0.005000
 0
ENDBLK
  8
0
  0
BLOCK
  8
0
  2
D11
 70
64
 10
0.0
 20
0.0
  3
D11
  0
CIRCLE
  8
0
 10
0.000000
 20
0.000000
 40
0.002500
 0
ENDBLK
  8
0
  0
BLOCK
  8
0
  2
D12
 70
64
 10
0.0
 20
0.0
  3
D12
  0
CIRCLE
  8
0
 10
0.000000
 20
0.000000
 40
0.003000
 0
ENDBLK
  8
0
  0
BLOCK
  8
0
  2
D13
 70
64
 10
0.0
 20
0.0
  3
D13
  0
CIRCLE
  8
0
 10
0.000000
 20
0.000000
 40
0.001000
 0
ENDBLK
  8
0
  0
ENDSEC
  0
SECTION
  2
ENTITIES
  0
POLYLINE
  8
gg1
 62
1
 40
0.000000
 41
0.000000
 66
  1
  0
VERTEX
  8
gg1
 10
0.350000
 20
-0.110000
  0
VERTEX
  8
gg1
 10
0.350000
 20
-0.012500
  0
SEQEND
  8
gg1
  0
POLYLINE
  8
gg1
 62
1
 40
0.000000
 41
0.000000
 66
  1
  0
VERTEX
  8
gg1
 10
0.000000
 20
-0.110000
  0
VERTEX
  8
gg1
 10
0.000000
 20
-0.012500
  0
SEQEND
  8
gg1
  0
POLYLINE
  8
gg1
 62
1
 40
0.000000
 41
0.000000
 66
  1
  0
VERTEX
  8
gg1
 10
0.309400
 20
-0.100000
  0
VERTEX
  8
gg1
 10
0.350000
 20
-0.100000
  0
SEQEND
  8
gg1
  0
POLYLINE
  8
gg1
 62
1
 40
0.000000
 41
0.000000
 66
  1
  0
VERTEX
  8
gg1
 10
0.000000
 20
-0.100000
  0
VERTEX
  8
gg1
 10
0.045000
 20
-0.100000
  0
SEQEND
  8
gg1
  0
POLYLINE
  8
gg1
 62
1
 40
0.000000
 41
0.000000
 66
  1
  0
VERTEX
  8
gg1
 10
0.305000
 20
-0.085000
  0
VERTEX
  8
gg1
 10
0.350000
 20
-0.100000
  0
SEQEND
  8
gg1
  0
POLYLINE
  8
gg1
 62
1
 40
0.000000
 41
0.000000
 66
  1
  0
VERTEX
  8
gg1
 10
0.305000
 20
-0.115000
  0
VERTEX
  8
gg1
 10
0.350000
 20
-0.100000
  0
SEQEND
  8
gg1
  0
POLYLINE
  8
gg1
 62
1
 40
0.000000
 41
0.000000
 66
  1
  0
VERTEX
  8
gg1
 10
0.000000
 20
-0.100000
  0
VERTEX
  8
gg1
 10
0.045000
 20
-0.115000
  0
SEQEND
  8
gg1
  0
POLYLINE
  8
gg1
 62
1
 40
0.000000
 41
0.000000
 66
  1
  0
VERTEX
  8
gg1
 10
0.000000
 20
-0.100000
  0
VERTEX
  8
gg1
 10
0.045000
 20
-0.085000
  0
SEQEND
  8
gg1
  0
POLYLINE
  8
gg1
 62
1
 40
0.000000
 41
0.000000
 66
  1
  0
VERTEX
  8
gg1
 10
-0.120000
 20
0.060000
  0
VERTEX
  8
gg1
 10
-0.100000
 20
0.000000
  0
VERTEX
  8
gg1
 10
-0.080000
 20
0.060000
  0
SEQEND
  8
gg1
  0
POLYLINE
  8
gg1
 62
1
 40
0.000000
 41
0.000000
 66
  1
  0
VERTEX
  8
gg1
 10
-0.100000
 20
0.850000
  0
VERTEX
  8
gg1
 10
-0.080000
 20
0.790000
  0
SEQEND
  8
gg1
  0
POLYLINE
  8
gg1
 62
1
 40
0.000000
 41
0.000000
 66
  1
  0
VERTEX
  8
gg1
 10
-0.120000
 20
0.790000
  0
VERTEX
  8
gg1
 10
-0.100000
 20
0.850000
  0
SEQEND
  8
gg1
  0
POLYLINE
  8
gg1
 62
1
 40
0.000000
 41
0.000000
 66
  1
  0
VERTEX
  8
gg1
 10
-0.100000
 20
0.000000
  0
VERTEX
  8
gg1
 10
-0.100000
 20
0.238000
  0
SEQEND
  8
gg1
  0
POLYLINE
  8
gg1
 62
1
 40
0.000000
 41
0.000000
 66
  1
  0
VERTEX
  8
gg1
 10
-0.100000
 20
0.579900
  0
VERTEX
  8
gg1
 10
-0.100000
 20
0.850000
  0
SEQEND
  8
gg1
  0
POLYLINE
  8
gg1
 62
1
 40
0.000000
 41
0.000000
 66
  1
  0
VERTEX
  8
gg1
 10
-0.110000
 20
0.000000
  0
VERTEX
  8
gg1
 10
-0.027500
 20
0.000000
  0
SEQEND
  8
gg1
  0
POLYLINE
  8
gg1
 62
1
 40
0.000000
 41
0.000000
 66
  1
  0
VERTEX
  8
gg1
 10
-0.110000
 20
0.850000
  0
VERTEX
  8
gg1
 10
-0.027500
 20
0.850000
  0
SEQEND
  8
gg1
  0
POLYLINE
  8
gg1
 62
1
 40
0.000000
 41
0.000000
 66
  1
  0
VERTEX
  8
gg1
 10
0.000000
 20
0.000000
  0
VERTEX
  8
gg1
 10
0.000000
 20
0.850000
  0
VERTEX
  8
gg1
 10
0.350000
 20
0.850000
  0
SEQEND
  8
gg1
  0
POLYLINE
  8
gg1
 62
1
 40
0.000000
 41
0.000000
 66
  1
  0
VERTEX
  8
gg1
 10
0.350000
 20
0.000000
  0
VERTEX
  8
gg1
 10
0.350000
 20
0.850000
  0
SEQEND
  8
gg1
  0
POLYLINE
  8
gg1
 62
1
 40
0.000000
 41
0.000000
 66
  1
  0
VERTEX
  8
gg1
 10
0.000000
 20
0.000000
  0
VERTEX
  8
gg1
 10
0.350000
 20
0.000000
  0
SEQEND
  8
gg1
  0
POLYLINE
  8
gg1
 62
1
 40
0.000000
 41
0.000000
 66
  1
  0
VERTEX
  8
gg1
 10
0.061000
 20
-0.085500
  0
VERTEX
  8
gg1
 10
0.068500
 20
-0.078000
  0
VERTEX
  8
gg1
 10
0.083500
 20
-0.078000
  0
VERTEX
  8
gg1
 10
0.091000
 20
-0.085500
  0
VERTEX
  8
gg1
 10
0.091000
 20
-0.093000
  0
VERTEX
  8
gg1
 10
0.083500
 20
-0.100500
  0
VERTEX
  8
gg1
 10
0.076000
 20
-0.100500
  0
VERTEX
  8
gg1
 10
0.083500
 20
-0.100500
  0
VERTEX
  8
gg1
 10
0.091000
 20
-0.108000
  0
VERTEX
  8
gg1
 10
0.091000
 20
-0.115500
  0
VERTEX
  8
gg1
 10
0.083500
 20
-0.123000
  0
VERTEX
  8
gg1
 10
0.068500
 20
-0.123000
  0
VERTEX
  8
gg1
 10
0.061000
 20
-0.115500
  0
SEQEND
  8
gg1
  0
POLYLINE
  8
gg1
 62
1
 40
0.000000
 41
0.000000
 66
  1
  0
VERTEX
  8
gg1
 10
0.136000
 20
-0.078000
  0
VERTEX
  8
gg1
 10
0.106000
 20
-0.078000
  0
VERTEX
  8
gg1
 10
0.106000
 20
-0.100500
  0
VERTEX
  8
gg1
 10
0.121000
 20
-0.093000
  0
VERTEX
  8
gg1
 10
0.128500
 20
-0.093000
  0
VERTEX
  8
gg1
 10
0.136000
 20
-0.100500
  0
VERTEX
  8
gg1
 10
0.136000
 20
-0.115500
  0
VERTEX
  8
gg1
 10
0.128500
 20
-0.123000
  0
VERTEX
  8
gg1
 10
0.113500
 20
-0.123000
  0
VERTEX
  8
gg1
 10
0.106000
 20
-0.115500
  0
SEQEND
  8
gg1
  0
POLYLINE
  8
gg1
 62
1
 40
0.000000
 41
0.000000
 66
  1
  0
VERTEX
  8
gg1
 10
0.151000
 20
-0.085500
  0
VERTEX
  8
gg1
 10
0.158500
 20
-0.078000
  0
VERTEX
  8
gg1
 10
0.173500
 20
-0.078000
  0
VERTEX
  8
gg1
 10
0.181000
 20
-0.085500
  0
VERTEX
  8
gg1
 10
0.181000
 20
-0.115500
  0
VERTEX
  8
gg1
 10
0.173500
 20
-0.123000
  0
VERTEX
  8
gg1
 10
0.158500
 20
-0.123000
  0
VERTEX
  8
gg1
 10
0.151000
 20
-0.115500
  0
VERTEX
  8
gg1
 10
0.151000
 20
-0.085500
  0
SEQEND
  8
gg1
  0
POLYLINE
  8
gg1
 62
1
 40
0.000000
 41
0.000000
 66
  1
  0
VERTEX
  8
gg1
 10
0.196000
 20
-0.123000
  0
VERTEX
  8
gg1
 10
0.196000
 20
-0.093000
  0
VERTEX
  8
gg1
 10
0.203500
 20
-0.093000
  0
VERTEX
  8
gg1
 10
0.211000
 20
-0.100500
  0
VERTEX
  8
gg1
 10
0.211000
 20
-0.123000
  0
VERTEX
  8
gg1
 10
0.211000
 20
-0.100500
  0
VERTEX
  8
gg1
 10
0.218400
 20
-0.093000
  0
VERTEX
  8
gg1
 10
0.225900
 20
-0.100500
  0
VERTEX
  8
gg1
 10
0.225900
 20
-0.123000
  0
SEQEND
  8
gg1
  0
POLYLINE
  8
gg1
 62
1
 40
0.000000
 41
0.000000
 66
  1
  0
VERTEX
  8
gg1
 10
0.240900
 20
-0.123000
  0
VERTEX
  8
gg1
 10
0.255900
 20
-0.123000
  0
VERTEX
  8
gg1
 10
0.248400
 20
-0.123000
  0
VERTEX
  8
gg1
 10
0.248400
 20
-0.093000
  0
VERTEX
  8
gg1
 10
0.240900
 20
-0.093000
  0
SEQEND
  8
gg1
  0
POLYLINE
  8
gg1
 62
1
 40
0.000000
 41
0.000000
 66
  1
  0
VERTEX
  8
gg1
 10
0.278400
 20
-0.123000
  0
VERTEX
  8
gg1
 10
0.293400
 20
-0.123000
  0
VERTEX
  8
gg1
 10
0.285900
 20
-0.123000
  0
VERTEX
  8
gg1
 10
0.285900
 20
-0.078000
  0
VERTEX
  8
gg1
 10
0.278400
 20
-0.078000
  0
SEQEND
  8
gg1
  0
POLYLINE
  8
gg1
 62
1
 40
0.000000
 41
0.000000
 66
  1
  0
VERTEX
  8
gg1
 10
-0.114000
 20
0.254000
  0
VERTEX
  8
gg1
 10
-0.124000
 20
0.264000
  0
VERTEX
  8
gg1
 10
-0.124000
 20
0.284000
  0
VERTEX
  8
gg1
 10
-0.114000
 20
0.294000
  0
VERTEX
  8
gg1
 10
-0.104000
 20
0.294000
  0
VERTEX
  8
gg1
 10
-0.094000
 20
0.284000
  0
VERTEX
  8
gg1
 10
-0.084000
 20
0.294000
  0
VERTEX
  8
gg1
 10
-0.074000
 20
0.294000
  0
VERTEX
  8
gg1
 10
-0.064000
 20
0.284000
  0
VERTEX
  8
gg1
 10
-0.064000
 20
0.264000
  0
VERTEX
  8
gg1
 10
-0.074000
 20
0.254000
  0
VERTEX
  8
gg1
 10
-0.084000
 20
0.254000
  0
VERTEX
  8
gg1
 10
-0.094000
 20
0.264000
  0
VERTEX
  8
gg1
 10
-0.104000
 20
0.254000
  0
VERTEX
  8
gg1
 10
-0.114000
 20
0.254000
  0
SEQEND
  8
gg1
  0
POLYLINE
  8
gg1
 62
1
 40
0.000000
 41
0.000000
 66
  1
  0
VERTEX
  8
gg1
 10
-0.094000
 20
0.264000
  0
VERTEX
  8
gg1
 10
-0.094000
 20
0.284000
  0
SEQEND
  8
gg1
  0
POLYLINE
  8
gg1
 62
1
 40
0.000000
 41
0.000000
 66
  1
  0
VERTEX
  8
gg1
 10
-0.124000
 20
0.354000
  0
VERTEX
  8
gg1
 10
-0.124000
 20
0.314000
  0
VERTEX
  8
gg1
 10
-0.094000
 20
0.314000
  0
VERTEX
  8
gg1
 10
-0.104000
 20
0.334000
  0
VERTEX
  8
gg1
 10
-0.104000
 20
0.344000
  0
VERTEX
  8
gg1
 10
-0.094000
 20
0.354000
  0
VERTEX
  8
gg1
 10
-0.074000
 20
0.354000
  0
VERTEX
  8
gg1
 10
-0.064000
 20
0.344000
  0
VERTEX
  8
gg1
 10
-0.064000
 20
0.324000
  0
VERTEX
  8
gg1
 10
-0.074000
 20
0.314000
  0
SEQEND
  8
gg1
  0
POLYLINE
  8
gg1
 62
1
 40
0.000000
 41
0.000000
 66
  1
  0
VERTEX
  8
gg1
 10
-0.114000
 20
0.374000
  0
VERTEX
  8
gg1
 10
-0.124000
 20
0.384000
  0
VERTEX
  8
gg1
 10
-0.124000
 20
0.404000
  0
VERTEX
  8
gg1
 10
-0.114000
 20
0.414000
  0
VERTEX
  8
gg1
 10
-0.074000
 20
0.414000
  0
VERTEX
  8
gg1
 10
-0.064000
 20
0.404000
  0
VERTEX
  8
gg1
 10
-0.064000
 20
0.384000
  0
VERTEX
  8
gg1
 10
-0.074000
 20
0.374000
  0
VERTEX
  8
gg1
 10
-0.114000
 20
0.374000
  0
SEQEND
  8
gg1
  0
POLYLINE
  8
gg1
 62
1
 40
0.000000
 41
0.000000
 66
  1
  0
VERTEX
  8
gg1
 10
-0.064000
 20
0.434000
  0
VERTEX
  8
gg1
 10
-0.104000
 20
0.434000
  0
VERTEX
  8
gg1
 10
-0.104000
 20
0.444000
  0
VERTEX
  8
gg1
 10
-0.094000
 20
0.454000
  0
VERTEX
  8
gg1
 10
-0.064000
 20
0.454000
  0
VERTEX
  8
gg1
 10
-0.094000
 20
0.454000
  0
VERTEX
  8
gg1
 10
-0.104000
 20
0.464000
  0
VERTEX
  8
gg1
 10
-0.094000
 20
0.474000
  0
VERTEX
  8
gg1
 10
-0.064000
 20
0.474000
  0
SEQEND
  8
gg1
  0
POLYLINE
  8
gg1
 62
1
 40
0.000000
 41
0.000000
 66
  1
  0
VERTEX
  8
gg1
 10
-0.064000
 20
0.494000
  0
VERTEX
  8
gg1
 10
-0.064000
 20
0.514000
  0
VERTEX
  8
gg1
 10
-0.064000
 20
0.504000
  0
VERTEX
  8
gg1
 10
-0.104000
 20
0.504000
  0
VERTEX
  8
gg1
 10
-0.104000
 20
0.494000
  0
SEQEND
  8
gg1
  0
POLYLINE
  8
gg1
 62
1
 40
0.000000
 41
0.000000
 66
  1
  0
VERTEX
  8
gg1
 10
-0.064000
 20
0.544000
  0
VERTEX
  8
gg1
 10
-0.064000
 20
0.564000
  0
VERTEX
  8
gg1
 10
-0.064000
 20
0.554000
  0
VERTEX
  8
gg1
 10
-0.124000
 20
0.554000
  0
VERTEX
  8
gg1
 10
-0.124000
 20
0.544000
  0
SEQEND
  8
gg1
  0
POLYLINE
  8
gg1
 62
1
 40
0.000000
 41
0.000000
 66
  1
  0
VERTEX
  8
gg1
 10
0.068500
 20
0.525200
  0
VERTEX
  8
gg1
 10
0.083500
 20
0.525200
  0
SEQEND
  8
gg1
  0
POLYLINE
  8
gg1
 62
1
 40
0.000000
 41
0.000000
 66
  1
  0
VERTEX
  8
gg1
 10
0.076000
 20
0.517700
  0
VERTEX
  8
gg1
 10
0.076000
 20
0.532700
  0
SEQEND
  8
gg1
  0
POLYLINE
  8
gg1
 62
1
 40
0.000000
 41
0.000000
 66
  1
  0
VERTEX
  8
gg1
 10
0.276200
 20
0.590100
  0
VERTEX
  8
gg1
 10
0.291200
 20
0.590100
  0
SEQEND
  8
gg1
  0
POLYLINE
  8
gg1
 62
1
 40
0.000000
 41
0.000000
 66
  1
  0
VERTEX
  8
gg1
 10
0.283700
 20
0.582600
  0
VERTEX
  8
gg1
 10
0.283700
 20
0.597600
  0
SEQEND
  8
gg1
  0
POLYLINE
  8
gg1
 62
1
 40
0.000000
 41
0.000000
 66
  1
  0
VERTEX
  8
gg1
 10
0.267000
 20
0.515100
  0
VERTEX
  8
gg1
 10
0.282000
 20
0.515100
  0
SEQEND
  8
gg1
  0
POLYLINE
  8
gg1
 62
1
 40
0.000000
 41
0.000000
 66
  1
  0
VERTEX
  8
gg1
 10
0.274500
 20
0.507600
  0
VERTEX
  8
gg1
 10
0.274500
 20
0.522600
  0
SEQEND
  8
gg1
  0
POLYLINE
  8
gg1
 62
1
 40
0.000000
 41
0.000000
 66
  1
  0
VERTEX
  8
gg1
 10
0.055000
 20
0.050000
  0
VERTEX
  8
gg1
 10
0.095000
 20
0.050000
  0
SEQEND
  8
gg1
  0
POLYLINE
  8
gg1
 62
1
 40
0.000000
 41
0.000000
 66
  1
  0
VERTEX
  8
gg1
 10
0.075000
 20
0.030000
  0
VERTEX
  8
gg1
 10
0.075000
 20
0.070000
  0
SEQEND
  8
gg1
  0
POLYLINE
  8
gg1
 62
1
 40
0.000000
 41
0.000000
 66
  1
  0
VERTEX
  8
gg1
 10
0.155000
 20
0.050000
  0
VERTEX
  8
gg1
 10
0.195000
 20
0.050000
  0
SEQEND
  8
gg1
  0
POLYLINE
  8
gg1
 62
1
 40
0.000000
 41
0.000000
 66
  1
  0
VERTEX
  8
gg1
 10
0.175000
 20
0.030000
  0
VERTEX
  8
gg1
 10
0.175000
 20
0.070000
  0
SEQEND
  8
gg1
  0
POLYLINE
  8
gg1
 62
1
 40
0.000000
 41
0.000000
 66
  1
  0
VERTEX
  8
gg1
 10
0.255000
 20
0.050000
  0
VERTEX
  8
gg1
 10
0.295000
 20
0.050000
  0
SEQEND
  8
gg1
  0
POLYLINE
  8
gg1
 62
1
 40
0.000000
 41
0.000000
 66
  1
  0
VERTEX
  8
gg1
 10
0.275000
 20
0.030000
  0
VERTEX
  8
gg1
 10
0.275000
 20
0.070000
  0
SEQEND
  8
gg1
  0
POLYLINE
  8
gg1
 62
1
 40
0.000000
 41
0.000000
 66
  1
  0
VERTEX
  8
gg1
 10
0.132000
 20
0.750000
  0
VERTEX
  8
gg1
 10
0.218000
 20
0.750000
  0
SEQEND
  8
gg1
  0
POLYLINE
  8
gg1
 62
1
 40
0.000000
 41
0.000000
 66
  1
  0
VERTEX
  8
gg1
 10
0.175000
 20
0.707000
  0
VERTEX
  8
gg1
 10
0.175000
 20
0.793000
  0
SEQEND
  8
gg1
  0
POLYLINE
  8
gg1
 62
1
 40
0.000000
 41
0.000000
 66
  1
  0
VERTEX
  8
gg1
 10
0.050000
 20
0.373800
  0
VERTEX
  8
gg1
 10
0.062000
 20
0.373800
  0
SEQEND
  8
gg1
  0
POLYLINE
  8
gg1
 62
1
 40
0.000000
 41
0.000000
 66
  1
  0
VERTEX
  8
gg1
 10
0.056000
 20
0.367800
  0
VERTEX
  8
gg1
 10
0.056000
 20
0.379800
  0
SEQEND
  8
gg1
  0
POLYLINE
  8
gg1
 62
1
 40
0.000000
 41
0.000000
 66
  1
  0
VERTEX
  8
gg1
 10
0.176500
 20
0.583800
  0
VERTEX
  8
gg1
 10
0.188500
 20
0.583800
  0
SEQEND
  8
gg1
  0
POLYLINE
  8
gg1
 62
1
 40
0.000000
 41
0.000000
 66
  1
  0
VERTEX
  8
gg1
 10
0.182500
 20
0.577800
  0
VERTEX
  8
gg1
 10
0.182500
 20
0.589800
  0
SEQEND
  8
gg1
  0
POLYLINE
  8
gg1
 62
1
 40
0.000000
 41
0.000000
 66
  1
  0
VERTEX
  8
gg1
 10
0.170400
 20
0.450000
  0
VERTEX
  8
gg1
 10
0.182300
 20
0.450000
  0
SEQEND
  8
gg1
  0
POLYLINE
  8
gg1
 62
1
 40
0.000000
 41
0.000000
 66
  1
  0
VERTEX
  8
gg1
 10
0.176300
 20
0.444000
  0
VERTEX
  8
gg1
 10
0.176300
 20
0.456000
  0
SEQEND
  8
gg1
  0
POLYLINE
  8
gg1
 62
1
 40
0.000000
 41
0.000000
 66
  1
  0
VERTEX
  8
gg1
 10
0.142500
 20
0.313200
  0
VERTEX
  8
gg1
 10
0.154500
 20
0.313200
  0
SEQEND
  8
gg1
  0
POLYLINE
  8
gg1
 62
1
 40
0.000000
 41
0.000000
 66
  1
  0
VERTEX
  8
gg1
 10
0.148500
 20
0.307200
  0
VERTEX
  8
gg1
 10
0.148500
 20
0.319200
  0
SEQEND
  8
gg1
  0
POLYLINE
  8
gg1
 62
1
 40
0.000000
 41
0.000000
 66
  1
  0
VERTEX
  8
gg1
 10
0.139000
 20
0.256000
  0
VERTEX
  8
gg1
 10
0.151000
 20
0.256000
  0
SEQEND
  8
gg1
  0
POLYLINE
  8
gg1
 62
1
 40
0.000000
 41
0.000000
 66
  1
  0
VERTEX
  8
gg1
 10
0.145000
 20
0.250000
  0
VERTEX
  8
gg1
 10
0.145000
 20
0.262000
  0
SEQEND
  8
gg1
  0
POLYLINE
  8
gg1
 62
1
 40
0.000000
 41
0.000000
 66
  1
  0
VERTEX
  8
gg1
 10
0.102000
 20
0.660000
  0
VERTEX
  8
gg1
 10
0.114000
 20
0.660000
  0
SEQEND
  8
gg1
  0
POLYLINE
  8
gg1
 62
1
 40
0.000000
 41
0.000000
 66
  1
  0
VERTEX
  8
gg1
 10
0.108000
 20
0.654000
  0
VERTEX
  8
gg1
 10
0.108000
 20
0.666000
  0
SEQEND
  8
gg1
  0
POLYLINE
  8
gg1
 62
1
 40
0.000000
 41
0.000000
 66
  1
  0
VERTEX
  8
gg1
 10
0.236000
 20
0.660000
  0
VERTEX
  8
gg1
 10
0.248000
 20
0.660000
  0
SEQEND
  8
gg1
  0
POLYLINE
  8
gg1
 62
1
 40
0.000000
 41
0.000000
 66
  1
  0
VERTEX
  8
gg1
 10
0.242000
 20
0.654000
  0
VERTEX
  8
gg1
 10
0.242000
 20
0.666000
  0
SEQEND
  8
gg1
  0
POLYLINE
  8
gg1
 62
1
 40
0.000000
 41
0.000000
 66
  1
  0
VERTEX
  8
gg1
 10
0.225000
 20
0.181000
  0
VERTEX
  8
gg1
 10
0.237000
 20
0.181000
  0
SEQEND
  8
gg1
  0
POLYLINE
  8
gg1
 62
1
 40
0.000000
 41
0.000000
 66
  1
  0
VERTEX
  8
gg1
 10
0.231000
 20
0.175000
  0
VERTEX
  8
gg1
 10
0.231000
 20
0.187000
  0
SEQEND
  8
gg1
  0
POLYLINE
  8
gg1
 62
1
 40
0.000000
 41
0.000000
 66
  1
  0
VERTEX
  8
gg1
 10
0.045000
 20
0.109000
  0
VERTEX
  8
gg1
 10
0.057000
 20
0.109000
  0
SEQEND
  8
gg1
  0
POLYLINE
  8
gg1
 62
1
 40
0.000000
 41
0.000000
 66
  1
  0
VERTEX
  8
gg1
 10
0.051000
 20
0.103000
  0
VERTEX
  8
gg1
 10
0.051000
 20
0.115000
  0
SEQEND
  8
gg1
  0
POLYLINE
  8
gg1
 62
1
 40
0.000000
 41
0.000000
 66
  1
  0
VERTEX
  8
gg1
 10
0.289000
 20
0.721000
  0
VERTEX
  8
gg1
 10
0.301000
 20
0.721000
  0
SEQEND
  8
gg1
  0
POLYLINE
  8
gg1
 62
1
 40
0.000000
 41
0.000000
 66
  1
  0
VERTEX
  8
gg1
 10
0.295000
 20
0.715000
  0
VERTEX
  8
gg1
 10
0.295000
 20
0.727000
  0
SEQEND
  8
gg1
  0
POLYLINE
  8
gg1
 62
1
 40
0.000000
 41
0.000000
 66
  1
  0
VERTEX
  8
gg1
 10
0.225000
 20
0.143500
  0
VERTEX
  8
gg1
 10
0.237000
 20
0.143500
  0
SEQEND
  8
gg1
  0
POLYLINE
  8
gg1
 62
1
 40
0.000000
 41
0.000000
 66
  1
  0
VERTEX
  8
gg1
 10
0.231000
 20
0.137500
  0
VERTEX
  8
gg1
 10
0.231000
 20
0.149500
  0
SEQEND
  8
gg1
  0
POLYLINE
  8
gg1
 62
1
 40
0.000000
 41
0.000000
 66
  1
  0
VERTEX
  8
gg1
 10
0.049000
 20
0.721000
  0
VERTEX
  8
gg1
 10
0.061000
 20
0.721000
  0
SEQEND
  8
gg1
  0
POLYLINE
  8
gg1
 62
1
 40
0.000000
 41
0.000000
 66
  1
  0
VERTEX
  8
gg1
 10
0.055000
 20
0.715000
  0
VERTEX
  8
gg1
 10
0.055000
 20
0.727000
  0
SEQEND
  8
gg1
  0
POLYLINE
  8
gg1
 62
1
 40
0.000000
 41
0.000000
 66
  1
  0
VERTEX
  8
gg1
 10
0.306000
 20
0.614800
  0
VERTEX
  8
gg1
 10
0.318000
 20
0.614800
  0
SEQEND
  8
gg1
  0
POLYLINE
  8
gg1
 62
1
 40
0.000000
 41
0.000000
 66
  1
  0
VERTEX
  8
gg1
 10
0.312000
 20
0.608800
  0
VERTEX
  8
gg1
 10
0.312000
 20
0.620800
  0
SEQEND
  8
gg1
  0
POLYLINE
  8
gg1
 62
1
 40
0.000000
 41
0.000000
 66
  1
  0
VERTEX
  8
gg1
 10
0.271000
 20
0.632500
  0
VERTEX
  8
gg1
 10
0.283000
 20
0.632500
  0
SEQEND
  8
gg1
  0
POLYLINE
  8
gg1
 62
1
 40
0.000000
 41
0.000000
 66
  1
  0
VERTEX
  8
gg1
 10
0.277000
 20
0.626500
  0
VERTEX
  8
gg1
 10
0.277000
 20
0.638500
  0
SEQEND
  8
gg1
  0
POLYLINE
  8
gg1
 62
1
 40
0.000000
 41
0.000000
 66
  1
  0
VERTEX
  8
gg1
 10
0.097000
 20
0.588000
  0
VERTEX
  8
gg1
 10
0.109000
 20
0.588000
  0
SEQEND
  8
gg1
  0
POLYLINE
  8
gg1
 62
1
 40
0.000000
 41
0.000000
 66
  1
  0
VERTEX
  8
gg1
 10
0.103000
 20
0.582000
  0
VERTEX
  8
gg1
 10
0.103000
 20
0.594000
  0
SEQEND
  8
gg1
  0
POLYLINE
  8
gg1
 62
1
 40
0.000000
 41
0.000000
 66
  1
  0
VERTEX
  8
gg1
 10
0.069000
 20
0.562800
  0
VERTEX
  8
gg1
 10
0.081000
 20
0.562800
  0
SEQEND
  8
gg1
  0
POLYLINE
  8
gg1
 62
1
 40
0.000000
 41
0.000000
 66
  1
  0
VERTEX
  8
gg1
 10
0.075000
 20
0.556800
  0
VERTEX
  8
gg1
 10
0.075000
 20
0.568800
  0
SEQEND
  8
gg1
  0
POLYLINE
  8
gg1
 62
1
 40
0.000000
 41
0.000000
 66
  1
  0
VERTEX
  8
gg1
 10
0.303000
 20
0.246400
  0
VERTEX
  8
gg1
 10
0.315000
 20
0.246400
  0
SEQEND
  8
gg1
  0
POLYLINE
  8
gg1
 62
1
 40
0.000000
 41
0.000000
 66
  1
  0
VERTEX
  8
gg1
 10
0.309000
 20
0.240400
  0
VERTEX
  8
gg1
 10
0.309000
 20
0.252400
  0
SEQEND
  8
gg1
  0
POLYLINE
  8
gg1
 62
1
 40
0.000000
 41
0.000000
 66
  1
  0
VERTEX
  8
gg1
 10
0.050000
 20
0.416600
  0
VERTEX
  8
gg1
 10
0.062000
 20
0.416600
  0
SEQEND
  8
gg1
  0
POLYLINE
  8
gg1
 62
1
 40
0.000000
 41
0.000000
 66
  1
  0
VERTEX
  8
gg1
 10
0.056000
 20
0.410600
  0
VERTEX
  8
gg1
 10
0.056000
 20
0.422600
  0
SEQEND
  8
gg1
  0
ENDSEC
  0
EOF
