  0
SECTION
  2
HEADER
  9
$EXTMIN
 10
-0.119000
 20
-0.112000
  9
$EXTMAX
 10
0.355000
 20
0.855000
  9
$LIMMIN
 10
-0.119000
 20
-0.112000
  9
$LIMMAX
 10
0.355000
 20
0.855000
  9
$FILLMODE
 70
  1
  0
ENDSEC
  0
SECTION
  2
TABLES
  0
TABLE
  2
LTYPE
 70
  1
  0
LTYPE
  2
CONTINUOUS
 70
 64
  3
Solid line
 72
 65
 73
  0
 40
0.0
  0
ENDTAB
  0
TABLE
  2
LAYER
 70
 1
  0
LAYER
  2
0
 70
  0
 62
7
  6
CONTINUOUS
  0
LAYER
  2
gg1
 70
  0
 62
1
  6
CONTINUOUS
  0
ENDTAB
  0
TABLE
  2
STYLE
 70
  1
  0
STYLE
  2
STANDARD
 70
  0
 40
0.0
 41
1.0
 50
0.0
 71
  0
 42
0.2
  3
txt
  4

  0
ENDTAB
  0
ENDSEC
  0
SECTION
  2
BLOCKS
  0
BLOCK
  8
0
  2
D10
 70
64
 10
0.0
 20
0.0
  3
D10
  0
CIRCLE
  8
0
 10
0.000000
 20
0.000000
 40
0.002500
 0
ENDBLK
  8
0
  0
BLOCK
  8
0
  2
D11
 70
64
 10
0.0
 20
0.0
  3
D11
  0
CIRCLE
  8
0
 10
0.000000
 20
0.000000
 40
0.005000
 0
ENDBLK
  8
0
  0
BLOCK
  8
0
  2
D12
 70
64
 10
0.0
 20
0.0
  3
D12
  0
CIRCLE
  8
0
 10
0.000000
 20
0.000000
 40
0.003000
 0
ENDBLK
  8
0
  0
BLOCK
  8
0
  2
D13
 70
64
 10
0.0
 20
0.0
  3
D13
  0
CIRCLE
  8
0
 10
0.000000
 20
0.000000
 40
0.001000
 0
ENDBLK
  8
0
  0
ENDSEC
  0
SECTION
  2
ENTITIES
  0
POLYLINE
  8
gg1
 62
1
 40
0.000000
 41
0.000000
 66
  1
  0
VERTEX
  8
gg1
 10
0.000000
 20
0.000000
  0
VERTEX
  8
gg1
 10
0.000000
 20
0.850000
  0
VERTEX
  8
gg1
 10
0.350000
 20
0.850000
  0
SEQEND
  8
gg1
  0
POLYLINE
  8
gg1
 62
1
 40
0.000000
 41
0.000000
 66
  1
  0
VERTEX
  8
gg1
 10
0.350000
 20
0.000000
  0
VERTEX
  8
gg1
 10
0.350000
 20
0.850000
  0
SEQEND
  8
gg1
  0
POLYLINE
  8
gg1
 62
1
 40
0.000000
 41
0.000000
 66
  1
  0
VERTEX
  8
gg1
 10
0.000000
 20
0.000000
  0
VERTEX
  8
gg1
 10
0.350000
 20
0.000000
  0
SEQEND
  8
gg1
  0
POLYLINE
  8
gg1
 62
1
 40
0.000000
 41
0.000000
 66
  1
  0
VERTEX
  8
gg1
 10
-0.105000
 20
0.060000
  0
VERTEX
  8
gg1
 10
-0.085000
 20
0.000000
  0
VERTEX
  8
gg1
 10
-0.065000
 20
0.060000
  0
SEQEND
  8
gg1
  0
POLYLINE
  8
gg1
 62
1
 40
0.000000
 41
0.000000
 66
  1
  0
VERTEX
  8
gg1
 10
-0.085000
 20
0.850000
  0
VERTEX
  8
gg1
 10
-0.065000
 20
0.790000
  0
SEQEND
  8
gg1
  0
POLYLINE
  8
gg1
 62
1
 40
0.000000
 41
0.000000
 66
  1
  0
VERTEX
  8
gg1
 10
-0.105000
 20
0.790000
  0
VERTEX
  8
gg1
 10
-0.085000
 20
0.850000
  0
SEQEND
  8
gg1
  0
POLYLINE
  8
gg1
 62
1
 40
0.000000
 41
0.000000
 66
  1
  0
VERTEX
  8
gg1
 10
-0.085000
 20
0.000000
  0
VERTEX
  8
gg1
 10
-0.085000
 20
0.235000
  0
SEQEND
  8
gg1
  0
POLYLINE
  8
gg1
 62
1
 40
0.000000
 41
0.000000
 66
  1
  0
VERTEX
  8
gg1
 10
-0.085000
 20
0.576900
  0
VERTEX
  8
gg1
 10
-0.085000
 20
0.850000
  0
SEQEND
  8
gg1
  0
POLYLINE
  8
gg1
 62
1
 40
0.000000
 41
0.000000
 66
  1
  0
VERTEX
  8
gg1
 10
-0.095000
 20
0.000000
  0
VERTEX
  8
gg1
 10
-0.027500
 20
0.000000
  0
SEQEND
  8
gg1
  0
POLYLINE
  8
gg1
 62
1
 40
0.000000
 41
0.000000
 66
  1
  0
VERTEX
  8
gg1
 10
-0.095000
 20
0.850000
  0
VERTEX
  8
gg1
 10
-0.027500
 20
0.850000
  0
SEQEND
  8
gg1
  0
POLYLINE
  8
gg1
 62
1
 40
0.000000
 41
0.000000
 66
  1
  0
VERTEX
  8
gg1
 10
0.000000
 20
-0.085000
  0
VERTEX
  8
gg1
 10
0.035000
 20
-0.073300
  0
SEQEND
  8
gg1
  0
POLYLINE
  8
gg1
 62
1
 40
0.000000
 41
0.000000
 66
  1
  0
VERTEX
  8
gg1
 10
0.000000
 20
-0.085000
  0
VERTEX
  8
gg1
 10
0.035000
 20
-0.096700
  0
SEQEND
  8
gg1
  0
POLYLINE
  8
gg1
 62
1
 40
0.000000
 41
0.000000
 66
  1
  0
VERTEX
  8
gg1
 10
0.315000
 20
-0.096700
  0
VERTEX
  8
gg1
 10
0.350000
 20
-0.085000
  0
SEQEND
  8
gg1
  0
POLYLINE
  8
gg1
 62
1
 40
0.000000
 41
0.000000
 66
  1
  0
VERTEX
  8
gg1
 10
0.315000
 20
-0.073300
  0
VERTEX
  8
gg1
 10
0.350000
 20
-0.085000
  0
SEQEND
  8
gg1
  0
POLYLINE
  8
gg1
 62
1
 40
0.000000
 41
0.000000
 66
  1
  0
VERTEX
  8
gg1
 10
0.000000
 20
-0.085000
  0
VERTEX
  8
gg1
 10
0.045000
 20
-0.085000
  0
SEQEND
  8
gg1
  0
POLYLINE
  8
gg1
 62
1
 40
0.000000
 41
0.000000
 66
  1
  0
VERTEX
  8
gg1
 10
0.309400
 20
-0.085000
  0
VERTEX
  8
gg1
 10
0.350000
 20
-0.085000
  0
SEQEND
  8
gg1
  0
POLYLINE
  8
gg1
 62
1
 40
0.000000
 41
0.000000
 66
  1
  0
VERTEX
  8
gg1
 10
0.000000
 20
-0.095000
  0
VERTEX
  8
gg1
 10
0.000000
 20
-0.027500
  0
SEQEND
  8
gg1
  0
POLYLINE
  8
gg1
 62
1
 40
0.000000
 41
0.000000
 66
  1
  0
VERTEX
  8
gg1
 10
0.350000
 20
-0.095000
  0
VERTEX
  8
gg1
 10
0.350000
 20
-0.027500
  0
SEQEND
  8
gg1
  0
POLYLINE
  8
gg1
 62
1
 40
0.000000
 41
0.000000
 66
  1
  0
VERTEX
  8
gg1
 10
-0.106000
 20
0.251000
  0
VERTEX
  8
gg1
 10
-0.116000
 20
0.261000
  0
VERTEX
  8
gg1
 10
-0.116000
 20
0.281000
  0
VERTEX
  8
gg1
 10
-0.106000
 20
0.291000
  0
VERTEX
  8
gg1
 10
-0.096000
 20
0.291000
  0
VERTEX
  8
gg1
 10
-0.086000
 20
0.281000
  0
VERTEX
  8
gg1
 10
-0.076000
 20
0.291000
  0
VERTEX
  8
gg1
 10
-0.066000
 20
0.291000
  0
VERTEX
  8
gg1
 10
-0.056000
 20
0.281000
  0
VERTEX
  8
gg1
 10
-0.056000
 20
0.261000
  0
VERTEX
  8
gg1
 10
-0.066000
 20
0.251000
  0
VERTEX
  8
gg1
 10
-0.076000
 20
0.251000
  0
VERTEX
  8
gg1
 10
-0.086000
 20
0.261000
  0
VERTEX
  8
gg1
 10
-0.096000
 20
0.251000
  0
VERTEX
  8
gg1
 10
-0.106000
 20
0.251000
  0
SEQEND
  8
gg1
  0
POLYLINE
  8
gg1
 62
1
 40
0.000000
 41
0.000000
 66
  1
  0
VERTEX
  8
gg1
 10
-0.086000
 20
0.261000
  0
VERTEX
  8
gg1
 10
-0.086000
 20
0.281000
  0
SEQEND
  8
gg1
  0
POLYLINE
  8
gg1
 62
1
 40
0.000000
 41
0.000000
 66
  1
  0
VERTEX
  8
gg1
 10
-0.116000
 20
0.351000
  0
VERTEX
  8
gg1
 10
-0.116000
 20
0.311000
  0
VERTEX
  8
gg1
 10
-0.086000
 20
0.311000
  0
VERTEX
  8
gg1
 10
-0.096000
 20
0.331000
  0
VERTEX
  8
gg1
 10
-0.096000
 20
0.341000
  0
VERTEX
  8
gg1
 10
-0.086000
 20
0.351000
  0
VERTEX
  8
gg1
 10
-0.066000
 20
0.351000
  0
VERTEX
  8
gg1
 10
-0.056000
 20
0.341000
  0
VERTEX
  8
gg1
 10
-0.056000
 20
0.321000
  0
VERTEX
  8
gg1
 10
-0.066000
 20
0.311000
  0
SEQEND
  8
gg1
  0
POLYLINE
  8
gg1
 62
1
 40
0.000000
 41
0.000000
 66
  1
  0
VERTEX
  8
gg1
 10
-0.106000
 20
0.371000
  0
VERTEX
  8
gg1
 10
-0.116000
 20
0.381000
  0
VERTEX
  8
gg1
 10
-0.116000
 20
0.401000
  0
VERTEX
  8
gg1
 10
-0.106000
 20
0.410900
  0
VERTEX
  8
gg1
 10
-0.066000
 20
0.410900
  0
VERTEX
  8
gg1
 10
-0.056000
 20
0.401000
  0
VERTEX
  8
gg1
 10
-0.056000
 20
0.381000
  0
VERTEX
  8
gg1
 10
-0.066000
 20
0.371000
  0
VERTEX
  8
gg1
 10
-0.106000
 20
0.371000
  0
SEQEND
  8
gg1
  0
POLYLINE
  8
gg1
 62
1
 40
0.000000
 41
0.000000
 66
  1
  0
VERTEX
  8
gg1
 10
-0.056000
 20
0.430900
  0
VERTEX
  8
gg1
 10
-0.096000
 20
0.430900
  0
VERTEX
  8
gg1
 10
-0.096000
 20
0.440900
  0
VERTEX
  8
gg1
 10
-0.086000
 20
0.450900
  0
VERTEX
  8
gg1
 10
-0.056000
 20
0.450900
  0
VERTEX
  8
gg1
 10
-0.086000
 20
0.450900
  0
VERTEX
  8
gg1
 10
-0.096000
 20
0.460900
  0
VERTEX
  8
gg1
 10
-0.086000
 20
0.470900
  0
VERTEX
  8
gg1
 10
-0.056000
 20
0.470900
  0
SEQEND
  8
gg1
  0
POLYLINE
  8
gg1
 62
1
 40
0.000000
 41
0.000000
 66
  1
  0
VERTEX
  8
gg1
 10
-0.056000
 20
0.490900
  0
VERTEX
  8
gg1
 10
-0.056000
 20
0.510900
  0
VERTEX
  8
gg1
 10
-0.056000
 20
0.500900
  0
VERTEX
  8
gg1
 10
-0.096000
 20
0.500900
  0
VERTEX
  8
gg1
 10
-0.096000
 20
0.490900
  0
SEQEND
  8
gg1
  0
POLYLINE
  8
gg1
 62
1
 40
0.000000
 41
0.000000
 66
  1
  0
VERTEX
  8
gg1
 10
-0.056000
 20
0.540900
  0
VERTEX
  8
gg1
 10
-0.056000
 20
0.560900
  0
VERTEX
  8
gg1
 10
-0.056000
 20
0.550900
  0
VERTEX
  8
gg1
 10
-0.116000
 20
0.550900
  0
VERTEX
  8
gg1
 10
-0.116000
 20
0.540900
  0
SEQEND
  8
gg1
  0
POLYLINE
  8
gg1
 62
1
 40
0.000000
 41
0.000000
 66
  1
  0
VERTEX
  8
gg1
 10
0.061000
 20
-0.071500
  0
VERTEX
  8
gg1
 10
0.068500
 20
-0.064000
  0
VERTEX
  8
gg1
 10
0.083500
 20
-0.064000
  0
VERTEX
  8
gg1
 10
0.091000
 20
-0.071500
  0
VERTEX
  8
gg1
 10
0.091000
 20
-0.079000
  0
VERTEX
  8
gg1
 10
0.083500
 20
-0.086500
  0
VERTEX
  8
gg1
 10
0.076000
 20
-0.086500
  0
VERTEX
  8
gg1
 10
0.083500
 20
-0.086500
  0
VERTEX
  8
gg1
 10
0.091000
 20
-0.094000
  0
VERTEX
  8
gg1
 10
0.091000
 20
-0.101500
  0
VERTEX
  8
gg1
 10
0.083500
 20
-0.109000
  0
VERTEX
  8
gg1
 10
0.068500
 20
-0.109000
  0
VERTEX
  8
gg1
 10
0.061000
 20
-0.101500
  0
SEQEND
  8
gg1
  0
POLYLINE
  8
gg1
 62
1
 40
0.000000
 41
0.000000
 66
  1
  0
VERTEX
  8
gg1
 10
0.136000
 20
-0.064000
  0
VERTEX
  8
gg1
 10
0.106000
 20
-0.064000
  0
VERTEX
  8
gg1
 10
0.106000
 20
-0.086500
  0
VERTEX
  8
gg1
 10
0.121000
 20
-0.079000
  0
VERTEX
  8
gg1
 10
0.128500
 20
-0.079000
  0
VERTEX
  8
gg1
 10
0.136000
 20
-0.086500
  0
VERTEX
  8
gg1
 10
0.136000
 20
-0.101500
  0
VERTEX
  8
gg1
 10
0.128500
 20
-0.109000
  0
VERTEX
  8
gg1
 10
0.113500
 20
-0.109000
  0
VERTEX
  8
gg1
 10
0.106000
 20
-0.101500
  0
SEQEND
  8
gg1
  0
POLYLINE
  8
gg1
 62
1
 40
0.000000
 41
0.000000
 66
  1
  0
VERTEX
  8
gg1
 10
0.151000
 20
-0.071500
  0
VERTEX
  8
gg1
 10
0.158500
 20
-0.064000
  0
VERTEX
  8
gg1
 10
0.173500
 20
-0.064000
  0
VERTEX
  8
gg1
 10
0.181000
 20
-0.071500
  0
VERTEX
  8
gg1
 10
0.181000
 20
-0.101500
  0
VERTEX
  8
gg1
 10
0.173500
 20
-0.109000
  0
VERTEX
  8
gg1
 10
0.158500
 20
-0.109000
  0
VERTEX
  8
gg1
 10
0.151000
 20
-0.101500
  0
VERTEX
  8
gg1
 10
0.151000
 20
-0.071500
  0
SEQEND
  8
gg1
  0
POLYLINE
  8
gg1
 62
1
 40
0.000000
 41
0.000000
 66
  1
  0
VERTEX
  8
gg1
 10
0.196000
 20
-0.109000
  0
VERTEX
  8
gg1
 10
0.196000
 20
-0.079000
  0
VERTEX
  8
gg1
 10
0.203500
 20
-0.079000
  0
VERTEX
  8
gg1
 10
0.211000
 20
-0.086500
  0
VERTEX
  8
gg1
 10
0.211000
 20
-0.109000
  0
VERTEX
  8
gg1
 10
0.211000
 20
-0.086500
  0
VERTEX
  8
gg1
 10
0.218400
 20
-0.079000
  0
VERTEX
  8
gg1
 10
0.225900
 20
-0.086500
  0
VERTEX
  8
gg1
 10
0.225900
 20
-0.109000
  0
SEQEND
  8
gg1
  0
POLYLINE
  8
gg1
 62
1
 40
0.000000
 41
0.000000
 66
  1
  0
VERTEX
  8
gg1
 10
0.240900
 20
-0.109000
  0
VERTEX
  8
gg1
 10
0.255900
 20
-0.109000
  0
VERTEX
  8
gg1
 10
0.248400
 20
-0.109000
  0
VERTEX
  8
gg1
 10
0.248400
 20
-0.079000
  0
VERTEX
  8
gg1
 10
0.240900
 20
-0.079000
  0
SEQEND
  8
gg1
  0
POLYLINE
  8
gg1
 62
1
 40
0.000000
 41
0.000000
 66
  1
  0
VERTEX
  8
gg1
 10
0.278400
 20
-0.109000
  0
VERTEX
  8
gg1
 10
0.293400
 20
-0.109000
  0
VERTEX
  8
gg1
 10
0.285900
 20
-0.109000
  0
VERTEX
  8
gg1
 10
0.285900
 20
-0.064000
  0
VERTEX
  8
gg1
 10
0.278400
 20
-0.064000
  0
SEQEND
  8
gg1
  0
POLYLINE
  8
gg1
 62
1
 40
0.000000
 41
0.000000
 66
  1
  0
VERTEX
  8
gg1
 10
0.068500
 20
0.525200
  0
VERTEX
  8
gg1
 10
0.083500
 20
0.525200
  0
SEQEND
  8
gg1
  0
POLYLINE
  8
gg1
 62
1
 40
0.000000
 41
0.000000
 66
  1
  0
VERTEX
  8
gg1
 10
0.076000
 20
0.517700
  0
VERTEX
  8
gg1
 10
0.076000
 20
0.532700
  0
SEQEND
  8
gg1
  0
POLYLINE
  8
gg1
 62
1
 40
0.000000
 41
0.000000
 66
  1
  0
VERTEX
  8
gg1
 10
0.276200
 20
0.590100
  0
VERTEX
  8
gg1
 10
0.291200
 20
0.590100
  0
SEQEND
  8
gg1
  0
POLYLINE
  8
gg1
 62
1
 40
0.000000
 41
0.000000
 66
  1
  0
VERTEX
  8
gg1
 10
0.283700
 20
0.582600
  0
VERTEX
  8
gg1
 10
0.283700
 20
0.597600
  0
SEQEND
  8
gg1
  0
POLYLINE
  8
gg1
 62
1
 40
0.000000
 41
0.000000
 66
  1
  0
VERTEX
  8
gg1
 10
0.267000
 20
0.515100
  0
VERTEX
  8
gg1
 10
0.282000
 20
0.515100
  0
SEQEND
  8
gg1
  0
POLYLINE
  8
gg1
 62
1
 40
0.000000
 41
0.000000
 66
  1
  0
VERTEX
  8
gg1
 10
0.274500
 20
0.507600
  0
VERTEX
  8
gg1
 10
0.274500
 20
0.522600
  0
SEQEND
  8
gg1
  0
POLYLINE
  8
gg1
 62
1
 40
0.000000
 41
0.000000
 66
  1
  0
VERTEX
  8
gg1
 10
0.055000
 20
0.050000
  0
VERTEX
  8
gg1
 10
0.095000
 20
0.050000
  0
SEQEND
  8
gg1
  0
POLYLINE
  8
gg1
 62
1
 40
0.000000
 41
0.000000
 66
  1
  0
VERTEX
  8
gg1
 10
0.075000
 20
0.030000
  0
VERTEX
  8
gg1
 10
0.075000
 20
0.070000
  0
SEQEND
  8
gg1
  0
POLYLINE
  8
gg1
 62
1
 40
0.000000
 41
0.000000
 66
  1
  0
VERTEX
  8
gg1
 10
0.155000
 20
0.050000
  0
VERTEX
  8
gg1
 10
0.195000
 20
0.050000
  0
SEQEND
  8
gg1
  0
POLYLINE
  8
gg1
 62
1
 40
0.000000
 41
0.000000
 66
  1
  0
VERTEX
  8
gg1
 10
0.175000
 20
0.030000
  0
VERTEX
  8
gg1
 10
0.175000
 20
0.070000
  0
SEQEND
  8
gg1
  0
POLYLINE
  8
gg1
 62
1
 40
0.000000
 41
0.000000
 66
  1
  0
VERTEX
  8
gg1
 10
0.255000
 20
0.050000
  0
VERTEX
  8
gg1
 10
0.295000
 20
0.050000
  0
SEQEND
  8
gg1
  0
POLYLINE
  8
gg1
 62
1
 40
0.000000
 41
0.000000
 66
  1
  0
VERTEX
  8
gg1
 10
0.275000
 20
0.030000
  0
VERTEX
  8
gg1
 10
0.275000
 20
0.070000
  0
SEQEND
  8
gg1
  0
POLYLINE
  8
gg1
 62
1
 40
0.000000
 41
0.000000
 66
  1
  0
VERTEX
  8
gg1
 10
0.132000
 20
0.750000
  0
VERTEX
  8
gg1
 10
0.218000
 20
0.750000
  0
SEQEND
  8
gg1
  0
POLYLINE
  8
gg1
 62
1
 40
0.000000
 41
0.000000
 66
  1
  0
VERTEX
  8
gg1
 10
0.175000
 20
0.707000
  0
VERTEX
  8
gg1
 10
0.175000
 20
0.793000
  0
SEQEND
  8
gg1
  0
POLYLINE
  8
gg1
 62
1
 40
0.000000
 41
0.000000
 66
  1
  0
VERTEX
  8
gg1
 10
0.101800
 20
0.660000
  0
VERTEX
  8
gg1
 10
0.113800
 20
0.660000
  0
SEQEND
  8
gg1
  0
POLYLINE
  8
gg1
 62
1
 40
0.000000
 41
0.000000
 66
  1
  0
VERTEX
  8
gg1
 10
0.107800
 20
0.654000
  0
VERTEX
  8
gg1
 10
0.107800
 20
0.666000
  0
SEQEND
  8
gg1
  0
POLYLINE
  8
gg1
 62
1
 40
0.000000
 41
0.000000
 66
  1
  0
VERTEX
  8
gg1
 10
0.236000
 20
0.660000
  0
VERTEX
  8
gg1
 10
0.248000
 20
0.660000
  0
SEQEND
  8
gg1
  0
POLYLINE
  8
gg1
 62
1
 40
0.000000
 41
0.000000
 66
  1
  0
VERTEX
  8
gg1
 10
0.242000
 20
0.654000
  0
VERTEX
  8
gg1
 10
0.242000
 20
0.666000
  0
SEQEND
  8
gg1
  0
POLYLINE
  8
gg1
 62
1
 40
0.000000
 41
0.000000
 66
  1
  0
VERTEX
  8
gg1
 10
0.225000
 20
0.181000
  0
VERTEX
  8
gg1
 10
0.237000
 20
0.181000
  0
SEQEND
  8
gg1
  0
POLYLINE
  8
gg1
 62
1
 40
0.000000
 41
0.000000
 66
  1
  0
VERTEX
  8
gg1
 10
0.231000
 20
0.175000
  0
VERTEX
  8
gg1
 10
0.231000
 20
0.187000
  0
SEQEND
  8
gg1
  0
POLYLINE
  8
gg1
 62
1
 40
0.000000
 41
0.000000
 66
  1
  0
VERTEX
  8
gg1
 10
0.045000
 20
0.109000
  0
VERTEX
  8
gg1
 10
0.057000
 20
0.109000
  0
SEQEND
  8
gg1
  0
POLYLINE
  8
gg1
 62
1
 40
0.000000
 41
0.000000
 66
  1
  0
VERTEX
  8
gg1
 10
0.051000
 20
0.103000
  0
VERTEX
  8
gg1
 10
0.051000
 20
0.115000
  0
SEQEND
  8
gg1
  0
POLYLINE
  8
gg1
 62
1
 40
0.000000
 41
0.000000
 66
  1
  0
VERTEX
  8
gg1
 10
0.289000
 20
0.721000
  0
VERTEX
  8
gg1
 10
0.301000
 20
0.721000
  0
SEQEND
  8
gg1
  0
POLYLINE
  8
gg1
 62
1
 40
0.000000
 41
0.000000
 66
  1
  0
VERTEX
  8
gg1
 10
0.295000
 20
0.715000
  0
VERTEX
  8
gg1
 10
0.295000
 20
0.727000
  0
SEQEND
  8
gg1
  0
POLYLINE
  8
gg1
 62
1
 40
0.000000
 41
0.000000
 66
  1
  0
VERTEX
  8
gg1
 10
0.180500
 20
0.556800
  0
VERTEX
  8
gg1
 10
0.192500
 20
0.556800
  0
SEQEND
  8
gg1
  0
POLYLINE
  8
gg1
 62
1
 40
0.000000
 41
0.000000
 66
  1
  0
VERTEX
  8
gg1
 10
0.186500
 20
0.550800
  0
VERTEX
  8
gg1
 10
0.186500
 20
0.562800
  0
SEQEND
  8
gg1
  0
POLYLINE
  8
gg1
 62
1
 40
0.000000
 41
0.000000
 66
  1
  0
VERTEX
  8
gg1
 10
0.225000
 20
0.143500
  0
VERTEX
  8
gg1
 10
0.237000
 20
0.143500
  0
SEQEND
  8
gg1
  0
POLYLINE
  8
gg1
 62
1
 40
0.000000
 41
0.000000
 66
  1
  0
VERTEX
  8
gg1
 10
0.231000
 20
0.137500
  0
VERTEX
  8
gg1
 10
0.231000
 20
0.149500
  0
SEQEND
  8
gg1
  0
POLYLINE
  8
gg1
 62
1
 40
0.000000
 41
0.000000
 66
  1
  0
VERTEX
  8
gg1
 10
0.049000
 20
0.721000
  0
VERTEX
  8
gg1
 10
0.061000
 20
0.721000
  0
SEQEND
  8
gg1
  0
POLYLINE
  8
gg1
 62
1
 40
0.000000
 41
0.000000
 66
  1
  0
VERTEX
  8
gg1
 10
0.055000
 20
0.715000
  0
VERTEX
  8
gg1
 10
0.055000
 20
0.727000
  0
SEQEND
  8
gg1
  0
POLYLINE
  8
gg1
 62
1
 40
0.000000
 41
0.000000
 66
  1
  0
VERTEX
  8
gg1
 10
0.306000
 20
0.614800
  0
VERTEX
  8
gg1
 10
0.318000
 20
0.614800
  0
SEQEND
  8
gg1
  0
POLYLINE
  8
gg1
 62
1
 40
0.000000
 41
0.000000
 66
  1
  0
VERTEX
  8
gg1
 10
0.312000
 20
0.608800
  0
VERTEX
  8
gg1
 10
0.312000
 20
0.620800
  0
SEQEND
  8
gg1
  0
POLYLINE
  8
gg1
 62
1
 40
0.000000
 41
0.000000
 66
  1
  0
VERTEX
  8
gg1
 10
0.271000
 20
0.632500
  0
VERTEX
  8
gg1
 10
0.283000
 20
0.632500
  0
SEQEND
  8
gg1
  0
POLYLINE
  8
gg1
 62
1
 40
0.000000
 41
0.000000
 66
  1
  0
VERTEX
  8
gg1
 10
0.277000
 20
0.626500
  0
VERTEX
  8
gg1
 10
0.277000
 20
0.638500
  0
SEQEND
  8
gg1
  0
POLYLINE
  8
gg1
 62
1
 40
0.000000
 41
0.000000
 66
  1
  0
VERTEX
  8
gg1
 10
0.097000
 20
0.588000
  0
VERTEX
  8
gg1
 10
0.109000
 20
0.588000
  0
SEQEND
  8
gg1
  0
POLYLINE
  8
gg1
 62
1
 40
0.000000
 41
0.000000
 66
  1
  0
VERTEX
  8
gg1
 10
0.103000
 20
0.582000
  0
VERTEX
  8
gg1
 10
0.103000
 20
0.594000
  0
SEQEND
  8
gg1
  0
POLYLINE
  8
gg1
 62
1
 40
0.000000
 41
0.000000
 66
  1
  0
VERTEX
  8
gg1
 10
0.069000
 20
0.562800
  0
VERTEX
  8
gg1
 10
0.081000
 20
0.562800
  0
SEQEND
  8
gg1
  0
POLYLINE
  8
gg1
 62
1
 40
0.000000
 41
0.000000
 66
  1
  0
VERTEX
  8
gg1
 10
0.075000
 20
0.556800
  0
VERTEX
  8
gg1
 10
0.075000
 20
0.568800
  0
SEQEND
  8
gg1
  0
POLYLINE
  8
gg1
 62
1
 40
0.000000
 41
0.000000
 66
  1
  0
VERTEX
  8
gg1
 10
0.303000
 20
0.290400
  0
VERTEX
  8
gg1
 10
0.315000
 20
0.290400
  0
SEQEND
  8
gg1
  0
POLYLINE
  8
gg1
 62
1
 40
0.000000
 41
0.000000
 66
  1
  0
VERTEX
  8
gg1
 10
0.309000
 20
0.284400
  0
VERTEX
  8
gg1
 10
0.309000
 20
0.296400
  0
SEQEND
  8
gg1
  0
POLYLINE
  8
gg1
 62
1
 40
0.000000
 41
0.000000
 66
  1
  0
VERTEX
  8
gg1
 10
0.051000
 20
0.361800
  0
VERTEX
  8
gg1
 10
0.063000
 20
0.361800
  0
SEQEND
  8
gg1
  0
POLYLINE
  8
gg1
 62
1
 40
0.000000
 41
0.000000
 66
  1
  0
VERTEX
  8
gg1
 10
0.057000
 20
0.355800
  0
VERTEX
  8
gg1
 10
0.057000
 20
0.367800
  0
SEQEND
  8
gg1
  0
POLYLINE
  8
gg1
 62
1
 40
0.000000
 41
0.000000
 66
  1
  0
VERTEX
  8
gg1
 10
0.050000
 20
0.401200
  0
VERTEX
  8
gg1
 10
0.062000
 20
0.401200
  0
SEQEND
  8
gg1
  0
POLYLINE
  8
gg1
 62
1
 40
0.000000
 41
0.000000
 66
  1
  0
VERTEX
  8
gg1
 10
0.056000
 20
0.395200
  0
VERTEX
  8
gg1
 10
0.056000
 20
0.407200
  0
SEQEND
  8
gg1
  0
POLYLINE
  8
gg1
 62
1
 40
0.000000
 41
0.000000
 66
  1
  0
VERTEX
  8
gg1
 10
0.243500
 20
0.380800
  0
VERTEX
  8
gg1
 10
0.255500
 20
0.380800
  0
SEQEND
  8
gg1
  0
POLYLINE
  8
gg1
 62
1
 40
0.000000
 41
0.000000
 66
  1
  0
VERTEX
  8
gg1
 10
0.249500
 20
0.374800
  0
VERTEX
  8
gg1
 10
0.249500
 20
0.386800
  0
SEQEND
  8
gg1
  0
POLYLINE
  8
gg1
 62
1
 40
0.000000
 41
0.000000
 66
  1
  0
VERTEX
  8
gg1
 10
0.216000
 20
0.292000
  0
VERTEX
  8
gg1
 10
0.228000
 20
0.292000
  0
SEQEND
  8
gg1
  0
POLYLINE
  8
gg1
 62
1
 40
0.000000
 41
0.000000
 66
  1
  0
VERTEX
  8
gg1
 10
0.222000
 20
0.286000
  0
VERTEX
  8
gg1
 10
0.222000
 20
0.298000
  0
SEQEND
  8
gg1
  0
POLYLINE
  8
gg1
 62
1
 40
0.000000
 41
0.000000
 66
  1
  0
VERTEX
  8
gg1
 10
0.159000
 20
0.290000
  0
VERTEX
  8
gg1
 10
0.171000
 20
0.290000
  0
SEQEND
  8
gg1
  0
POLYLINE
  8
gg1
 62
1
 40
0.000000
 41
0.000000
 66
  1
  0
VERTEX
  8
gg1
 10
0.165000
 20
0.284000
  0
VERTEX
  8
gg1
 10
0.165000
 20
0.296000
  0
SEQEND
  8
gg1
  0
ENDSEC
  0
EOF
