  0
SECTION
  2
HEADER
  9
$EXTMIN
 10
-0.210000
 20
-0.114000
  9
$EXTMAX
 10
0.605000
 20
0.355000
  9
$LIMMIN
 10
-0.210000
 20
-0.114000
  9
$LIMMAX
 10
0.605000
 20
0.355000
  9
$FILLMODE
 70
  1
  0
ENDSEC
  0
SECTION
  2
TABLES
  0
TABLE
  2
LTYPE
 70
  1
  0
LTYPE
  2
CONTINUOUS
 70
 64
  3
Solid line
 72
 65
 73
  0
 40
0.0
  0
ENDTAB
  0
TABLE
  2
LAYER
 70
 1
  0
LAYER
  2
0
 70
  0
 62
7
  6
CONTINUOUS
  0
LAYER
  2
gg1
 70
  0
 62
1
  6
CONTINUOUS
  0
ENDTAB
  0
TABLE
  2
STYLE
 70
  1
  0
STYLE
  2
STANDARD
 70
  0
 40
0.0
 41
1.0
 50
0.0
 71
  0
 42
0.2
  3
txt
  4

  0
ENDTAB
  0
ENDSEC
  0
SECTION
  2
BLOCKS
  0
BLOCK
  8
0
  2
D10
 70
64
 10
0.0
 20
0.0
  3
D10
  0
CIRCLE
  8
0
 10
0.000000
 20
0.000000
 40
0.005000
 0
ENDBLK
  8
0
  0
BLOCK
  8
0
  2
D11
 70
64
 10
0.0
 20
0.0
  3
D11
  0
CIRCLE
  8
0
 10
0.000000
 20
0.000000
 40
0.003000
 0
ENDBLK
  8
0
  0
BLOCK
  8
0
  2
D12
 70
64
 10
0.0
 20
0.0
  3
D12
  0
CIRCLE
  8
0
 10
0.000000
 20
0.000000
 40
0.001000
 0
ENDBLK
  8
0
  0
ENDSEC
  0
SECTION
  2
ENTITIES
  0
POLYLINE
  8
gg1
 62
1
 40
0.000000
 41
0.000000
 66
  1
  0
VERTEX
  8
gg1
 10
0.565000
 20
0.268000
  0
VERTEX
  8
gg1
 10
0.565000
 20
0.268000
  0
VERTEX
  8
gg1
 10
0.565000
 20
0.268000
 42
1.000000
  0
VERTEX
  8
gg1
 10
0.565000
 20
0.182000
  0
VERTEX
  8
gg1
 10
0.565000
 20
0.182000
  0
SEQEND
  8
gg1
  0
POLYLINE
  8
gg1
 62
1
 40
0.000000
 41
0.000000
 66
  1
  0
VERTEX
  8
gg1
 10
0.035000
 20
0.182000
  0
VERTEX
  8
gg1
 10
0.035000
 20
0.182000
  0
VERTEX
  8
gg1
 10
0.035000
 20
0.182000
 42
1.000000
  0
VERTEX
  8
gg1
 10
0.035000
 20
0.268000
  0
VERTEX
  8
gg1
 10
0.035000
 20
0.268000
  0
SEQEND
  8
gg1
  0
POLYLINE
  8
gg1
 62
1
 40
0.000000
 41
0.000000
 66
  1
  0
VERTEX
  8
gg1
 10
-0.085000
 20
0.350000
  0
VERTEX
  8
gg1
 10
-0.015000
 20
0.350000
  0
SEQEND
  8
gg1
  0
POLYLINE
  8
gg1
 62
1
 40
0.000000
 41
0.000000
 66
  1
  0
VERTEX
  8
gg1
 10
-0.085000
 20
0.000000
  0
VERTEX
  8
gg1
 10
-0.015000
 20
0.000000
  0
SEQEND
  8
gg1
  0
POLYLINE
  8
gg1
 62
1
 40
0.000000
 41
0.000000
 66
  1
  0
VERTEX
  8
gg1
 10
-0.075000
 20
0.175000
  0
VERTEX
  8
gg1
 10
-0.075000
 20
0.350000
  0
SEQEND
  8
gg1
  0
POLYLINE
  8
gg1
 62
1
 40
0.000000
 41
0.000000
 66
  1
  0
VERTEX
  8
gg1
 10
-0.075000
 20
0.000000
  0
VERTEX
  8
gg1
 10
-0.075000
 20
0.175000
  0
SEQEND
  8
gg1
  0
POLYLINE
  8
gg1
 62
1
 40
0.000000
 41
0.000000
 66
  1
  0
VERTEX
  8
gg1
 10
-0.095000
 20
0.290000
  0
VERTEX
  8
gg1
 10
-0.075000
 20
0.350000
  0
VERTEX
  8
gg1
 10
-0.055000
 20
0.290000
  0
SEQEND
  8
gg1
  0
POLYLINE
  8
gg1
 62
1
 40
0.000000
 41
0.000000
 66
  1
  0
VERTEX
  8
gg1
 10
-0.075000
 20
0.000000
  0
VERTEX
  8
gg1
 10
-0.055000
 20
0.060000
  0
SEQEND
  8
gg1
  0
POLYLINE
  8
gg1
 62
1
 40
0.000000
 41
0.000000
 66
  1
  0
VERTEX
  8
gg1
 10
-0.095000
 20
0.060000
  0
VERTEX
  8
gg1
 10
-0.075000
 20
0.000000
  0
SEQEND
  8
gg1
  0
POLYLINE
  8
gg1
 62
1
 40
0.000000
 41
0.000000
 66
  1
  0
VERTEX
  8
gg1
 10
0.566800
 20
0.182000
  0
VERTEX
  8
gg1
 10
0.600000
 20
0.182000
  0
SEQEND
  8
gg1
  0
POLYLINE
  8
gg1
 62
1
 40
0.000000
 41
0.000000
 66
  1
  0
VERTEX
  8
gg1
 10
0.565000
 20
0.268000
  0
VERTEX
  8
gg1
 10
0.600000
 20
0.268000
  0
SEQEND
  8
gg1
  0
POLYLINE
  8
gg1
 62
1
 40
0.000000
 41
0.000000
 66
  1
  0
VERTEX
  8
gg1
 10
0.000000
 20
0.268000
  0
VERTEX
  8
gg1
 10
0.035000
 20
0.268000
  0
SEQEND
  8
gg1
  0
POLYLINE
  8
gg1
 62
1
 40
0.000000
 41
0.000000
 66
  1
  0
VERTEX
  8
gg1
 10
0.000000
 20
0.268000
  0
VERTEX
  8
gg1
 10
0.000000
 20
0.350000
  0
SEQEND
  8
gg1
  0
POLYLINE
  8
gg1
 62
1
 40
0.000000
 41
0.000000
 66
  1
  0
VERTEX
  8
gg1
 10
0.000000
 20
0.182000
  0
VERTEX
  8
gg1
 10
0.035000
 20
0.182000
  0
SEQEND
  8
gg1
  0
POLYLINE
  8
gg1
 62
1
 40
0.000000
 41
0.000000
 66
  1
  0
VERTEX
  8
gg1
 10
0.600000
 20
-0.085000
  0
VERTEX
  8
gg1
 10
0.600000
 20
-0.015000
  0
SEQEND
  8
gg1
  0
POLYLINE
  8
gg1
 62
1
 40
0.000000
 41
0.000000
 66
  1
  0
VERTEX
  8
gg1
 10
0.000000
 20
-0.085000
  0
VERTEX
  8
gg1
 10
0.000000
 20
-0.015000
  0
SEQEND
  8
gg1
  0
POLYLINE
  8
gg1
 62
1
 40
0.000000
 41
0.000000
 66
  1
  0
VERTEX
  8
gg1
 10
0.455000
 20
-0.075000
  0
VERTEX
  8
gg1
 10
0.600000
 20
-0.075000
  0
SEQEND
  8
gg1
  0
POLYLINE
  8
gg1
 62
1
 40
0.000000
 41
0.000000
 66
  1
  0
VERTEX
  8
gg1
 10
0.000000
 20
-0.075000
  0
VERTEX
  8
gg1
 10
0.113000
 20
-0.075000
  0
SEQEND
  8
gg1
  0
POLYLINE
  8
gg1
 62
1
 40
0.000000
 41
0.000000
 66
  1
  0
VERTEX
  8
gg1
 10
0.540000
 20
-0.055000
  0
VERTEX
  8
gg1
 10
0.600000
 20
-0.075000
  0
SEQEND
  8
gg1
  0
POLYLINE
  8
gg1
 62
1
 40
0.000000
 41
0.000000
 66
  1
  0
VERTEX
  8
gg1
 10
0.540000
 20
-0.095000
  0
VERTEX
  8
gg1
 10
0.600000
 20
-0.075000
  0
SEQEND
  8
gg1
  0
POLYLINE
  8
gg1
 62
1
 40
0.000000
 41
0.000000
 66
  1
  0
VERTEX
  8
gg1
 10
0.000000
 20
-0.075000
  0
VERTEX
  8
gg1
 10
0.060000
 20
-0.095000
  0
SEQEND
  8
gg1
  0
POLYLINE
  8
gg1
 62
1
 40
0.000000
 41
0.000000
 66
  1
  0
VERTEX
  8
gg1
 10
0.000000
 20
-0.075000
  0
VERTEX
  8
gg1
 10
0.060000
 20
-0.055000
  0
SEQEND
  8
gg1
  0
POLYLINE
  8
gg1
 62
1
 40
0.000000
 41
0.000000
 66
  1
  0
VERTEX
  8
gg1
 10
0.000000
 20
0.000000
  0
VERTEX
  8
gg1
 10
0.000000
 20
0.180000
  0
SEQEND
  8
gg1
  0
POLYLINE
  8
gg1
 62
1
 40
0.000000
 41
0.000000
 66
  1
  0
VERTEX
  8
gg1
 10
0.600000
 20
0.000000
  0
VERTEX
  8
gg1
 10
0.600000
 20
0.180000
  0
SEQEND
  8
gg1
  0
POLYLINE
  8
gg1
 62
1
 40
0.000000
 41
0.000000
 66
  1
  0
VERTEX
  8
gg1
 10
0.000000
 20
0.000000
  0
VERTEX
  8
gg1
 10
0.600000
 20
0.000000
  0
SEQEND
  8
gg1
  0
POLYLINE
  8
gg1
 62
1
 40
0.000000
 41
0.000000
 66
  1
  0
VERTEX
  8
gg1
 10
0.600000
 20
0.270000
  0
VERTEX
  8
gg1
 10
0.600000
 20
0.350000
  0
SEQEND
  8
gg1
  0
POLYLINE
  8
gg1
 62
1
 40
0.000000
 41
0.000000
 66
  1
  0
VERTEX
  8
gg1
 10
0.000000
 20
0.350000
  0
VERTEX
  8
gg1
 10
0.600000
 20
0.350000
  0
SEQEND
  8
gg1
  0
POLYLINE
  8
gg1
 62
1
 40
0.000000
 41
0.000000
 66
  1
  0
VERTEX
  8
gg1
 10
-0.197000
 20
0.004100
  0
VERTEX
  8
gg1
 10
-0.207000
 20
0.014000
  0
VERTEX
  8
gg1
 10
-0.207000
 20
0.034000
  0
VERTEX
  8
gg1
 10
-0.197000
 20
0.044000
  0
VERTEX
  8
gg1
 10
-0.187000
 20
0.044000
  0
VERTEX
  8
gg1
 10
-0.177000
 20
0.034000
  0
VERTEX
  8
gg1
 10
-0.177000
 20
0.024000
  0
VERTEX
  8
gg1
 10
-0.177000
 20
0.034000
  0
VERTEX
  8
gg1
 10
-0.167000
 20
0.044000
  0
VERTEX
  8
gg1
 10
-0.157000
 20
0.044000
  0
VERTEX
  8
gg1
 10
-0.147000
 20
0.034000
  0
VERTEX
  8
gg1
 10
-0.147000
 20
0.014000
  0
VERTEX
  8
gg1
 10
-0.157000
 20
0.004100
  0
SEQEND
  8
gg1
  0
POLYLINE
  8
gg1
 62
1
 40
0.000000
 41
0.000000
 66
  1
  0
VERTEX
  8
gg1
 10
-0.207000
 20
0.104000
  0
VERTEX
  8
gg1
 10
-0.207000
 20
0.064000
  0
VERTEX
  8
gg1
 10
-0.177000
 20
0.064000
  0
VERTEX
  8
gg1
 10
-0.187000
 20
0.084000
  0
VERTEX
  8
gg1
 10
-0.187000
 20
0.094000
  0
VERTEX
  8
gg1
 10
-0.177000
 20
0.104000
  0
VERTEX
  8
gg1
 10
-0.157000
 20
0.104000
  0
VERTEX
  8
gg1
 10
-0.147000
 20
0.094000
  0
VERTEX
  8
gg1
 10
-0.147000
 20
0.074000
  0
VERTEX
  8
gg1
 10
-0.157000
 20
0.064000
  0
SEQEND
  8
gg1
  0
POLYLINE
  8
gg1
 62
1
 40
0.000000
 41
0.000000
 66
  1
  0
VERTEX
  8
gg1
 10
-0.197000
 20
0.124000
  0
VERTEX
  8
gg1
 10
-0.207000
 20
0.134000
  0
VERTEX
  8
gg1
 10
-0.207000
 20
0.154000
  0
VERTEX
  8
gg1
 10
-0.197000
 20
0.164000
  0
VERTEX
  8
gg1
 10
-0.157000
 20
0.164000
  0
VERTEX
  8
gg1
 10
-0.147000
 20
0.154000
  0
VERTEX
  8
gg1
 10
-0.147000
 20
0.134000
  0
VERTEX
  8
gg1
 10
-0.157000
 20
0.124000
  0
VERTEX
  8
gg1
 10
-0.197000
 20
0.124000
  0
SEQEND
  8
gg1
  0
POLYLINE
  8
gg1
 62
1
 40
0.000000
 41
0.000000
 66
  1
  0
VERTEX
  8
gg1
 10
-0.147000
 20
0.184000
  0
VERTEX
  8
gg1
 10
-0.187000
 20
0.184000
  0
VERTEX
  8
gg1
 10
-0.187000
 20
0.194000
  0
VERTEX
  8
gg1
 10
-0.177000
 20
0.204000
  0
VERTEX
  8
gg1
 10
-0.147000
 20
0.204000
  0
VERTEX
  8
gg1
 10
-0.177000
 20
0.204000
  0
VERTEX
  8
gg1
 10
-0.187000
 20
0.214000
  0
VERTEX
  8
gg1
 10
-0.177000
 20
0.224000
  0
VERTEX
  8
gg1
 10
-0.147000
 20
0.224000
  0
SEQEND
  8
gg1
  0
POLYLINE
  8
gg1
 62
1
 40
0.000000
 41
0.000000
 66
  1
  0
VERTEX
  8
gg1
 10
-0.147000
 20
0.244000
  0
VERTEX
  8
gg1
 10
-0.147000
 20
0.264000
  0
VERTEX
  8
gg1
 10
-0.147000
 20
0.254000
  0
VERTEX
  8
gg1
 10
-0.187000
 20
0.254000
  0
VERTEX
  8
gg1
 10
-0.187000
 20
0.244000
  0
SEQEND
  8
gg1
  0
POLYLINE
  8
gg1
 62
1
 40
0.000000
 41
0.000000
 66
  1
  0
VERTEX
  8
gg1
 10
-0.147000
 20
0.294000
  0
VERTEX
  8
gg1
 10
-0.147000
 20
0.314000
  0
VERTEX
  8
gg1
 10
-0.147000
 20
0.304000
  0
VERTEX
  8
gg1
 10
-0.207000
 20
0.304000
  0
VERTEX
  8
gg1
 10
-0.207000
 20
0.294000
  0
SEQEND
  8
gg1
  0
POLYLINE
  8
gg1
 62
1
 40
0.000000
 41
0.000000
 66
  1
  0
VERTEX
  8
gg1
 10
0.169000
 20
-0.051000
  0
VERTEX
  8
gg1
 10
0.149000
 20
-0.061000
  0
VERTEX
  8
gg1
 10
0.129100
 20
-0.081000
  0
VERTEX
  8
gg1
 10
0.129100
 20
-0.101000
  0
VERTEX
  8
gg1
 10
0.139000
 20
-0.111000
  0
VERTEX
  8
gg1
 10
0.159000
 20
-0.111000
  0
VERTEX
  8
gg1
 10
0.169000
 20
-0.101000
  0
VERTEX
  8
gg1
 10
0.169000
 20
-0.091000
  0
VERTEX
  8
gg1
 10
0.159000
 20
-0.081000
  0
VERTEX
  8
gg1
 10
0.129100
 20
-0.081000
  0
SEQEND
  8
gg1
  0
POLYLINE
  8
gg1
 62
1
 40
0.000000
 41
0.000000
 66
  1
  0
VERTEX
  8
gg1
 10
0.189000
 20
-0.061000
  0
VERTEX
  8
gg1
 10
0.199000
 20
-0.051000
  0
VERTEX
  8
gg1
 10
0.219000
 20
-0.051000
  0
VERTEX
  8
gg1
 10
0.229000
 20
-0.061000
  0
VERTEX
  8
gg1
 10
0.229000
 20
-0.101000
  0
VERTEX
  8
gg1
 10
0.219000
 20
-0.111000
  0
VERTEX
  8
gg1
 10
0.199000
 20
-0.111000
  0
VERTEX
  8
gg1
 10
0.189000
 20
-0.101000
  0
VERTEX
  8
gg1
 10
0.189000
 20
-0.061000
  0
SEQEND
  8
gg1
  0
POLYLINE
  8
gg1
 62
1
 40
0.000000
 41
0.000000
 66
  1
  0
VERTEX
  8
gg1
 10
0.249000
 20
-0.061000
  0
VERTEX
  8
gg1
 10
0.259000
 20
-0.051000
  0
VERTEX
  8
gg1
 10
0.279000
 20
-0.051000
  0
VERTEX
  8
gg1
 10
0.289000
 20
-0.061000
  0
VERTEX
  8
gg1
 10
0.289000
 20
-0.101000
  0
VERTEX
  8
gg1
 10
0.279000
 20
-0.111000
  0
VERTEX
  8
gg1
 10
0.259000
 20
-0.111000
  0
VERTEX
  8
gg1
 10
0.249000
 20
-0.101000
  0
VERTEX
  8
gg1
 10
0.249000
 20
-0.061000
  0
SEQEND
  8
gg1
  0
POLYLINE
  8
gg1
 62
1
 40
0.000000
 41
0.000000
 66
  1
  0
VERTEX
  8
gg1
 10
0.309000
 20
-0.111000
  0
VERTEX
  8
gg1
 10
0.309000
 20
-0.071000
  0
VERTEX
  8
gg1
 10
0.319000
 20
-0.071000
  0
VERTEX
  8
gg1
 10
0.329000
 20
-0.081000
  0
VERTEX
  8
gg1
 10
0.329000
 20
-0.111000
  0
VERTEX
  8
gg1
 10
0.329000
 20
-0.081000
  0
VERTEX
  8
gg1
 10
0.339000
 20
-0.071000
  0
VERTEX
  8
gg1
 10
0.349000
 20
-0.081000
  0
VERTEX
  8
gg1
 10
0.349000
 20
-0.111000
  0
SEQEND
  8
gg1
  0
POLYLINE
  8
gg1
 62
1
 40
0.000000
 41
0.000000
 66
  1
  0
VERTEX
  8
gg1
 10
0.369000
 20
-0.111000
  0
VERTEX
  8
gg1
 10
0.389000
 20
-0.111000
  0
VERTEX
  8
gg1
 10
0.379000
 20
-0.111000
  0
VERTEX
  8
gg1
 10
0.379000
 20
-0.071000
  0
VERTEX
  8
gg1
 10
0.369000
 20
-0.071000
  0
SEQEND
  8
gg1
  0
POLYLINE
  8
gg1
 62
1
 40
0.000000
 41
0.000000
 66
  1
  0
VERTEX
  8
gg1
 10
0.419000
 20
-0.111000
  0
VERTEX
  8
gg1
 10
0.439000
 20
-0.111000
  0
VERTEX
  8
gg1
 10
0.429000
 20
-0.111000
  0
VERTEX
  8
gg1
 10
0.429000
 20
-0.051000
  0
VERTEX
  8
gg1
 10
0.419000
 20
-0.051000
  0
SEQEND
  8
gg1
  0
POLYLINE
  8
gg1
 62
1
 40
0.000000
 41
0.000000
 66
  1
  0
VERTEX
  8
gg1
 10
0.030000
 20
0.050000
  0
VERTEX
  8
gg1
 10
0.070000
 20
0.050000
  0
SEQEND
  8
gg1
  0
POLYLINE
  8
gg1
 62
1
 40
0.000000
 41
0.000000
 66
  1
  0
VERTEX
  8
gg1
 10
0.050000
 20
0.030000
  0
VERTEX
  8
gg1
 10
0.050000
 20
0.070000
  0
SEQEND
  8
gg1
  0
POLYLINE
  8
gg1
 62
1
 40
0.000000
 41
0.000000
 66
  1
  0
VERTEX
  8
gg1
 10
0.530000
 20
0.050000
  0
VERTEX
  8
gg1
 10
0.570000
 20
0.050000
  0
SEQEND
  8
gg1
  0
POLYLINE
  8
gg1
 62
1
 40
0.000000
 41
0.000000
 66
  1
  0
VERTEX
  8
gg1
 10
0.550000
 20
0.030000
  0
VERTEX
  8
gg1
 10
0.550000
 20
0.070000
  0
SEQEND
  8
gg1
  0
POLYLINE
  8
gg1
 62
1
 40
0.000000
 41
0.000000
 66
  1
  0
VERTEX
  8
gg1
 10
0.430000
 20
0.050000
  0
VERTEX
  8
gg1
 10
0.470000
 20
0.050000
  0
SEQEND
  8
gg1
  0
POLYLINE
  8
gg1
 62
1
 40
0.000000
 41
0.000000
 66
  1
  0
VERTEX
  8
gg1
 10
0.450000
 20
0.030000
  0
VERTEX
  8
gg1
 10
0.450000
 20
0.070000
  0
SEQEND
  8
gg1
  0
POLYLINE
  8
gg1
 62
1
 40
0.000000
 41
0.000000
 66
  1
  0
VERTEX
  8
gg1
 10
0.330000
 20
0.050000
  0
VERTEX
  8
gg1
 10
0.370000
 20
0.050000
  0
SEQEND
  8
gg1
  0
POLYLINE
  8
gg1
 62
1
 40
0.000000
 41
0.000000
 66
  1
  0
VERTEX
  8
gg1
 10
0.350000
 20
0.030000
  0
VERTEX
  8
gg1
 10
0.350000
 20
0.070000
  0
SEQEND
  8
gg1
  0
POLYLINE
  8
gg1
 62
1
 40
0.000000
 41
0.000000
 66
  1
  0
VERTEX
  8
gg1
 10
0.230000
 20
0.050000
  0
VERTEX
  8
gg1
 10
0.270000
 20
0.050000
  0
SEQEND
  8
gg1
  0
POLYLINE
  8
gg1
 62
1
 40
0.000000
 41
0.000000
 66
  1
  0
VERTEX
  8
gg1
 10
0.250000
 20
0.030000
  0
VERTEX
  8
gg1
 10
0.250000
 20
0.070000
  0
SEQEND
  8
gg1
  0
POLYLINE
  8
gg1
 62
1
 40
0.000000
 41
0.000000
 66
  1
  0
VERTEX
  8
gg1
 10
0.130000
 20
0.050000
  0
VERTEX
  8
gg1
 10
0.170000
 20
0.050000
  0
SEQEND
  8
gg1
  0
POLYLINE
  8
gg1
 62
1
 40
0.000000
 41
0.000000
 66
  1
  0
VERTEX
  8
gg1
 10
0.150000
 20
0.030000
  0
VERTEX
  8
gg1
 10
0.150000
 20
0.070000
  0
SEQEND
  8
gg1
  0
POLYLINE
  8
gg1
 62
1
 40
0.000000
 41
0.000000
 66
  1
  0
VERTEX
  8
gg1
 10
0.352500
 20
0.247500
  0
VERTEX
  8
gg1
 10
0.367500
 20
0.247500
  0
SEQEND
  8
gg1
  0
POLYLINE
  8
gg1
 62
1
 40
0.000000
 41
0.000000
 66
  1
  0
VERTEX
  8
gg1
 10
0.360000
 20
0.240000
  0
VERTEX
  8
gg1
 10
0.360000
 20
0.255000
  0
SEQEND
  8
gg1
  0
POLYLINE
  8
gg1
 62
1
 40
0.000000
 41
0.000000
 66
  1
  0
VERTEX
  8
gg1
 10
0.352500
 20
0.187500
  0
VERTEX
  8
gg1
 10
0.367500
 20
0.187500
  0
SEQEND
  8
gg1
  0
POLYLINE
  8
gg1
 62
1
 40
0.000000
 41
0.000000
 66
  1
  0
VERTEX
  8
gg1
 10
0.360000
 20
0.180000
  0
VERTEX
  8
gg1
 10
0.360000
 20
0.195000
  0
SEQEND
  8
gg1
  0
POLYLINE
  8
gg1
 62
1
 40
0.000000
 41
0.000000
 66
  1
  0
VERTEX
  8
gg1
 10
0.392500
 20
0.247500
  0
VERTEX
  8
gg1
 10
0.407500
 20
0.247500
  0
SEQEND
  8
gg1
  0
POLYLINE
  8
gg1
 62
1
 40
0.000000
 41
0.000000
 66
  1
  0
VERTEX
  8
gg1
 10
0.400000
 20
0.240000
  0
VERTEX
  8
gg1
 10
0.400000
 20
0.255000
  0
SEQEND
  8
gg1
  0
POLYLINE
  8
gg1
 62
1
 40
0.000000
 41
0.000000
 66
  1
  0
VERTEX
  8
gg1
 10
0.392500
 20
0.187500
  0
VERTEX
  8
gg1
 10
0.407500
 20
0.187500
  0
SEQEND
  8
gg1
  0
POLYLINE
  8
gg1
 62
1
 40
0.000000
 41
0.000000
 66
  1
  0
VERTEX
  8
gg1
 10
0.400000
 20
0.180000
  0
VERTEX
  8
gg1
 10
0.400000
 20
0.195000
  0
SEQEND
  8
gg1
  0
POLYLINE
  8
gg1
 62
1
 40
0.000000
 41
0.000000
 66
  1
  0
VERTEX
  8
gg1
 10
0.312500
 20
0.187500
  0
VERTEX
  8
gg1
 10
0.327500
 20
0.187500
  0
SEQEND
  8
gg1
  0
POLYLINE
  8
gg1
 62
1
 40
0.000000
 41
0.000000
 66
  1
  0
VERTEX
  8
gg1
 10
0.320000
 20
0.180000
  0
VERTEX
  8
gg1
 10
0.320000
 20
0.195000
  0
SEQEND
  8
gg1
  0
POLYLINE
  8
gg1
 62
1
 40
0.000000
 41
0.000000
 66
  1
  0
VERTEX
  8
gg1
 10
0.312500
 20
0.247500
  0
VERTEX
  8
gg1
 10
0.327500
 20
0.247500
  0
SEQEND
  8
gg1
  0
POLYLINE
  8
gg1
 62
1
 40
0.000000
 41
0.000000
 66
  1
  0
VERTEX
  8
gg1
 10
0.320000
 20
0.240000
  0
VERTEX
  8
gg1
 10
0.320000
 20
0.255000
  0
SEQEND
  8
gg1
  0
POLYLINE
  8
gg1
 62
1
 40
0.000000
 41
0.000000
 66
  1
  0
VERTEX
  8
gg1
 10
0.272500
 20
0.247500
  0
VERTEX
  8
gg1
 10
0.287500
 20
0.247500
  0
SEQEND
  8
gg1
  0
POLYLINE
  8
gg1
 62
1
 40
0.000000
 41
0.000000
 66
  1
  0
VERTEX
  8
gg1
 10
0.280000
 20
0.240000
  0
VERTEX
  8
gg1
 10
0.280000
 20
0.255000
  0
SEQEND
  8
gg1
  0
POLYLINE
  8
gg1
 62
1
 40
0.000000
 41
0.000000
 66
  1
  0
VERTEX
  8
gg1
 10
0.272500
 20
0.187500
  0
VERTEX
  8
gg1
 10
0.287500
 20
0.187500
  0
SEQEND
  8
gg1
  0
POLYLINE
  8
gg1
 62
1
 40
0.000000
 41
0.000000
 66
  1
  0
VERTEX
  8
gg1
 10
0.280000
 20
0.180000
  0
VERTEX
  8
gg1
 10
0.280000
 20
0.195000
  0
SEQEND
  8
gg1
  0
POLYLINE
  8
gg1
 62
1
 40
0.000000
 41
0.000000
 66
  1
  0
VERTEX
  8
gg1
 10
0.102500
 20
0.315000
  0
VERTEX
  8
gg1
 10
0.117500
 20
0.315000
  0
SEQEND
  8
gg1
  0
POLYLINE
  8
gg1
 62
1
 40
0.000000
 41
0.000000
 66
  1
  0
VERTEX
  8
gg1
 10
0.110000
 20
0.307500
  0
VERTEX
  8
gg1
 10
0.110000
 20
0.322500
  0
SEQEND
  8
gg1
  0
POLYLINE
  8
gg1
 62
1
 40
0.000000
 41
0.000000
 66
  1
  0
VERTEX
  8
gg1
 10
0.117500
 20
0.145000
  0
VERTEX
  8
gg1
 10
0.132500
 20
0.145000
  0
SEQEND
  8
gg1
  0
POLYLINE
  8
gg1
 62
1
 40
0.000000
 41
0.000000
 66
  1
  0
VERTEX
  8
gg1
 10
0.125000
 20
0.137500
  0
VERTEX
  8
gg1
 10
0.125000
 20
0.152500
  0
SEQEND
  8
gg1
  0
POLYLINE
  8
gg1
 62
1
 40
0.000000
 41
0.000000
 66
  1
  0
VERTEX
  8
gg1
 10
0.442500
 20
0.245000
  0
VERTEX
  8
gg1
 10
0.457500
 20
0.245000
  0
SEQEND
  8
gg1
  0
POLYLINE
  8
gg1
 62
1
 40
0.000000
 41
0.000000
 66
  1
  0
VERTEX
  8
gg1
 10
0.450000
 20
0.237500
  0
VERTEX
  8
gg1
 10
0.450000
 20
0.252500
  0
SEQEND
  8
gg1
  0
POLYLINE
  8
gg1
 62
1
 40
0.000000
 41
0.000000
 66
  1
  0
VERTEX
  8
gg1
 10
0.467500
 20
0.145000
  0
VERTEX
  8
gg1
 10
0.482500
 20
0.145000
  0
SEQEND
  8
gg1
  0
POLYLINE
  8
gg1
 62
1
 40
0.000000
 41
0.000000
 66
  1
  0
VERTEX
  8
gg1
 10
0.475000
 20
0.137500
  0
VERTEX
  8
gg1
 10
0.475000
 20
0.152500
  0
SEQEND
  8
gg1
  0
POLYLINE
  8
gg1
 62
1
 40
0.000000
 41
0.000000
 66
  1
  0
VERTEX
  8
gg1
 10
0.482500
 20
0.315000
  0
VERTEX
  8
gg1
 10
0.497500
 20
0.315000
  0
SEQEND
  8
gg1
  0
POLYLINE
  8
gg1
 62
1
 40
0.000000
 41
0.000000
 66
  1
  0
VERTEX
  8
gg1
 10
0.490000
 20
0.307500
  0
VERTEX
  8
gg1
 10
0.490000
 20
0.322500
  0
SEQEND
  8
gg1
  0
POLYLINE
  8
gg1
 62
1
 40
0.000000
 41
0.000000
 66
  1
  0
VERTEX
  8
gg1
 10
0.142500
 20
0.245000
  0
VERTEX
  8
gg1
 10
0.157500
 20
0.245000
  0
SEQEND
  8
gg1
  0
POLYLINE
  8
gg1
 62
1
 40
0.000000
 41
0.000000
 66
  1
  0
VERTEX
  8
gg1
 10
0.150000
 20
0.237500
  0
VERTEX
  8
gg1
 10
0.150000
 20
0.252500
  0
SEQEND
  8
gg1
  0
POLYLINE
  8
gg1
 62
1
 40
0.000000
 41
0.000000
 66
  1
  0
VERTEX
  8
gg1
 10
0.192500
 20
0.187500
  0
VERTEX
  8
gg1
 10
0.207500
 20
0.187500
  0
SEQEND
  8
gg1
  0
POLYLINE
  8
gg1
 62
1
 40
0.000000
 41
0.000000
 66
  1
  0
VERTEX
  8
gg1
 10
0.200000
 20
0.180000
  0
VERTEX
  8
gg1
 10
0.200000
 20
0.195000
  0
SEQEND
  8
gg1
  0
POLYLINE
  8
gg1
 62
1
 40
0.000000
 41
0.000000
 66
  1
  0
VERTEX
  8
gg1
 10
0.192500
 20
0.247500
  0
VERTEX
  8
gg1
 10
0.207500
 20
0.247500
  0
SEQEND
  8
gg1
  0
POLYLINE
  8
gg1
 62
1
 40
0.000000
 41
0.000000
 66
  1
  0
VERTEX
  8
gg1
 10
0.200000
 20
0.240000
  0
VERTEX
  8
gg1
 10
0.200000
 20
0.255000
  0
SEQEND
  8
gg1
  0
POLYLINE
  8
gg1
 62
1
 40
0.000000
 41
0.000000
 66
  1
  0
VERTEX
  8
gg1
 10
0.232500
 20
0.187500
  0
VERTEX
  8
gg1
 10
0.247500
 20
0.187500
  0
SEQEND
  8
gg1
  0
POLYLINE
  8
gg1
 62
1
 40
0.000000
 41
0.000000
 66
  1
  0
VERTEX
  8
gg1
 10
0.240000
 20
0.180000
  0
VERTEX
  8
gg1
 10
0.240000
 20
0.195000
  0
SEQEND
  8
gg1
  0
POLYLINE
  8
gg1
 62
1
 40
0.000000
 41
0.000000
 66
  1
  0
VERTEX
  8
gg1
 10
0.232500
 20
0.247500
  0
VERTEX
  8
gg1
 10
0.247500
 20
0.247500
  0
SEQEND
  8
gg1
  0
POLYLINE
  8
gg1
 62
1
 40
0.000000
 41
0.000000
 66
  1
  0
VERTEX
  8
gg1
 10
0.240000
 20
0.240000
  0
VERTEX
  8
gg1
 10
0.240000
 20
0.255000
  0
SEQEND
  8
gg1
  0
ENDSEC
  0
EOF
