  0
SECTION
  2
HEADER
  9
$EXTMIN
 10
-0.677000
 20
-0.139000
  9
$EXTMAX
 10
0.555000
 20
1.205000
  9
$LIMMIN
 10
-0.677000
 20
-0.139000
  9
$LIMMAX
 10
0.555000
 20
1.205000
  9
$FILLMODE
 70
  1
  0
ENDSEC
  0
SECTION
  2
TABLES
  0
TABLE
  2
LTYPE
 70
  1
  0
LTYPE
  2
CONTINUOUS
 70
 64
  3
Solid line
 72
 65
 73
  0
 40
0.0
  0
ENDTAB
  0
TABLE
  2
LAYER
 70
 1
  0
LAYER
  2
0
 70
  0
 62
7
  6
CONTINUOUS
  0
LAYER
  2
gg1
 70
  0
 62
1
  6
CONTINUOUS
  0
ENDTAB
  0
TABLE
  2
STYLE
 70
  1
  0
STYLE
  2
STANDARD
 70
  0
 40
0.0
 41
1.0
 50
0.0
 71
  0
 42
0.2
  3
txt
  4

  0
ENDTAB
  0
ENDSEC
  0
SECTION
  2
BLOCKS
  0
BLOCK
  8
0
  2
D10
 70
64
 10
0.0
 20
0.0
  3
D10
  0
CIRCLE
  8
0
 10
0.000000
 20
0.000000
 40
0.002500
 0
ENDBLK
  8
0
  0
BLOCK
  8
0
  2
D11
 70
64
 10
0.0
 20
0.0
  3
D11
  0
CIRCLE
  8
0
 10
0.000000
 20
0.000000
 40
0.005000
 0
ENDBLK
  8
0
  0
BLOCK
  8
0
  2
D12
 70
64
 10
0.0
 20
0.0
  3
D12
  0
CIRCLE
  8
0
 10
0.000000
 20
0.000000
 40
0.003000
 0
ENDBLK
  8
0
  0
BLOCK
  8
0
  2
D13
 70
64
 10
0.0
 20
0.0
  3
D13
  0
CIRCLE
  8
0
 10
0.000000
 20
0.000000
 40
0.001000
 0
ENDBLK
  8
0
  0
ENDSEC
  0
SECTION
  2
ENTITIES
  0
POLYLINE
  8
gg1
 62
1
 40
0.000000
 41
0.000000
 66
  1
  0
VERTEX
  8
gg1
 10
0.550000
 20
0.650000
  0
VERTEX
  8
gg1
 10
0.550000
 20
0.650000
  0
VERTEX
  8
gg1
 10
0.550000
 20
0.650000
 42
1.000000
  0
VERTEX
  8
gg1
 10
-0.550000
 20
0.650000
  0
VERTEX
  8
gg1
 10
-0.550000
 20
0.650000
  0
SEQEND
  8
gg1
  0
POLYLINE
  8
gg1
 62
1
 40
0.000000
 41
0.000000
 66
  1
  0
VERTEX
  8
gg1
 10
0.550000
 20
0.000000
  0
VERTEX
  8
gg1
 10
0.550000
 20
0.650000
  0
SEQEND
  8
gg1
  0
POLYLINE
  8
gg1
 62
1
 40
0.000000
 41
0.000000
 66
  1
  0
VERTEX
  8
gg1
 10
-0.550000
 20
0.000000
  0
VERTEX
  8
gg1
 10
0.550000
 20
0.000000
  0
SEQEND
  8
gg1
  0
POLYLINE
  8
gg1
 62
1
 40
0.000000
 41
0.000000
 66
  1
  0
VERTEX
  8
gg1
 10
-0.550000
 20
0.000000
  0
VERTEX
  8
gg1
 10
-0.550000
 20
0.650000
  0
SEQEND
  8
gg1
  0
POLYLINE
  8
gg1
 62
1
 40
0.000000
 41
0.000000
 66
  1
  0
VERTEX
  8
gg1
 10
-0.550000
 20
-0.100000
  0
VERTEX
  8
gg1
 10
-0.490000
 20
-0.080000
  0
SEQEND
  8
gg1
  0
POLYLINE
  8
gg1
 62
1
 40
0.000000
 41
0.000000
 66
  1
  0
VERTEX
  8
gg1
 10
-0.550000
 20
-0.100000
  0
VERTEX
  8
gg1
 10
-0.490000
 20
-0.120000
  0
SEQEND
  8
gg1
  0
POLYLINE
  8
gg1
 62
1
 40
0.000000
 41
0.000000
 66
  1
  0
VERTEX
  8
gg1
 10
0.490000
 20
-0.120000
  0
VERTEX
  8
gg1
 10
0.550000
 20
-0.100000
  0
SEQEND
  8
gg1
  0
POLYLINE
  8
gg1
 62
1
 40
0.000000
 41
0.000000
 66
  1
  0
VERTEX
  8
gg1
 10
0.490000
 20
-0.080000
  0
VERTEX
  8
gg1
 10
0.550000
 20
-0.100000
  0
SEQEND
  8
gg1
  0
POLYLINE
  8
gg1
 62
1
 40
0.000000
 41
0.000000
 66
  1
  0
VERTEX
  8
gg1
 10
-0.550000
 20
-0.100000
  0
VERTEX
  8
gg1
 10
-0.206900
 20
-0.100000
  0
SEQEND
  8
gg1
  0
POLYLINE
  8
gg1
 62
1
 40
0.000000
 41
0.000000
 66
  1
  0
VERTEX
  8
gg1
 10
0.174900
 20
-0.100000
  0
VERTEX
  8
gg1
 10
0.550000
 20
-0.100000
  0
SEQEND
  8
gg1
  0
POLYLINE
  8
gg1
 62
1
 40
0.000000
 41
0.000000
 66
  1
  0
VERTEX
  8
gg1
 10
-0.550000
 20
-0.110000
  0
VERTEX
  8
gg1
 10
-0.550000
 20
-0.027500
  0
SEQEND
  8
gg1
  0
POLYLINE
  8
gg1
 62
1
 40
0.000000
 41
0.000000
 66
  1
  0
VERTEX
  8
gg1
 10
0.550000
 20
-0.110000
  0
VERTEX
  8
gg1
 10
0.550000
 20
-0.027500
  0
SEQEND
  8
gg1
  0
POLYLINE
  8
gg1
 62
1
 40
0.000000
 41
0.000000
 66
  1
  0
VERTEX
  8
gg1
 10
-0.670000
 20
0.060000
  0
VERTEX
  8
gg1
 10
-0.650000
 20
0.000000
  0
VERTEX
  8
gg1
 10
-0.630000
 20
0.060000
  0
SEQEND
  8
gg1
  0
POLYLINE
  8
gg1
 62
1
 40
0.000000
 41
0.000000
 66
  1
  0
VERTEX
  8
gg1
 10
-0.650000
 20
1.200000
  0
VERTEX
  8
gg1
 10
-0.630000
 20
1.140000
  0
SEQEND
  8
gg1
  0
POLYLINE
  8
gg1
 62
1
 40
0.000000
 41
0.000000
 66
  1
  0
VERTEX
  8
gg1
 10
-0.670000
 20
1.140000
  0
VERTEX
  8
gg1
 10
-0.650000
 20
1.200000
  0
SEQEND
  8
gg1
  0
POLYLINE
  8
gg1
 62
1
 40
0.000000
 41
0.000000
 66
  1
  0
VERTEX
  8
gg1
 10
-0.650000
 20
0.000000
  0
VERTEX
  8
gg1
 10
-0.650000
 20
0.388100
  0
SEQEND
  8
gg1
  0
POLYLINE
  8
gg1
 62
1
 40
0.000000
 41
0.000000
 66
  1
  0
VERTEX
  8
gg1
 10
-0.650000
 20
0.779900
  0
VERTEX
  8
gg1
 10
-0.650000
 20
1.200000
  0
SEQEND
  8
gg1
  0
POLYLINE
  8
gg1
 62
1
 40
0.000000
 41
0.000000
 66
  1
  0
VERTEX
  8
gg1
 10
-0.660000
 20
0.000000
  0
VERTEX
  8
gg1
 10
-0.577500
 20
0.000000
  0
SEQEND
  8
gg1
  0
POLYLINE
  8
gg1
 62
1
 40
0.000000
 41
0.000000
 66
  1
  0
VERTEX
  8
gg1
 10
-0.660000
 20
1.200000
  0
VERTEX
  8
gg1
 10
-0.027500
 20
1.200000
  0
SEQEND
  8
gg1
  0
POLYLINE
  8
gg1
 62
1
 40
0.000000
 41
0.000000
 66
  1
  0
VERTEX
  8
gg1
 10
-0.190900
 20
-0.136000
  0
VERTEX
  8
gg1
 10
-0.170900
 20
-0.136000
  0
VERTEX
  8
gg1
 10
-0.180900
 20
-0.136000
  0
VERTEX
  8
gg1
 10
-0.180900
 20
-0.076000
  0
VERTEX
  8
gg1
 10
-0.190900
 20
-0.086000
  0
SEQEND
  8
gg1
  0
POLYLINE
  8
gg1
 62
1
 40
0.000000
 41
0.000000
 66
  1
  0
VERTEX
  8
gg1
 10
-0.141000
 20
-0.136000
  0
VERTEX
  8
gg1
 10
-0.121000
 20
-0.136000
  0
VERTEX
  8
gg1
 10
-0.131000
 20
-0.136000
  0
VERTEX
  8
gg1
 10
-0.131000
 20
-0.076000
  0
VERTEX
  8
gg1
 10
-0.141000
 20
-0.086000
  0
SEQEND
  8
gg1
  0
POLYLINE
  8
gg1
 62
1
 40
0.000000
 41
0.000000
 66
  1
  0
VERTEX
  8
gg1
 10
-0.091000
 20
-0.086000
  0
VERTEX
  8
gg1
 10
-0.081000
 20
-0.076000
  0
VERTEX
  8
gg1
 10
-0.061000
 20
-0.076000
  0
VERTEX
  8
gg1
 10
-0.051000
 20
-0.086000
  0
VERTEX
  8
gg1
 10
-0.051000
 20
-0.126000
  0
VERTEX
  8
gg1
 10
-0.061000
 20
-0.136000
  0
VERTEX
  8
gg1
 10
-0.081000
 20
-0.136000
  0
VERTEX
  8
gg1
 10
-0.091000
 20
-0.126000
  0
VERTEX
  8
gg1
 10
-0.091000
 20
-0.086000
  0
SEQEND
  8
gg1
  0
POLYLINE
  8
gg1
 62
1
 40
0.000000
 41
0.000000
 66
  1
  0
VERTEX
  8
gg1
 10
-0.031000
 20
-0.086000
  0
VERTEX
  8
gg1
 10
-0.021000
 20
-0.076000
  0
VERTEX
  8
gg1
 10
-0.001000
 20
-0.076000
  0
VERTEX
  8
gg1
 10
0.009000
 20
-0.086000
  0
VERTEX
  8
gg1
 10
0.009000
 20
-0.126000
  0
VERTEX
  8
gg1
 10
-0.001000
 20
-0.136000
  0
VERTEX
  8
gg1
 10
-0.021000
 20
-0.136000
  0
VERTEX
  8
gg1
 10
-0.031000
 20
-0.126000
  0
VERTEX
  8
gg1
 10
-0.031000
 20
-0.086000
  0
SEQEND
  8
gg1
  0
POLYLINE
  8
gg1
 62
1
 40
0.000000
 41
0.000000
 66
  1
  0
VERTEX
  8
gg1
 10
0.029000
 20
-0.136000
  0
VERTEX
  8
gg1
 10
0.029000
 20
-0.096000
  0
VERTEX
  8
gg1
 10
0.039000
 20
-0.096000
  0
VERTEX
  8
gg1
 10
0.049000
 20
-0.106000
  0
VERTEX
  8
gg1
 10
0.049000
 20
-0.136000
  0
VERTEX
  8
gg1
 10
0.049000
 20
-0.106000
  0
VERTEX
  8
gg1
 10
0.059000
 20
-0.096000
  0
VERTEX
  8
gg1
 10
0.069000
 20
-0.106000
  0
VERTEX
  8
gg1
 10
0.069000
 20
-0.136000
  0
SEQEND
  8
gg1
  0
POLYLINE
  8
gg1
 62
1
 40
0.000000
 41
0.000000
 66
  1
  0
VERTEX
  8
gg1
 10
0.089000
 20
-0.136000
  0
VERTEX
  8
gg1
 10
0.109000
 20
-0.136000
  0
VERTEX
  8
gg1
 10
0.099000
 20
-0.136000
  0
VERTEX
  8
gg1
 10
0.099000
 20
-0.096000
  0
VERTEX
  8
gg1
 10
0.089000
 20
-0.096000
  0
SEQEND
  8
gg1
  0
POLYLINE
  8
gg1
 62
1
 40
0.000000
 41
0.000000
 66
  1
  0
VERTEX
  8
gg1
 10
0.139000
 20
-0.136000
  0
VERTEX
  8
gg1
 10
0.158900
 20
-0.136000
  0
VERTEX
  8
gg1
 10
0.148900
 20
-0.136000
  0
VERTEX
  8
gg1
 10
0.148900
 20
-0.076000
  0
VERTEX
  8
gg1
 10
0.139000
 20
-0.076000
  0
SEQEND
  8
gg1
  0
POLYLINE
  8
gg1
 62
1
 40
0.000000
 41
0.000000
 66
  1
  0
VERTEX
  8
gg1
 10
-0.614000
 20
0.404100
  0
VERTEX
  8
gg1
 10
-0.614000
 20
0.424100
  0
VERTEX
  8
gg1
 10
-0.614000
 20
0.414100
  0
VERTEX
  8
gg1
 10
-0.674000
 20
0.414100
  0
VERTEX
  8
gg1
 10
-0.664000
 20
0.404100
  0
SEQEND
  8
gg1
  0
POLYLINE
  8
gg1
 62
1
 40
0.000000
 41
0.000000
 66
  1
  0
VERTEX
  8
gg1
 10
-0.614000
 20
0.494000
  0
VERTEX
  8
gg1
 10
-0.614000
 20
0.454000
  0
VERTEX
  8
gg1
 10
-0.654000
 20
0.494000
  0
VERTEX
  8
gg1
 10
-0.664000
 20
0.494000
  0
VERTEX
  8
gg1
 10
-0.674000
 20
0.484000
  0
VERTEX
  8
gg1
 10
-0.674000
 20
0.464000
  0
VERTEX
  8
gg1
 10
-0.664000
 20
0.454000
  0
SEQEND
  8
gg1
  0
POLYLINE
  8
gg1
 62
1
 40
0.000000
 41
0.000000
 66
  1
  0
VERTEX
  8
gg1
 10
-0.664000
 20
0.514000
  0
VERTEX
  8
gg1
 10
-0.674000
 20
0.524000
  0
VERTEX
  8
gg1
 10
-0.674000
 20
0.544000
  0
VERTEX
  8
gg1
 10
-0.664000
 20
0.554000
  0
VERTEX
  8
gg1
 10
-0.624000
 20
0.554000
  0
VERTEX
  8
gg1
 10
-0.614000
 20
0.544000
  0
VERTEX
  8
gg1
 10
-0.614000
 20
0.524000
  0
VERTEX
  8
gg1
 10
-0.624000
 20
0.514000
  0
VERTEX
  8
gg1
 10
-0.664000
 20
0.514000
  0
SEQEND
  8
gg1
  0
POLYLINE
  8
gg1
 62
1
 40
0.000000
 41
0.000000
 66
  1
  0
VERTEX
  8
gg1
 10
-0.664000
 20
0.574000
  0
VERTEX
  8
gg1
 10
-0.674000
 20
0.584000
  0
VERTEX
  8
gg1
 10
-0.674000
 20
0.604000
  0
VERTEX
  8
gg1
 10
-0.664000
 20
0.614000
  0
VERTEX
  8
gg1
 10
-0.624000
 20
0.614000
  0
VERTEX
  8
gg1
 10
-0.614000
 20
0.604000
  0
VERTEX
  8
gg1
 10
-0.614000
 20
0.584000
  0
VERTEX
  8
gg1
 10
-0.624000
 20
0.574000
  0
VERTEX
  8
gg1
 10
-0.664000
 20
0.574000
  0
SEQEND
  8
gg1
  0
POLYLINE
  8
gg1
 62
1
 40
0.000000
 41
0.000000
 66
  1
  0
VERTEX
  8
gg1
 10
-0.614000
 20
0.634000
  0
VERTEX
  8
gg1
 10
-0.654000
 20
0.634000
  0
VERTEX
  8
gg1
 10
-0.654000
 20
0.644000
  0
VERTEX
  8
gg1
 10
-0.644000
 20
0.654000
  0
VERTEX
  8
gg1
 10
-0.614000
 20
0.654000
  0
VERTEX
  8
gg1
 10
-0.644000
 20
0.654000
  0
VERTEX
  8
gg1
 10
-0.654000
 20
0.664000
  0
VERTEX
  8
gg1
 10
-0.644000
 20
0.674000
  0
VERTEX
  8
gg1
 10
-0.614000
 20
0.674000
  0
SEQEND
  8
gg1
  0
POLYLINE
  8
gg1
 62
1
 40
0.000000
 41
0.000000
 66
  1
  0
VERTEX
  8
gg1
 10
-0.614000
 20
0.694000
  0
VERTEX
  8
gg1
 10
-0.614000
 20
0.714000
  0
VERTEX
  8
gg1
 10
-0.614000
 20
0.704000
  0
VERTEX
  8
gg1
 10
-0.654000
 20
0.704000
  0
VERTEX
  8
gg1
 10
-0.654000
 20
0.694000
  0
SEQEND
  8
gg1
  0
POLYLINE
  8
gg1
 62
1
 40
0.000000
 41
0.000000
 66
  1
  0
VERTEX
  8
gg1
 10
-0.614000
 20
0.743900
  0
VERTEX
  8
gg1
 10
-0.614000
 20
0.763900
  0
VERTEX
  8
gg1
 10
-0.614000
 20
0.753900
  0
VERTEX
  8
gg1
 10
-0.674000
 20
0.753900
  0
VERTEX
  8
gg1
 10
-0.674000
 20
0.743900
  0
SEQEND
  8
gg1
  0
POLYLINE
  8
gg1
 62
1
 40
0.000000
 41
0.000000
 66
  1
  0
VERTEX
  8
gg1
 10
-0.508000
 20
0.085000
  0
VERTEX
  8
gg1
 10
-0.422000
 20
0.085000
  0
SEQEND
  8
gg1
  0
POLYLINE
  8
gg1
 62
1
 40
0.000000
 41
0.000000
 66
  1
  0
VERTEX
  8
gg1
 10
-0.465000
 20
0.042000
  0
VERTEX
  8
gg1
 10
-0.465000
 20
0.128000
  0
SEQEND
  8
gg1
  0
POLYLINE
  8
gg1
 62
1
 40
0.000000
 41
0.000000
 66
  1
  0
VERTEX
  8
gg1
 10
0.422000
 20
0.085000
  0
VERTEX
  8
gg1
 10
0.508000
 20
0.085000
  0
SEQEND
  8
gg1
  0
POLYLINE
  8
gg1
 62
1
 40
0.000000
 41
0.000000
 66
  1
  0
VERTEX
  8
gg1
 10
0.465000
 20
0.042000
  0
VERTEX
  8
gg1
 10
0.465000
 20
0.128000
  0
SEQEND
  8
gg1
  0
POLYLINE
  8
gg1
 62
1
 40
0.000000
 41
0.000000
 66
  1
  0
VERTEX
  8
gg1
 10
-0.235000
 20
0.160000
  0
VERTEX
  8
gg1
 10
-0.215000
 20
0.160000
  0
SEQEND
  8
gg1
  0
POLYLINE
  8
gg1
 62
1
 40
0.000000
 41
0.000000
 66
  1
  0
VERTEX
  8
gg1
 10
-0.225000
 20
0.150000
  0
VERTEX
  8
gg1
 10
-0.225000
 20
0.170000
  0
SEQEND
  8
gg1
  0
POLYLINE
  8
gg1
 62
1
 40
0.000000
 41
0.000000
 66
  1
  0
VERTEX
  8
gg1
 10
-0.495000
 20
0.400000
  0
VERTEX
  8
gg1
 10
-0.475000
 20
0.400000
  0
SEQEND
  8
gg1
  0
POLYLINE
  8
gg1
 62
1
 40
0.000000
 41
0.000000
 66
  1
  0
VERTEX
  8
gg1
 10
-0.485000
 20
0.390000
  0
VERTEX
  8
gg1
 10
-0.485000
 20
0.410000
  0
SEQEND
  8
gg1
  0
POLYLINE
  8
gg1
 62
1
 40
0.000000
 41
0.000000
 66
  1
  0
VERTEX
  8
gg1
 10
-0.120000
 20
0.050000
  0
VERTEX
  8
gg1
 10
-0.080000
 20
0.050000
  0
SEQEND
  8
gg1
  0
POLYLINE
  8
gg1
 62
1
 40
0.000000
 41
0.000000
 66
  1
  0
VERTEX
  8
gg1
 10
-0.100000
 20
0.030000
  0
VERTEX
  8
gg1
 10
-0.100000
 20
0.070000
  0
SEQEND
  8
gg1
  0
POLYLINE
  8
gg1
 62
1
 40
0.000000
 41
0.000000
 66
  1
  0
VERTEX
  8
gg1
 10
-0.020000
 20
0.050000
  0
VERTEX
  8
gg1
 10
0.020000
 20
0.050000
  0
SEQEND
  8
gg1
  0
POLYLINE
  8
gg1
 62
1
 40
0.000000
 41
0.000000
 66
  1
  0
VERTEX
  8
gg1
 10
0.000000
 20
0.030000
  0
VERTEX
  8
gg1
 10
0.000000
 20
0.070000
  0
SEQEND
  8
gg1
  0
POLYLINE
  8
gg1
 62
1
 40
0.000000
 41
0.000000
 66
  1
  0
VERTEX
  8
gg1
 10
0.080000
 20
0.050000
  0
VERTEX
  8
gg1
 10
0.120000
 20
0.050000
  0
SEQEND
  8
gg1
  0
POLYLINE
  8
gg1
 62
1
 40
0.000000
 41
0.000000
 66
  1
  0
VERTEX
  8
gg1
 10
0.100000
 20
0.030000
  0
VERTEX
  8
gg1
 10
0.100000
 20
0.070000
  0
SEQEND
  8
gg1
  0
POLYLINE
  8
gg1
 62
1
 40
0.000000
 41
0.000000
 66
  1
  0
VERTEX
  8
gg1
 10
0.180000
 20
0.050000
  0
VERTEX
  8
gg1
 10
0.220000
 20
0.050000
  0
SEQEND
  8
gg1
  0
POLYLINE
  8
gg1
 62
1
 40
0.000000
 41
0.000000
 66
  1
  0
VERTEX
  8
gg1
 10
0.200000
 20
0.030000
  0
VERTEX
  8
gg1
 10
0.200000
 20
0.070000
  0
SEQEND
  8
gg1
  0
POLYLINE
  8
gg1
 62
1
 40
0.000000
 41
0.000000
 66
  1
  0
VERTEX
  8
gg1
 10
0.280000
 20
0.050000
  0
VERTEX
  8
gg1
 10
0.320000
 20
0.050000
  0
SEQEND
  8
gg1
  0
POLYLINE
  8
gg1
 62
1
 40
0.000000
 41
0.000000
 66
  1
  0
VERTEX
  8
gg1
 10
0.300000
 20
0.030000
  0
VERTEX
  8
gg1
 10
0.300000
 20
0.070000
  0
SEQEND
  8
gg1
  0
POLYLINE
  8
gg1
 62
1
 40
0.000000
 41
0.000000
 66
  1
  0
VERTEX
  8
gg1
 10
-0.220000
 20
0.050000
  0
VERTEX
  8
gg1
 10
-0.180000
 20
0.050000
  0
SEQEND
  8
gg1
  0
POLYLINE
  8
gg1
 62
1
 40
0.000000
 41
0.000000
 66
  1
  0
VERTEX
  8
gg1
 10
-0.200000
 20
0.030000
  0
VERTEX
  8
gg1
 10
-0.200000
 20
0.070000
  0
SEQEND
  8
gg1
  0
POLYLINE
  8
gg1
 62
1
 40
0.000000
 41
0.000000
 66
  1
  0
VERTEX
  8
gg1
 10
-0.320000
 20
0.050000
  0
VERTEX
  8
gg1
 10
-0.280000
 20
0.050000
  0
SEQEND
  8
gg1
  0
POLYLINE
  8
gg1
 62
1
 40
0.000000
 41
0.000000
 66
  1
  0
VERTEX
  8
gg1
 10
-0.300000
 20
0.030000
  0
VERTEX
  8
gg1
 10
-0.300000
 20
0.070000
  0
SEQEND
  8
gg1
  0
POLYLINE
  8
gg1
 62
1
 40
0.000000
 41
0.000000
 66
  1
  0
VERTEX
  8
gg1
 10
0.009000
 20
0.555000
  0
VERTEX
  8
gg1
 10
0.021000
 20
0.555000
  0
SEQEND
  8
gg1
  0
POLYLINE
  8
gg1
 62
1
 40
0.000000
 41
0.000000
 66
  1
  0
VERTEX
  8
gg1
 10
0.015000
 20
0.549000
  0
VERTEX
  8
gg1
 10
0.015000
 20
0.561000
  0
SEQEND
  8
gg1
  0
POLYLINE
  8
gg1
 62
1
 40
0.000000
 41
0.000000
 66
  1
  0
VERTEX
  8
gg1
 10
-0.181000
 20
0.475000
  0
VERTEX
  8
gg1
 10
-0.169000
 20
0.475000
  0
SEQEND
  8
gg1
  0
POLYLINE
  8
gg1
 62
1
 40
0.000000
 41
0.000000
 66
  1
  0
VERTEX
  8
gg1
 10
-0.175000
 20
0.469000
  0
VERTEX
  8
gg1
 10
-0.175000
 20
0.481000
  0
SEQEND
  8
gg1
  0
POLYLINE
  8
gg1
 62
1
 40
0.000000
 41
0.000000
 66
  1
  0
VERTEX
  8
gg1
 10
0.079000
 20
0.635000
  0
VERTEX
  8
gg1
 10
0.091000
 20
0.635000
  0
SEQEND
  8
gg1
  0
POLYLINE
  8
gg1
 62
1
 40
0.000000
 41
0.000000
 66
  1
  0
VERTEX
  8
gg1
 10
0.085000
 20
0.629000
  0
VERTEX
  8
gg1
 10
0.085000
 20
0.641000
  0
SEQEND
  8
gg1
  0
POLYLINE
  8
gg1
 62
1
 40
0.000000
 41
0.000000
 66
  1
  0
VERTEX
  8
gg1
 10
-0.091000
 20
0.635000
  0
VERTEX
  8
gg1
 10
-0.079000
 20
0.635000
  0
SEQEND
  8
gg1
  0
POLYLINE
  8
gg1
 62
1
 40
0.000000
 41
0.000000
 66
  1
  0
VERTEX
  8
gg1
 10
-0.085000
 20
0.629000
  0
VERTEX
  8
gg1
 10
-0.085000
 20
0.641000
  0
SEQEND
  8
gg1
  0
POLYLINE
  8
gg1
 62
1
 40
0.000000
 41
0.000000
 66
  1
  0
VERTEX
  8
gg1
 10
-0.006000
 20
0.625000
  0
VERTEX
  8
gg1
 10
0.006000
 20
0.625000
  0
SEQEND
  8
gg1
  0
POLYLINE
  8
gg1
 62
1
 40
0.000000
 41
0.000000
 66
  1
  0
VERTEX
  8
gg1
 10
0.000000
 20
0.619000
  0
VERTEX
  8
gg1
 10
0.000000
 20
0.631000
  0
SEQEND
  8
gg1
  0
POLYLINE
  8
gg1
 62
1
 40
0.000000
 41
0.000000
 66
  1
  0
VERTEX
  8
gg1
 10
0.079000
 20
0.545000
  0
VERTEX
  8
gg1
 10
0.091000
 20
0.545000
  0
SEQEND
  8
gg1
  0
POLYLINE
  8
gg1
 62
1
 40
0.000000
 41
0.000000
 66
  1
  0
VERTEX
  8
gg1
 10
0.085000
 20
0.539000
  0
VERTEX
  8
gg1
 10
0.085000
 20
0.551000
  0
SEQEND
  8
gg1
  0
POLYLINE
  8
gg1
 62
1
 40
0.000000
 41
0.000000
 66
  1
  0
VERTEX
  8
gg1
 10
-0.116000
 20
0.540000
  0
VERTEX
  8
gg1
 10
-0.104000
 20
0.540000
  0
SEQEND
  8
gg1
  0
POLYLINE
  8
gg1
 62
1
 40
0.000000
 41
0.000000
 66
  1
  0
VERTEX
  8
gg1
 10
-0.110000
 20
0.534000
  0
VERTEX
  8
gg1
 10
-0.110000
 20
0.546000
  0
SEQEND
  8
gg1
  0
POLYLINE
  8
gg1
 62
1
 40
0.000000
 41
0.000000
 66
  1
  0
VERTEX
  8
gg1
 10
0.049000
 20
0.510000
  0
VERTEX
  8
gg1
 10
0.061000
 20
0.510000
  0
SEQEND
  8
gg1
  0
POLYLINE
  8
gg1
 62
1
 40
0.000000
 41
0.000000
 66
  1
  0
VERTEX
  8
gg1
 10
0.055000
 20
0.504000
  0
VERTEX
  8
gg1
 10
0.055000
 20
0.516000
  0
SEQEND
  8
gg1
  0
POLYLINE
  8
gg1
 62
1
 40
0.000000
 41
0.000000
 66
  1
  0
VERTEX
  8
gg1
 10
-0.379000
 20
0.185000
  0
VERTEX
  8
gg1
 10
-0.367000
 20
0.185000
  0
SEQEND
  8
gg1
  0
POLYLINE
  8
gg1
 62
1
 40
0.000000
 41
0.000000
 66
  1
  0
VERTEX
  8
gg1
 10
-0.373000
 20
0.179000
  0
VERTEX
  8
gg1
 10
-0.373000
 20
0.191000
  0
SEQEND
  8
gg1
  0
POLYLINE
  8
gg1
 62
1
 40
0.000000
 41
0.000000
 66
  1
  0
VERTEX
  8
gg1
 10
-0.466000
 20
0.221000
  0
VERTEX
  8
gg1
 10
-0.454000
 20
0.221000
  0
SEQEND
  8
gg1
  0
POLYLINE
  8
gg1
 62
1
 40
0.000000
 41
0.000000
 66
  1
  0
VERTEX
  8
gg1
 10
-0.460000
 20
0.215000
  0
VERTEX
  8
gg1
 10
-0.460000
 20
0.227000
  0
SEQEND
  8
gg1
  0
POLYLINE
  8
gg1
 62
1
 40
0.000000
 41
0.000000
 66
  1
  0
VERTEX
  8
gg1
 10
-0.339000
 20
0.120000
  0
VERTEX
  8
gg1
 10
-0.327000
 20
0.120000
  0
SEQEND
  8
gg1
  0
POLYLINE
  8
gg1
 62
1
 40
0.000000
 41
0.000000
 66
  1
  0
VERTEX
  8
gg1
 10
-0.333000
 20
0.114000
  0
VERTEX
  8
gg1
 10
-0.333000
 20
0.126000
  0
SEQEND
  8
gg1
  0
POLYLINE
  8
gg1
 62
1
 40
0.000000
 41
0.000000
 66
  1
  0
VERTEX
  8
gg1
 10
-0.466000
 20
0.645000
  0
VERTEX
  8
gg1
 10
-0.454000
 20
0.645000
  0
SEQEND
  8
gg1
  0
POLYLINE
  8
gg1
 62
1
 40
0.000000
 41
0.000000
 66
  1
  0
VERTEX
  8
gg1
 10
-0.460000
 20
0.639000
  0
VERTEX
  8
gg1
 10
-0.460000
 20
0.651000
  0
SEQEND
  8
gg1
  0
POLYLINE
  8
gg1
 62
1
 40
0.000000
 41
0.000000
 66
  1
  0
VERTEX
  8
gg1
 10
0.504000
 20
0.215000
  0
VERTEX
  8
gg1
 10
0.516000
 20
0.215000
  0
SEQEND
  8
gg1
  0
POLYLINE
  8
gg1
 62
1
 40
0.000000
 41
0.000000
 66
  1
  0
VERTEX
  8
gg1
 10
0.510000
 20
0.209000
  0
VERTEX
  8
gg1
 10
0.510000
 20
0.221000
  0
SEQEND
  8
gg1
  0
POLYLINE
  8
gg1
 62
1
 40
0.000000
 41
0.000000
 66
  1
  0
VERTEX
  8
gg1
 10
0.359000
 20
0.285000
  0
VERTEX
  8
gg1
 10
0.371000
 20
0.285000
  0
SEQEND
  8
gg1
  0
POLYLINE
  8
gg1
 62
1
 40
0.000000
 41
0.000000
 66
  1
  0
VERTEX
  8
gg1
 10
0.365000
 20
0.279000
  0
VERTEX
  8
gg1
 10
0.365000
 20
0.291000
  0
SEQEND
  8
gg1
  0
POLYLINE
  8
gg1
 62
1
 40
0.000000
 41
0.000000
 66
  1
  0
VERTEX
  8
gg1
 10
0.359000
 20
0.245000
  0
VERTEX
  8
gg1
 10
0.371000
 20
0.245000
  0
SEQEND
  8
gg1
  0
POLYLINE
  8
gg1
 62
1
 40
0.000000
 41
0.000000
 66
  1
  0
VERTEX
  8
gg1
 10
0.365000
 20
0.239000
  0
VERTEX
  8
gg1
 10
0.365000
 20
0.251000
  0
SEQEND
  8
gg1
  0
POLYLINE
  8
gg1
 62
1
 40
0.000000
 41
0.000000
 66
  1
  0
VERTEX
  8
gg1
 10
0.119000
 20
0.725000
  0
VERTEX
  8
gg1
 10
0.131000
 20
0.725000
  0
SEQEND
  8
gg1
  0
POLYLINE
  8
gg1
 62
1
 40
0.000000
 41
0.000000
 66
  1
  0
VERTEX
  8
gg1
 10
0.125000
 20
0.719000
  0
VERTEX
  8
gg1
 10
0.125000
 20
0.731000
  0
SEQEND
  8
gg1
  0
POLYLINE
  8
gg1
 62
1
 40
0.000000
 41
0.000000
 66
  1
  0
VERTEX
  8
gg1
 10
-0.231000
 20
0.675000
  0
VERTEX
  8
gg1
 10
-0.219000
 20
0.675000
  0
SEQEND
  8
gg1
  0
POLYLINE
  8
gg1
 62
1
 40
0.000000
 41
0.000000
 66
  1
  0
VERTEX
  8
gg1
 10
-0.225000
 20
0.669000
  0
VERTEX
  8
gg1
 10
-0.225000
 20
0.681000
  0
SEQEND
  8
gg1
  0
POLYLINE
  8
gg1
 62
1
 40
0.000000
 41
0.000000
 66
  1
  0
VERTEX
  8
gg1
 10
-0.181000
 20
0.725000
  0
VERTEX
  8
gg1
 10
-0.169000
 20
0.725000
  0
SEQEND
  8
gg1
  0
POLYLINE
  8
gg1
 62
1
 40
0.000000
 41
0.000000
 66
  1
  0
VERTEX
  8
gg1
 10
-0.175000
 20
0.719000
  0
VERTEX
  8
gg1
 10
-0.175000
 20
0.731000
  0
SEQEND
  8
gg1
  0
POLYLINE
  8
gg1
 62
1
 40
0.000000
 41
0.000000
 66
  1
  0
VERTEX
  8
gg1
 10
-0.081000
 20
0.725000
  0
VERTEX
  8
gg1
 10
-0.069000
 20
0.725000
  0
SEQEND
  8
gg1
  0
POLYLINE
  8
gg1
 62
1
 40
0.000000
 41
0.000000
 66
  1
  0
VERTEX
  8
gg1
 10
-0.075000
 20
0.719000
  0
VERTEX
  8
gg1
 10
-0.075000
 20
0.731000
  0
SEQEND
  8
gg1
  0
POLYLINE
  8
gg1
 62
1
 40
0.000000
 41
0.000000
 66
  1
  0
VERTEX
  8
gg1
 10
-0.129700
 20
0.773700
  0
VERTEX
  8
gg1
 10
-0.117700
 20
0.773700
  0
SEQEND
  8
gg1
  0
POLYLINE
  8
gg1
 62
1
 40
0.000000
 41
0.000000
 66
  1
  0
VERTEX
  8
gg1
 10
-0.123700
 20
0.767700
  0
VERTEX
  8
gg1
 10
-0.123700
 20
0.779700
  0
SEQEND
  8
gg1
  0
POLYLINE
  8
gg1
 62
1
 40
0.000000
 41
0.000000
 66
  1
  0
VERTEX
  8
gg1
 10
-0.081000
 20
0.825000
  0
VERTEX
  8
gg1
 10
-0.069000
 20
0.825000
  0
SEQEND
  8
gg1
  0
POLYLINE
  8
gg1
 62
1
 40
0.000000
 41
0.000000
 66
  1
  0
VERTEX
  8
gg1
 10
-0.075000
 20
0.819000
  0
VERTEX
  8
gg1
 10
-0.075000
 20
0.831000
  0
SEQEND
  8
gg1
  0
POLYLINE
  8
gg1
 62
1
 40
0.000000
 41
0.000000
 66
  1
  0
VERTEX
  8
gg1
 10
0.019000
 20
0.825000
  0
VERTEX
  8
gg1
 10
0.031000
 20
0.825000
  0
SEQEND
  8
gg1
  0
POLYLINE
  8
gg1
 62
1
 40
0.000000
 41
0.000000
 66
  1
  0
VERTEX
  8
gg1
 10
0.025000
 20
0.819000
  0
VERTEX
  8
gg1
 10
0.025000
 20
0.831000
  0
SEQEND
  8
gg1
  0
POLYLINE
  8
gg1
 62
1
 40
0.000000
 41
0.000000
 66
  1
  0
VERTEX
  8
gg1
 10
-0.031000
 20
0.775000
  0
VERTEX
  8
gg1
 10
-0.019000
 20
0.775000
  0
SEQEND
  8
gg1
  0
POLYLINE
  8
gg1
 62
1
 40
0.000000
 41
0.000000
 66
  1
  0
VERTEX
  8
gg1
 10
-0.025000
 20
0.769000
  0
VERTEX
  8
gg1
 10
-0.025000
 20
0.781000
  0
SEQEND
  8
gg1
  0
POLYLINE
  8
gg1
 62
1
 40
0.000000
 41
0.000000
 66
  1
  0
VERTEX
  8
gg1
 10
0.069000
 20
0.775000
  0
VERTEX
  8
gg1
 10
0.081000
 20
0.775000
  0
SEQEND
  8
gg1
  0
POLYLINE
  8
gg1
 62
1
 40
0.000000
 41
0.000000
 66
  1
  0
VERTEX
  8
gg1
 10
0.075000
 20
0.769000
  0
VERTEX
  8
gg1
 10
0.075000
 20
0.781000
  0
SEQEND
  8
gg1
  0
POLYLINE
  8
gg1
 62
1
 40
0.000000
 41
0.000000
 66
  1
  0
VERTEX
  8
gg1
 10
0.019000
 20
0.725000
  0
VERTEX
  8
gg1
 10
0.031000
 20
0.725000
  0
SEQEND
  8
gg1
  0
POLYLINE
  8
gg1
 62
1
 40
0.000000
 41
0.000000
 66
  1
  0
VERTEX
  8
gg1
 10
0.025000
 20
0.719000
  0
VERTEX
  8
gg1
 10
0.025000
 20
0.731000
  0
SEQEND
  8
gg1
  0
POLYLINE
  8
gg1
 62
1
 40
0.000000
 41
0.000000
 66
  1
  0
VERTEX
  8
gg1
 10
0.069000
 20
0.675000
  0
VERTEX
  8
gg1
 10
0.081000
 20
0.675000
  0
SEQEND
  8
gg1
  0
POLYLINE
  8
gg1
 62
1
 40
0.000000
 41
0.000000
 66
  1
  0
VERTEX
  8
gg1
 10
0.075000
 20
0.669000
  0
VERTEX
  8
gg1
 10
0.075000
 20
0.681000
  0
SEQEND
  8
gg1
  0
POLYLINE
  8
gg1
 62
1
 40
0.000000
 41
0.000000
 66
  1
  0
VERTEX
  8
gg1
 10
-0.031000
 20
0.675000
  0
VERTEX
  8
gg1
 10
-0.019000
 20
0.675000
  0
SEQEND
  8
gg1
  0
POLYLINE
  8
gg1
 62
1
 40
0.000000
 41
0.000000
 66
  1
  0
VERTEX
  8
gg1
 10
-0.025000
 20
0.669000
  0
VERTEX
  8
gg1
 10
-0.025000
 20
0.681000
  0
SEQEND
  8
gg1
  0
POLYLINE
  8
gg1
 62
1
 40
0.000000
 41
0.000000
 66
  1
  0
VERTEX
  8
gg1
 10
-0.131000
 20
0.675000
  0
VERTEX
  8
gg1
 10
-0.119000
 20
0.675000
  0
SEQEND
  8
gg1
  0
POLYLINE
  8
gg1
 62
1
 40
0.000000
 41
0.000000
 66
  1
  0
VERTEX
  8
gg1
 10
-0.125000
 20
0.669000
  0
VERTEX
  8
gg1
 10
-0.125000
 20
0.681000
  0
SEQEND
  8
gg1
  0
POLYLINE
  8
gg1
 62
1
 40
0.000000
 41
0.000000
 66
  1
  0
VERTEX
  8
gg1
 10
0.169000
 20
0.855000
  0
VERTEX
  8
gg1
 10
0.181000
 20
0.855000
  0
SEQEND
  8
gg1
  0
POLYLINE
  8
gg1
 62
1
 40
0.000000
 41
0.000000
 66
  1
  0
VERTEX
  8
gg1
 10
0.175000
 20
0.849000
  0
VERTEX
  8
gg1
 10
0.175000
 20
0.861000
  0
SEQEND
  8
gg1
  0
POLYLINE
  8
gg1
 62
1
 40
0.000000
 41
0.000000
 66
  1
  0
VERTEX
  8
gg1
 10
0.109000
 20
0.915000
  0
VERTEX
  8
gg1
 10
0.121000
 20
0.915000
  0
SEQEND
  8
gg1
  0
POLYLINE
  8
gg1
 62
1
 40
0.000000
 41
0.000000
 66
  1
  0
VERTEX
  8
gg1
 10
0.115000
 20
0.909000
  0
VERTEX
  8
gg1
 10
0.115000
 20
0.921000
  0
SEQEND
  8
gg1
  0
POLYLINE
  8
gg1
 62
1
 40
0.000000
 41
0.000000
 66
  1
  0
VERTEX
  8
gg1
 10
0.229000
 20
0.795000
  0
VERTEX
  8
gg1
 10
0.241000
 20
0.795000
  0
SEQEND
  8
gg1
  0
POLYLINE
  8
gg1
 62
1
 40
0.000000
 41
0.000000
 66
  1
  0
VERTEX
  8
gg1
 10
0.235000
 20
0.789000
  0
VERTEX
  8
gg1
 10
0.235000
 20
0.801000
  0
SEQEND
  8
gg1
  0
POLYLINE
  8
gg1
 62
1
 40
0.000000
 41
0.000000
 66
  1
  0
VERTEX
  8
gg1
 10
0.204000
 20
0.715300
  0
VERTEX
  8
gg1
 10
0.216000
 20
0.715300
  0
SEQEND
  8
gg1
  0
POLYLINE
  8
gg1
 62
1
 40
0.000000
 41
0.000000
 66
  1
  0
VERTEX
  8
gg1
 10
0.210000
 20
0.709300
  0
VERTEX
  8
gg1
 10
0.210000
 20
0.721400
  0
SEQEND
  8
gg1
  0
POLYLINE
  8
gg1
 62
1
 40
0.000000
 41
0.000000
 66
  1
  0
VERTEX
  8
gg1
 10
-0.326000
 20
0.745000
  0
VERTEX
  8
gg1
 10
-0.314000
 20
0.745000
  0
SEQEND
  8
gg1
  0
POLYLINE
  8
gg1
 62
1
 40
0.000000
 41
0.000000
 66
  1
  0
VERTEX
  8
gg1
 10
-0.320000
 20
0.739000
  0
VERTEX
  8
gg1
 10
-0.320000
 20
0.751000
  0
SEQEND
  8
gg1
  0
POLYLINE
  8
gg1
 62
1
 40
0.000000
 41
0.000000
 66
  1
  0
VERTEX
  8
gg1
 10
-0.236000
 20
0.865000
  0
VERTEX
  8
gg1
 10
-0.224000
 20
0.865000
  0
SEQEND
  8
gg1
  0
POLYLINE
  8
gg1
 62
1
 40
0.000000
 41
0.000000
 66
  1
  0
VERTEX
  8
gg1
 10
-0.230000
 20
0.859000
  0
VERTEX
  8
gg1
 10
-0.230000
 20
0.871000
  0
SEQEND
  8
gg1
  0
POLYLINE
  8
gg1
 62
1
 40
0.000000
 41
0.000000
 66
  1
  0
VERTEX
  8
gg1
 10
-0.096000
 20
0.985000
  0
VERTEX
  8
gg1
 10
-0.084000
 20
0.985000
  0
SEQEND
  8
gg1
  0
POLYLINE
  8
gg1
 62
1
 40
0.000000
 41
0.000000
 66
  1
  0
VERTEX
  8
gg1
 10
-0.090000
 20
0.979000
  0
VERTEX
  8
gg1
 10
-0.090000
 20
0.991000
  0
SEQEND
  8
gg1
  0
POLYLINE
  8
gg1
 62
1
 40
0.000000
 41
0.000000
 66
  1
  0
VERTEX
  8
gg1
 10
0.084000
 20
0.985000
  0
VERTEX
  8
gg1
 10
0.096000
 20
0.985000
  0
SEQEND
  8
gg1
  0
POLYLINE
  8
gg1
 62
1
 40
0.000000
 41
0.000000
 66
  1
  0
VERTEX
  8
gg1
 10
0.090000
 20
0.979000
  0
VERTEX
  8
gg1
 10
0.090000
 20
0.991000
  0
SEQEND
  8
gg1
  0
POLYLINE
  8
gg1
 62
1
 40
0.000000
 41
0.000000
 66
  1
  0
VERTEX
  8
gg1
 10
0.234000
 20
0.885000
  0
VERTEX
  8
gg1
 10
0.246000
 20
0.885000
  0
SEQEND
  8
gg1
  0
POLYLINE
  8
gg1
 62
1
 40
0.000000
 41
0.000000
 66
  1
  0
VERTEX
  8
gg1
 10
0.240000
 20
0.879000
  0
VERTEX
  8
gg1
 10
0.240000
 20
0.891000
  0
SEQEND
  8
gg1
  0
POLYLINE
  8
gg1
 62
1
 40
0.000000
 41
0.000000
 66
  1
  0
VERTEX
  8
gg1
 10
0.314000
 20
0.745000
  0
VERTEX
  8
gg1
 10
0.326000
 20
0.745000
  0
SEQEND
  8
gg1
  0
POLYLINE
  8
gg1
 62
1
 40
0.000000
 41
0.000000
 66
  1
  0
VERTEX
  8
gg1
 10
0.320000
 20
0.739000
  0
VERTEX
  8
gg1
 10
0.320000
 20
0.751000
  0
SEQEND
  8
gg1
  0
POLYLINE
  8
gg1
 62
1
 40
0.000000
 41
0.000000
 66
  1
  0
VERTEX
  8
gg1
 10
-0.006000
 20
1.165000
  0
VERTEX
  8
gg1
 10
0.006000
 20
1.165000
  0
SEQEND
  8
gg1
  0
POLYLINE
  8
gg1
 62
1
 40
0.000000
 41
0.000000
 66
  1
  0
VERTEX
  8
gg1
 10
0.000000
 20
1.159000
  0
VERTEX
  8
gg1
 10
0.000000
 20
1.171000
  0
SEQEND
  8
gg1
  0
POLYLINE
  8
gg1
 62
1
 40
0.000000
 41
0.000000
 66
  1
  0
VERTEX
  8
gg1
 10
-0.261000
 20
1.095000
  0
VERTEX
  8
gg1
 10
-0.249000
 20
1.095000
  0
SEQEND
  8
gg1
  0
POLYLINE
  8
gg1
 62
1
 40
0.000000
 41
0.000000
 66
  1
  0
VERTEX
  8
gg1
 10
-0.255000
 20
1.089000
  0
VERTEX
  8
gg1
 10
-0.255000
 20
1.101000
  0
SEQEND
  8
gg1
  0
POLYLINE
  8
gg1
 62
1
 40
0.000000
 41
0.000000
 66
  1
  0
VERTEX
  8
gg1
 10
0.249000
 20
1.095000
  0
VERTEX
  8
gg1
 10
0.261000
 20
1.095000
  0
SEQEND
  8
gg1
  0
POLYLINE
  8
gg1
 62
1
 40
0.000000
 41
0.000000
 66
  1
  0
VERTEX
  8
gg1
 10
0.255000
 20
1.089000
  0
VERTEX
  8
gg1
 10
0.255000
 20
1.101000
  0
SEQEND
  8
gg1
  0
POLYLINE
  8
gg1
 62
1
 40
0.000000
 41
0.000000
 66
  1
  0
VERTEX
  8
gg1
 10
0.439000
 20
0.905000
  0
VERTEX
  8
gg1
 10
0.451000
 20
0.905000
  0
SEQEND
  8
gg1
  0
POLYLINE
  8
gg1
 62
1
 40
0.000000
 41
0.000000
 66
  1
  0
VERTEX
  8
gg1
 10
0.445000
 20
0.899000
  0
VERTEX
  8
gg1
 10
0.445000
 20
0.911000
  0
SEQEND
  8
gg1
  0
POLYLINE
  8
gg1
 62
1
 40
0.000000
 41
0.000000
 66
  1
  0
VERTEX
  8
gg1
 10
-0.451000
 20
0.905000
  0
VERTEX
  8
gg1
 10
-0.439000
 20
0.905000
  0
SEQEND
  8
gg1
  0
POLYLINE
  8
gg1
 62
1
 40
0.000000
 41
0.000000
 66
  1
  0
VERTEX
  8
gg1
 10
-0.445000
 20
0.899000
  0
VERTEX
  8
gg1
 10
-0.445000
 20
0.911000
  0
SEQEND
  8
gg1
  0
POLYLINE
  8
gg1
 62
1
 40
0.000000
 41
0.000000
 66
  1
  0
VERTEX
  8
gg1
 10
0.304000
 20
0.640000
  0
VERTEX
  8
gg1
 10
0.316000
 20
0.640000
  0
SEQEND
  8
gg1
  0
POLYLINE
  8
gg1
 62
1
 40
0.000000
 41
0.000000
 66
  1
  0
VERTEX
  8
gg1
 10
0.310000
 20
0.634000
  0
VERTEX
  8
gg1
 10
0.310000
 20
0.646000
  0
SEQEND
  8
gg1
  0
POLYLINE
  8
gg1
 62
1
 40
0.000000
 41
0.000000
 66
  1
  0
VERTEX
  8
gg1
 10
-0.521000
 20
0.650000
  0
VERTEX
  8
gg1
 10
-0.509000
 20
0.650000
  0
SEQEND
  8
gg1
  0
POLYLINE
  8
gg1
 62
1
 40
0.000000
 41
0.000000
 66
  1
  0
VERTEX
  8
gg1
 10
-0.515000
 20
0.644000
  0
VERTEX
  8
gg1
 10
-0.515000
 20
0.656000
  0
SEQEND
  8
gg1
  0
POLYLINE
  8
gg1
 62
1
 40
0.000000
 41
0.000000
 66
  1
  0
VERTEX
  8
gg1
 10
0.509000
 20
0.650000
  0
VERTEX
  8
gg1
 10
0.521000
 20
0.650000
  0
SEQEND
  8
gg1
  0
POLYLINE
  8
gg1
 62
1
 40
0.000000
 41
0.000000
 66
  1
  0
VERTEX
  8
gg1
 10
0.515000
 20
0.644000
  0
VERTEX
  8
gg1
 10
0.515000
 20
0.656000
  0
SEQEND
  8
gg1
  0
POLYLINE
  8
gg1
 62
1
 40
0.000000
 41
0.000000
 66
  1
  0
VERTEX
  8
gg1
 10
-0.416000
 20
0.680000
  0
VERTEX
  8
gg1
 10
-0.404000
 20
0.680000
  0
SEQEND
  8
gg1
  0
POLYLINE
  8
gg1
 62
1
 40
0.000000
 41
0.000000
 66
  1
  0
VERTEX
  8
gg1
 10
-0.410000
 20
0.674000
  0
VERTEX
  8
gg1
 10
-0.410000
 20
0.686000
  0
SEQEND
  8
gg1
  0
POLYLINE
  8
gg1
 62
1
 40
0.000000
 41
0.000000
 66
  1
  0
VERTEX
  8
gg1
 10
-0.361000
 20
0.855000
  0
VERTEX
  8
gg1
 10
-0.349000
 20
0.855000
  0
SEQEND
  8
gg1
  0
POLYLINE
  8
gg1
 62
1
 40
0.000000
 41
0.000000
 66
  1
  0
VERTEX
  8
gg1
 10
-0.355000
 20
0.849000
  0
VERTEX
  8
gg1
 10
-0.355000
 20
0.861000
  0
SEQEND
  8
gg1
  0
POLYLINE
  8
gg1
 62
1
 40
0.000000
 41
0.000000
 66
  1
  0
VERTEX
  8
gg1
 10
0.349000
 20
0.855000
  0
VERTEX
  8
gg1
 10
0.361000
 20
0.855000
  0
SEQEND
  8
gg1
  0
POLYLINE
  8
gg1
 62
1
 40
0.000000
 41
0.000000
 66
  1
  0
VERTEX
  8
gg1
 10
0.355000
 20
0.849000
  0
VERTEX
  8
gg1
 10
0.355000
 20
0.861000
  0
SEQEND
  8
gg1
  0
POLYLINE
  8
gg1
 62
1
 40
0.000000
 41
0.000000
 66
  1
  0
VERTEX
  8
gg1
 10
0.199000
 20
1.005000
  0
VERTEX
  8
gg1
 10
0.211000
 20
1.005000
  0
SEQEND
  8
gg1
  0
POLYLINE
  8
gg1
 62
1
 40
0.000000
 41
0.000000
 66
  1
  0
VERTEX
  8
gg1
 10
0.205000
 20
0.999000
  0
VERTEX
  8
gg1
 10
0.205000
 20
1.011000
  0
SEQEND
  8
gg1
  0
POLYLINE
  8
gg1
 62
1
 40
0.000000
 41
0.000000
 66
  1
  0
VERTEX
  8
gg1
 10
-0.006000
 20
1.060000
  0
VERTEX
  8
gg1
 10
0.006000
 20
1.060000
  0
SEQEND
  8
gg1
  0
POLYLINE
  8
gg1
 62
1
 40
0.000000
 41
0.000000
 66
  1
  0
VERTEX
  8
gg1
 10
0.000000
 20
1.054000
  0
VERTEX
  8
gg1
 10
0.000000
 20
1.066000
  0
SEQEND
  8
gg1
  0
POLYLINE
  8
gg1
 62
1
 40
0.000000
 41
0.000000
 66
  1
  0
VERTEX
  8
gg1
 10
-0.211000
 20
1.005000
  0
VERTEX
  8
gg1
 10
-0.199000
 20
1.005000
  0
SEQEND
  8
gg1
  0
POLYLINE
  8
gg1
 62
1
 40
0.000000
 41
0.000000
 66
  1
  0
VERTEX
  8
gg1
 10
-0.205000
 20
0.999000
  0
VERTEX
  8
gg1
 10
-0.205000
 20
1.011000
  0
SEQEND
  8
gg1
  0
POLYLINE
  8
gg1
 62
1
 40
0.000000
 41
0.000000
 66
  1
  0
VERTEX
  8
gg1
 10
-0.056000
 20
0.920000
  0
VERTEX
  8
gg1
 10
-0.044000
 20
0.920000
  0
SEQEND
  8
gg1
  0
POLYLINE
  8
gg1
 62
1
 40
0.000000
 41
0.000000
 66
  1
  0
VERTEX
  8
gg1
 10
-0.050000
 20
0.914000
  0
VERTEX
  8
gg1
 10
-0.050000
 20
0.926000
  0
SEQEND
  8
gg1
  0
POLYLINE
  8
gg1
 62
1
 40
0.000000
 41
0.000000
 66
  1
  0
VERTEX
  8
gg1
 10
-0.156000
 20
0.900000
  0
VERTEX
  8
gg1
 10
-0.144000
 20
0.900000
  0
SEQEND
  8
gg1
  0
POLYLINE
  8
gg1
 62
1
 40
0.000000
 41
0.000000
 66
  1
  0
VERTEX
  8
gg1
 10
-0.150000
 20
0.894000
  0
VERTEX
  8
gg1
 10
-0.150000
 20
0.906000
  0
SEQEND
  8
gg1
  0
POLYLINE
  8
gg1
 62
1
 40
0.000000
 41
0.000000
 66
  1
  0
VERTEX
  8
gg1
 10
-0.191000
 20
0.795000
  0
VERTEX
  8
gg1
 10
-0.179000
 20
0.795000
  0
SEQEND
  8
gg1
  0
POLYLINE
  8
gg1
 62
1
 40
0.000000
 41
0.000000
 66
  1
  0
VERTEX
  8
gg1
 10
-0.185000
 20
0.789000
  0
VERTEX
  8
gg1
 10
-0.185000
 20
0.801000
  0
SEQEND
  8
gg1
  0
POLYLINE
  8
gg1
 62
1
 40
0.000000
 41
0.000000
 66
  1
  0
VERTEX
  8
gg1
 10
0.011500
 20
0.885000
  0
VERTEX
  8
gg1
 10
0.023500
 20
0.885000
  0
SEQEND
  8
gg1
  0
POLYLINE
  8
gg1
 62
1
 40
0.000000
 41
0.000000
 66
  1
  0
VERTEX
  8
gg1
 10
0.017500
 20
0.879000
  0
VERTEX
  8
gg1
 10
0.017500
 20
0.891000
  0
SEQEND
  8
gg1
  0
POLYLINE
  8
gg1
 62
1
 40
0.000000
 41
0.000000
 66
  1
  0
VERTEX
  8
gg1
 10
0.229000
 20
0.745000
  0
VERTEX
  8
gg1
 10
0.241000
 20
0.745000
  0
SEQEND
  8
gg1
  0
POLYLINE
  8
gg1
 62
1
 40
0.000000
 41
0.000000
 66
  1
  0
VERTEX
  8
gg1
 10
0.235000
 20
0.739000
  0
VERTEX
  8
gg1
 10
0.235000
 20
0.751000
  0
SEQEND
  8
gg1
  0
POLYLINE
  8
gg1
 62
1
 40
0.000000
 41
0.000000
 66
  1
  0
VERTEX
  8
gg1
 10
-0.316000
 20
0.260000
  0
VERTEX
  8
gg1
 10
-0.304000
 20
0.260000
  0
SEQEND
  8
gg1
  0
POLYLINE
  8
gg1
 62
1
 40
0.000000
 41
0.000000
 66
  1
  0
VERTEX
  8
gg1
 10
-0.310000
 20
0.254000
  0
VERTEX
  8
gg1
 10
-0.310000
 20
0.266000
  0
SEQEND
  8
gg1
  0
POLYLINE
  8
gg1
 62
1
 40
0.000000
 41
0.000000
 66
  1
  0
VERTEX
  8
gg1
 10
-0.321000
 20
0.380000
  0
VERTEX
  8
gg1
 10
-0.309000
 20
0.380000
  0
SEQEND
  8
gg1
  0
POLYLINE
  8
gg1
 62
1
 40
0.000000
 41
0.000000
 66
  1
  0
VERTEX
  8
gg1
 10
-0.315000
 20
0.374000
  0
VERTEX
  8
gg1
 10
-0.315000
 20
0.386000
  0
SEQEND
  8
gg1
  0
POLYLINE
  8
gg1
 62
1
 40
0.000000
 41
0.000000
 66
  1
  0
VERTEX
  8
gg1
 10
-0.031000
 20
0.402500
  0
VERTEX
  8
gg1
 10
-0.019000
 20
0.402500
  0
SEQEND
  8
gg1
  0
POLYLINE
  8
gg1
 62
1
 40
0.000000
 41
0.000000
 66
  1
  0
VERTEX
  8
gg1
 10
-0.025000
 20
0.396500
  0
VERTEX
  8
gg1
 10
-0.025000
 20
0.408500
  0
SEQEND
  8
gg1
  0
POLYLINE
  8
gg1
 62
1
 40
0.000000
 41
0.000000
 66
  1
  0
VERTEX
  8
gg1
 10
-0.161000
 20
0.160000
  0
VERTEX
  8
gg1
 10
-0.149000
 20
0.160000
  0
SEQEND
  8
gg1
  0
POLYLINE
  8
gg1
 62
1
 40
0.000000
 41
0.000000
 66
  1
  0
VERTEX
  8
gg1
 10
-0.155000
 20
0.154000
  0
VERTEX
  8
gg1
 10
-0.155000
 20
0.166000
  0
SEQEND
  8
gg1
  0
POLYLINE
  8
gg1
 62
1
 40
0.000000
 41
0.000000
 66
  1
  0
VERTEX
  8
gg1
 10
-0.096000
 20
0.140000
  0
VERTEX
  8
gg1
 10
-0.084000
 20
0.140000
  0
SEQEND
  8
gg1
  0
POLYLINE
  8
gg1
 62
1
 40
0.000000
 41
0.000000
 66
  1
  0
VERTEX
  8
gg1
 10
-0.090000
 20
0.134000
  0
VERTEX
  8
gg1
 10
-0.090000
 20
0.146000
  0
SEQEND
  8
gg1
  0
POLYLINE
  8
gg1
 62
1
 40
0.000000
 41
0.000000
 66
  1
  0
VERTEX
  8
gg1
 10
-0.181000
 20
0.625000
  0
VERTEX
  8
gg1
 10
-0.169000
 20
0.625000
  0
SEQEND
  8
gg1
  0
POLYLINE
  8
gg1
 62
1
 40
0.000000
 41
0.000000
 66
  1
  0
VERTEX
  8
gg1
 10
-0.175000
 20
0.619000
  0
VERTEX
  8
gg1
 10
-0.175000
 20
0.631000
  0
SEQEND
  8
gg1
  0
POLYLINE
  8
gg1
 62
1
 40
0.000000
 41
0.000000
 66
  1
  0
VERTEX
  8
gg1
 10
-0.281000
 20
0.625000
  0
VERTEX
  8
gg1
 10
-0.269000
 20
0.625000
  0
SEQEND
  8
gg1
  0
POLYLINE
  8
gg1
 62
1
 40
0.000000
 41
0.000000
 66
  1
  0
VERTEX
  8
gg1
 10
-0.275000
 20
0.619000
  0
VERTEX
  8
gg1
 10
-0.275000
 20
0.631000
  0
SEQEND
  8
gg1
  0
POLYLINE
  8
gg1
 62
1
 40
0.000000
 41
0.000000
 66
  1
  0
VERTEX
  8
gg1
 10
-0.371000
 20
0.605000
  0
VERTEX
  8
gg1
 10
-0.359000
 20
0.605000
  0
SEQEND
  8
gg1
  0
POLYLINE
  8
gg1
 62
1
 40
0.000000
 41
0.000000
 66
  1
  0
VERTEX
  8
gg1
 10
-0.365000
 20
0.599000
  0
VERTEX
  8
gg1
 10
-0.365000
 20
0.611000
  0
SEQEND
  8
gg1
  0
POLYLINE
  8
gg1
 62
1
 40
0.000000
 41
0.000000
 66
  1
  0
VERTEX
  8
gg1
 10
-0.161000
 20
0.235000
  0
VERTEX
  8
gg1
 10
-0.149000
 20
0.235000
  0
SEQEND
  8
gg1
  0
POLYLINE
  8
gg1
 62
1
 40
0.000000
 41
0.000000
 66
  1
  0
VERTEX
  8
gg1
 10
-0.155000
 20
0.229000
  0
VERTEX
  8
gg1
 10
-0.155000
 20
0.241000
  0
SEQEND
  8
gg1
  0
POLYLINE
  8
gg1
 62
1
 40
0.000000
 41
0.000000
 66
  1
  0
VERTEX
  8
gg1
 10
-0.181000
 20
0.555000
  0
VERTEX
  8
gg1
 10
-0.169000
 20
0.555000
  0
SEQEND
  8
gg1
  0
POLYLINE
  8
gg1
 62
1
 40
0.000000
 41
0.000000
 66
  1
  0
VERTEX
  8
gg1
 10
-0.175000
 20
0.549000
  0
VERTEX
  8
gg1
 10
-0.175000
 20
0.561000
  0
SEQEND
  8
gg1
  0
POLYLINE
  8
gg1
 62
1
 40
0.000000
 41
0.000000
 66
  1
  0
VERTEX
  8
gg1
 10
-0.101000
 20
0.485000
  0
VERTEX
  8
gg1
 10
-0.089000
 20
0.485000
  0
SEQEND
  8
gg1
  0
POLYLINE
  8
gg1
 62
1
 40
0.000000
 41
0.000000
 66
  1
  0
VERTEX
  8
gg1
 10
-0.095000
 20
0.479000
  0
VERTEX
  8
gg1
 10
-0.095000
 20
0.491000
  0
SEQEND
  8
gg1
  0
POLYLINE
  8
gg1
 62
1
 40
0.000000
 41
0.000000
 66
  1
  0
VERTEX
  8
gg1
 10
-0.216000
 20
0.305000
  0
VERTEX
  8
gg1
 10
-0.204000
 20
0.305000
  0
SEQEND
  8
gg1
  0
POLYLINE
  8
gg1
 62
1
 40
0.000000
 41
0.000000
 66
  1
  0
VERTEX
  8
gg1
 10
-0.210000
 20
0.299000
  0
VERTEX
  8
gg1
 10
-0.210000
 20
0.311000
  0
SEQEND
  8
gg1
  0
POLYLINE
  8
gg1
 62
1
 40
0.000000
 41
0.000000
 66
  1
  0
VERTEX
  8
gg1
 10
-0.231000
 20
0.475000
  0
VERTEX
  8
gg1
 10
-0.219000
 20
0.475000
  0
SEQEND
  8
gg1
  0
POLYLINE
  8
gg1
 62
1
 40
0.000000
 41
0.000000
 66
  1
  0
VERTEX
  8
gg1
 10
-0.225000
 20
0.469000
  0
VERTEX
  8
gg1
 10
-0.225000
 20
0.481000
  0
SEQEND
  8
gg1
  0
POLYLINE
  8
gg1
 62
1
 40
0.000000
 41
0.000000
 66
  1
  0
VERTEX
  8
gg1
 10
-0.221000
 20
0.220000
  0
VERTEX
  8
gg1
 10
-0.209000
 20
0.220000
  0
SEQEND
  8
gg1
  0
POLYLINE
  8
gg1
 62
1
 40
0.000000
 41
0.000000
 66
  1
  0
VERTEX
  8
gg1
 10
-0.215000
 20
0.214000
  0
VERTEX
  8
gg1
 10
-0.215000
 20
0.226000
  0
SEQEND
  8
gg1
  0
POLYLINE
  8
gg1
 62
1
 40
0.000000
 41
0.000000
 66
  1
  0
VERTEX
  8
gg1
 10
-0.216000
 20
0.395000
  0
VERTEX
  8
gg1
 10
-0.204000
 20
0.395000
  0
SEQEND
  8
gg1
  0
POLYLINE
  8
gg1
 62
1
 40
0.000000
 41
0.000000
 66
  1
  0
VERTEX
  8
gg1
 10
-0.210000
 20
0.389000
  0
VERTEX
  8
gg1
 10
-0.210000
 20
0.401000
  0
SEQEND
  8
gg1
  0
POLYLINE
  8
gg1
 62
1
 40
0.000000
 41
0.000000
 66
  1
  0
VERTEX
  8
gg1
 10
-0.231000
 20
0.555000
  0
VERTEX
  8
gg1
 10
-0.219000
 20
0.555000
  0
SEQEND
  8
gg1
  0
POLYLINE
  8
gg1
 62
1
 40
0.000000
 41
0.000000
 66
  1
  0
VERTEX
  8
gg1
 10
-0.225000
 20
0.549000
  0
VERTEX
  8
gg1
 10
-0.225000
 20
0.561000
  0
SEQEND
  8
gg1
  0
POLYLINE
  8
gg1
 62
1
 40
0.000000
 41
0.000000
 66
  1
  0
VERTEX
  8
gg1
 10
-0.291000
 20
0.555000
  0
VERTEX
  8
gg1
 10
-0.279000
 20
0.555000
  0
SEQEND
  8
gg1
  0
POLYLINE
  8
gg1
 62
1
 40
0.000000
 41
0.000000
 66
  1
  0
VERTEX
  8
gg1
 10
-0.285000
 20
0.549000
  0
VERTEX
  8
gg1
 10
-0.285000
 20
0.561000
  0
SEQEND
  8
gg1
  0
POLYLINE
  8
gg1
 62
1
 40
0.000000
 41
0.000000
 66
  1
  0
VERTEX
  8
gg1
 10
-0.351000
 20
0.555000
  0
VERTEX
  8
gg1
 10
-0.339000
 20
0.555000
  0
SEQEND
  8
gg1
  0
POLYLINE
  8
gg1
 62
1
 40
0.000000
 41
0.000000
 66
  1
  0
VERTEX
  8
gg1
 10
-0.345000
 20
0.549000
  0
VERTEX
  8
gg1
 10
-0.345000
 20
0.561000
  0
SEQEND
  8
gg1
  0
POLYLINE
  8
gg1
 62
1
 40
0.000000
 41
0.000000
 66
  1
  0
VERTEX
  8
gg1
 10
-0.456000
 20
0.395000
  0
VERTEX
  8
gg1
 10
-0.444000
 20
0.395000
  0
SEQEND
  8
gg1
  0
POLYLINE
  8
gg1
 62
1
 40
0.000000
 41
0.000000
 66
  1
  0
VERTEX
  8
gg1
 10
-0.450000
 20
0.389000
  0
VERTEX
  8
gg1
 10
-0.450000
 20
0.401000
  0
SEQEND
  8
gg1
  0
POLYLINE
  8
gg1
 62
1
 40
0.000000
 41
0.000000
 66
  1
  0
VERTEX
  8
gg1
 10
-0.411000
 20
0.375000
  0
VERTEX
  8
gg1
 10
-0.399000
 20
0.375000
  0
SEQEND
  8
gg1
  0
POLYLINE
  8
gg1
 62
1
 40
0.000000
 41
0.000000
 66
  1
  0
VERTEX
  8
gg1
 10
-0.405000
 20
0.369000
  0
VERTEX
  8
gg1
 10
-0.405000
 20
0.381000
  0
SEQEND
  8
gg1
  0
POLYLINE
  8
gg1
 62
1
 40
0.000000
 41
0.000000
 66
  1
  0
VERTEX
  8
gg1
 10
-0.161000
 20
0.350000
  0
VERTEX
  8
gg1
 10
-0.149000
 20
0.350000
  0
SEQEND
  8
gg1
  0
POLYLINE
  8
gg1
 62
1
 40
0.000000
 41
0.000000
 66
  1
  0
VERTEX
  8
gg1
 10
-0.155000
 20
0.344000
  0
VERTEX
  8
gg1
 10
-0.155000
 20
0.356000
  0
SEQEND
  8
gg1
  0
POLYLINE
  8
gg1
 62
1
 40
0.000000
 41
0.000000
 66
  1
  0
VERTEX
  8
gg1
 10
-0.091000
 20
0.330000
  0
VERTEX
  8
gg1
 10
-0.079000
 20
0.330000
  0
SEQEND
  8
gg1
  0
POLYLINE
  8
gg1
 62
1
 40
0.000000
 41
0.000000
 66
  1
  0
VERTEX
  8
gg1
 10
-0.085000
 20
0.324000
  0
VERTEX
  8
gg1
 10
-0.085000
 20
0.336000
  0
SEQEND
  8
gg1
  0
POLYLINE
  8
gg1
 62
1
 40
0.000000
 41
0.000000
 66
  1
  0
VERTEX
  8
gg1
 10
-0.351000
 20
0.330000
  0
VERTEX
  8
gg1
 10
-0.339000
 20
0.330000
  0
SEQEND
  8
gg1
  0
POLYLINE
  8
gg1
 62
1
 40
0.000000
 41
0.000000
 66
  1
  0
VERTEX
  8
gg1
 10
-0.345000
 20
0.324000
  0
VERTEX
  8
gg1
 10
-0.345000
 20
0.336000
  0
SEQEND
  8
gg1
  0
POLYLINE
  8
gg1
 62
1
 40
0.000000
 41
0.000000
 66
  1
  0
VERTEX
  8
gg1
 10
-0.371000
 20
0.310000
  0
VERTEX
  8
gg1
 10
-0.359000
 20
0.310000
  0
SEQEND
  8
gg1
  0
POLYLINE
  8
gg1
 62
1
 40
0.000000
 41
0.000000
 66
  1
  0
VERTEX
  8
gg1
 10
-0.365000
 20
0.304000
  0
VERTEX
  8
gg1
 10
-0.365000
 20
0.316000
  0
SEQEND
  8
gg1
  0
POLYLINE
  8
gg1
 62
1
 40
0.000000
 41
0.000000
 66
  1
  0
VERTEX
  8
gg1
 10
-0.016000
 20
0.110000
  0
VERTEX
  8
gg1
 10
-0.004000
 20
0.110000
  0
SEQEND
  8
gg1
  0
POLYLINE
  8
gg1
 62
1
 40
0.000000
 41
0.000000
 66
  1
  0
VERTEX
  8
gg1
 10
-0.010000
 20
0.104000
  0
VERTEX
  8
gg1
 10
-0.010000
 20
0.116000
  0
SEQEND
  8
gg1
  0
POLYLINE
  8
gg1
 62
1
 40
0.000000
 41
0.000000
 66
  1
  0
VERTEX
  8
gg1
 10
0.313000
 20
0.149000
  0
VERTEX
  8
gg1
 10
0.325000
 20
0.149000
  0
SEQEND
  8
gg1
  0
POLYLINE
  8
gg1
 62
1
 40
0.000000
 41
0.000000
 66
  1
  0
VERTEX
  8
gg1
 10
0.319000
 20
0.143000
  0
VERTEX
  8
gg1
 10
0.319000
 20
0.155000
  0
SEQEND
  8
gg1
  0
POLYLINE
  8
gg1
 62
1
 40
0.000000
 41
0.000000
 66
  1
  0
VERTEX
  8
gg1
 10
0.219000
 20
0.165000
  0
VERTEX
  8
gg1
 10
0.231000
 20
0.165000
  0
SEQEND
  8
gg1
  0
POLYLINE
  8
gg1
 62
1
 40
0.000000
 41
0.000000
 66
  1
  0
VERTEX
  8
gg1
 10
0.225000
 20
0.159000
  0
VERTEX
  8
gg1
 10
0.225000
 20
0.171000
  0
SEQEND
  8
gg1
  0
POLYLINE
  8
gg1
 62
1
 40
0.000000
 41
0.000000
 66
  1
  0
VERTEX
  8
gg1
 10
0.384000
 20
0.640000
  0
VERTEX
  8
gg1
 10
0.396000
 20
0.640000
  0
SEQEND
  8
gg1
  0
POLYLINE
  8
gg1
 62
1
 40
0.000000
 41
0.000000
 66
  1
  0
VERTEX
  8
gg1
 10
0.390000
 20
0.634000
  0
VERTEX
  8
gg1
 10
0.390000
 20
0.646000
  0
SEQEND
  8
gg1
  0
POLYLINE
  8
gg1
 62
1
 40
0.000000
 41
0.000000
 66
  1
  0
VERTEX
  8
gg1
 10
0.069000
 20
0.375000
  0
VERTEX
  8
gg1
 10
0.081000
 20
0.375000
  0
SEQEND
  8
gg1
  0
POLYLINE
  8
gg1
 62
1
 40
0.000000
 41
0.000000
 66
  1
  0
VERTEX
  8
gg1
 10
0.075000
 20
0.369000
  0
VERTEX
  8
gg1
 10
0.075000
 20
0.381000
  0
SEQEND
  8
gg1
  0
POLYLINE
  8
gg1
 62
1
 40
0.000000
 41
0.000000
 66
  1
  0
VERTEX
  8
gg1
 10
0.379000
 20
0.315000
  0
VERTEX
  8
gg1
 10
0.391000
 20
0.315000
  0
SEQEND
  8
gg1
  0
POLYLINE
  8
gg1
 62
1
 40
0.000000
 41
0.000000
 66
  1
  0
VERTEX
  8
gg1
 10
0.385000
 20
0.309000
  0
VERTEX
  8
gg1
 10
0.385000
 20
0.321000
  0
SEQEND
  8
gg1
  0
POLYLINE
  8
gg1
 62
1
 40
0.000000
 41
0.000000
 66
  1
  0
VERTEX
  8
gg1
 10
0.044000
 20
0.265000
  0
VERTEX
  8
gg1
 10
0.056000
 20
0.265000
  0
SEQEND
  8
gg1
  0
POLYLINE
  8
gg1
 62
1
 40
0.000000
 41
0.000000
 66
  1
  0
VERTEX
  8
gg1
 10
0.050000
 20
0.259000
  0
VERTEX
  8
gg1
 10
0.050000
 20
0.271000
  0
SEQEND
  8
gg1
  0
POLYLINE
  8
gg1
 62
1
 40
0.000000
 41
0.000000
 66
  1
  0
VERTEX
  8
gg1
 10
-0.011000
 20
0.235000
  0
VERTEX
  8
gg1
 10
0.001000
 20
0.235000
  0
SEQEND
  8
gg1
  0
POLYLINE
  8
gg1
 62
1
 40
0.000000
 41
0.000000
 66
  1
  0
VERTEX
  8
gg1
 10
-0.005000
 20
0.229000
  0
VERTEX
  8
gg1
 10
-0.005000
 20
0.241000
  0
SEQEND
  8
gg1
  0
POLYLINE
  8
gg1
 62
1
 40
0.000000
 41
0.000000
 66
  1
  0
VERTEX
  8
gg1
 10
-0.086000
 20
0.265000
  0
VERTEX
  8
gg1
 10
-0.074000
 20
0.265000
  0
SEQEND
  8
gg1
  0
POLYLINE
  8
gg1
 62
1
 40
0.000000
 41
0.000000
 66
  1
  0
VERTEX
  8
gg1
 10
-0.080000
 20
0.259000
  0
VERTEX
  8
gg1
 10
-0.080000
 20
0.271000
  0
SEQEND
  8
gg1
  0
POLYLINE
  8
gg1
 62
1
 40
0.000000
 41
0.000000
 66
  1
  0
VERTEX
  8
gg1
 10
0.069000
 20
0.440000
  0
VERTEX
  8
gg1
 10
0.081000
 20
0.440000
  0
SEQEND
  8
gg1
  0
POLYLINE
  8
gg1
 62
1
 40
0.000000
 41
0.000000
 66
  1
  0
VERTEX
  8
gg1
 10
0.075000
 20
0.434000
  0
VERTEX
  8
gg1
 10
0.075000
 20
0.446000
  0
SEQEND
  8
gg1
  0
POLYLINE
  8
gg1
 62
1
 40
0.000000
 41
0.000000
 66
  1
  0
VERTEX
  8
gg1
 10
-0.031000
 20
0.360000
  0
VERTEX
  8
gg1
 10
-0.019000
 20
0.360000
  0
SEQEND
  8
gg1
  0
POLYLINE
  8
gg1
 62
1
 40
0.000000
 41
0.000000
 66
  1
  0
VERTEX
  8
gg1
 10
-0.025000
 20
0.354000
  0
VERTEX
  8
gg1
 10
-0.025000
 20
0.366000
  0
SEQEND
  8
gg1
  0
POLYLINE
  8
gg1
 62
1
 40
0.000000
 41
0.000000
 66
  1
  0
VERTEX
  8
gg1
 10
-0.121000
 20
0.590000
  0
VERTEX
  8
gg1
 10
-0.109000
 20
0.590000
  0
SEQEND
  8
gg1
  0
POLYLINE
  8
gg1
 62
1
 40
0.000000
 41
0.000000
 66
  1
  0
VERTEX
  8
gg1
 10
-0.115000
 20
0.584000
  0
VERTEX
  8
gg1
 10
-0.115000
 20
0.596000
  0
SEQEND
  8
gg1
  0
POLYLINE
  8
gg1
 62
1
 40
0.000000
 41
0.000000
 66
  1
  0
VERTEX
  8
gg1
 10
0.109000
 20
0.590000
  0
VERTEX
  8
gg1
 10
0.121000
 20
0.590000
  0
SEQEND
  8
gg1
  0
POLYLINE
  8
gg1
 62
1
 40
0.000000
 41
0.000000
 66
  1
  0
VERTEX
  8
gg1
 10
0.115000
 20
0.584000
  0
VERTEX
  8
gg1
 10
0.115000
 20
0.596000
  0
SEQEND
  8
gg1
  0
POLYLINE
  8
gg1
 62
1
 40
0.000000
 41
0.000000
 66
  1
  0
VERTEX
  8
gg1
 10
0.164000
 20
0.620000
  0
VERTEX
  8
gg1
 10
0.176000
 20
0.620000
  0
SEQEND
  8
gg1
  0
POLYLINE
  8
gg1
 62
1
 40
0.000000
 41
0.000000
 66
  1
  0
VERTEX
  8
gg1
 10
0.170000
 20
0.614000
  0
VERTEX
  8
gg1
 10
0.170000
 20
0.626000
  0
SEQEND
  8
gg1
  0
POLYLINE
  8
gg1
 62
1
 40
0.000000
 41
0.000000
 66
  1
  0
VERTEX
  8
gg1
 10
0.371500
 20
0.450000
  0
VERTEX
  8
gg1
 10
0.383500
 20
0.450000
  0
SEQEND
  8
gg1
  0
POLYLINE
  8
gg1
 62
1
 40
0.000000
 41
0.000000
 66
  1
  0
VERTEX
  8
gg1
 10
0.377500
 20
0.444000
  0
VERTEX
  8
gg1
 10
0.377500
 20
0.456000
  0
SEQEND
  8
gg1
  0
POLYLINE
  8
gg1
 62
1
 40
0.000000
 41
0.000000
 66
  1
  0
VERTEX
  8
gg1
 10
0.434000
 20
0.380000
  0
VERTEX
  8
gg1
 10
0.446000
 20
0.380000
  0
SEQEND
  8
gg1
  0
POLYLINE
  8
gg1
 62
1
 40
0.000000
 41
0.000000
 66
  1
  0
VERTEX
  8
gg1
 10
0.440000
 20
0.374000
  0
VERTEX
  8
gg1
 10
0.440000
 20
0.386000
  0
SEQEND
  8
gg1
  0
POLYLINE
  8
gg1
 62
1
 40
0.000000
 41
0.000000
 66
  1
  0
VERTEX
  8
gg1
 10
0.434000
 20
0.340000
  0
VERTEX
  8
gg1
 10
0.446000
 20
0.340000
  0
SEQEND
  8
gg1
  0
POLYLINE
  8
gg1
 62
1
 40
0.000000
 41
0.000000
 66
  1
  0
VERTEX
  8
gg1
 10
0.440000
 20
0.334000
  0
VERTEX
  8
gg1
 10
0.440000
 20
0.346000
  0
SEQEND
  8
gg1
  0
POLYLINE
  8
gg1
 62
1
 40
0.000000
 41
0.000000
 66
  1
  0
VERTEX
  8
gg1
 10
0.414000
 20
0.305000
  0
VERTEX
  8
gg1
 10
0.426000
 20
0.305000
  0
SEQEND
  8
gg1
  0
POLYLINE
  8
gg1
 62
1
 40
0.000000
 41
0.000000
 66
  1
  0
VERTEX
  8
gg1
 10
0.420000
 20
0.299000
  0
VERTEX
  8
gg1
 10
0.420000
 20
0.311000
  0
SEQEND
  8
gg1
  0
POLYLINE
  8
gg1
 62
1
 40
0.000000
 41
0.000000
 66
  1
  0
VERTEX
  8
gg1
 10
0.112100
 20
0.210000
  0
VERTEX
  8
gg1
 10
0.124100
 20
0.210000
  0
SEQEND
  8
gg1
  0
POLYLINE
  8
gg1
 62
1
 40
0.000000
 41
0.000000
 66
  1
  0
VERTEX
  8
gg1
 10
0.118100
 20
0.204000
  0
VERTEX
  8
gg1
 10
0.118100
 20
0.216000
  0
SEQEND
  8
gg1
  0
POLYLINE
  8
gg1
 62
1
 40
0.000000
 41
0.000000
 66
  1
  0
VERTEX
  8
gg1
 10
0.294000
 20
0.580000
  0
VERTEX
  8
gg1
 10
0.306000
 20
0.580000
  0
SEQEND
  8
gg1
  0
POLYLINE
  8
gg1
 62
1
 40
0.000000
 41
0.000000
 66
  1
  0
VERTEX
  8
gg1
 10
0.300000
 20
0.574000
  0
VERTEX
  8
gg1
 10
0.300000
 20
0.586000
  0
SEQEND
  8
gg1
  0
POLYLINE
  8
gg1
 62
1
 40
0.000000
 41
0.000000
 66
  1
  0
VERTEX
  8
gg1
 10
0.279000
 20
0.267000
  0
VERTEX
  8
gg1
 10
0.291000
 20
0.267000
  0
SEQEND
  8
gg1
  0
POLYLINE
  8
gg1
 62
1
 40
0.000000
 41
0.000000
 66
  1
  0
VERTEX
  8
gg1
 10
0.285000
 20
0.261000
  0
VERTEX
  8
gg1
 10
0.285000
 20
0.273000
  0
SEQEND
  8
gg1
  0
POLYLINE
  8
gg1
 62
1
 40
0.000000
 41
0.000000
 66
  1
  0
VERTEX
  8
gg1
 10
0.319000
 20
0.315000
  0
VERTEX
  8
gg1
 10
0.331000
 20
0.315000
  0
SEQEND
  8
gg1
  0
POLYLINE
  8
gg1
 62
1
 40
0.000000
 41
0.000000
 66
  1
  0
VERTEX
  8
gg1
 10
0.325000
 20
0.309000
  0
VERTEX
  8
gg1
 10
0.325000
 20
0.321000
  0
SEQEND
  8
gg1
  0
POLYLINE
  8
gg1
 62
1
 40
0.000000
 41
0.000000
 66
  1
  0
VERTEX
  8
gg1
 10
0.269000
 20
0.345000
  0
VERTEX
  8
gg1
 10
0.281000
 20
0.345000
  0
SEQEND
  8
gg1
  0
POLYLINE
  8
gg1
 62
1
 40
0.000000
 41
0.000000
 66
  1
  0
VERTEX
  8
gg1
 10
0.275000
 20
0.339000
  0
VERTEX
  8
gg1
 10
0.275000
 20
0.351000
  0
SEQEND
  8
gg1
  0
POLYLINE
  8
gg1
 62
1
 40
0.000000
 41
0.000000
 66
  1
  0
VERTEX
  8
gg1
 10
0.216500
 20
0.325000
  0
VERTEX
  8
gg1
 10
0.228500
 20
0.325000
  0
SEQEND
  8
gg1
  0
POLYLINE
  8
gg1
 62
1
 40
0.000000
 41
0.000000
 66
  1
  0
VERTEX
  8
gg1
 10
0.222500
 20
0.319000
  0
VERTEX
  8
gg1
 10
0.222500
 20
0.331000
  0
SEQEND
  8
gg1
  0
POLYLINE
  8
gg1
 62
1
 40
0.000000
 41
0.000000
 66
  1
  0
VERTEX
  8
gg1
 10
0.184000
 20
0.345000
  0
VERTEX
  8
gg1
 10
0.196000
 20
0.345000
  0
SEQEND
  8
gg1
  0
POLYLINE
  8
gg1
 62
1
 40
0.000000
 41
0.000000
 66
  1
  0
VERTEX
  8
gg1
 10
0.190000
 20
0.339000
  0
VERTEX
  8
gg1
 10
0.190000
 20
0.351000
  0
SEQEND
  8
gg1
  0
POLYLINE
  8
gg1
 62
1
 40
0.000000
 41
0.000000
 66
  1
  0
VERTEX
  8
gg1
 10
0.324000
 20
0.540000
  0
VERTEX
  8
gg1
 10
0.336000
 20
0.540000
  0
SEQEND
  8
gg1
  0
POLYLINE
  8
gg1
 62
1
 40
0.000000
 41
0.000000
 66
  1
  0
VERTEX
  8
gg1
 10
0.330000
 20
0.534000
  0
VERTEX
  8
gg1
 10
0.330000
 20
0.546000
  0
SEQEND
  8
gg1
  0
POLYLINE
  8
gg1
 62
1
 40
0.000000
 41
0.000000
 66
  1
  0
VERTEX
  8
gg1
 10
0.144000
 20
0.390000
  0
VERTEX
  8
gg1
 10
0.156000
 20
0.390000
  0
SEQEND
  8
gg1
  0
POLYLINE
  8
gg1
 62
1
 40
0.000000
 41
0.000000
 66
  1
  0
VERTEX
  8
gg1
 10
0.150000
 20
0.384000
  0
VERTEX
  8
gg1
 10
0.150000
 20
0.396000
  0
SEQEND
  8
gg1
  0
POLYLINE
  8
gg1
 62
1
 40
0.000000
 41
0.000000
 66
  1
  0
VERTEX
  8
gg1
 10
0.259000
 20
0.465000
  0
VERTEX
  8
gg1
 10
0.271000
 20
0.465000
  0
SEQEND
  8
gg1
  0
POLYLINE
  8
gg1
 62
1
 40
0.000000
 41
0.000000
 66
  1
  0
VERTEX
  8
gg1
 10
0.265000
 20
0.459000
  0
VERTEX
  8
gg1
 10
0.265000
 20
0.471000
  0
SEQEND
  8
gg1
  0
POLYLINE
  8
gg1
 62
1
 40
0.000000
 41
0.000000
 66
  1
  0
VERTEX
  8
gg1
 10
0.189000
 20
0.535000
  0
VERTEX
  8
gg1
 10
0.201000
 20
0.535000
  0
SEQEND
  8
gg1
  0
POLYLINE
  8
gg1
 62
1
 40
0.000000
 41
0.000000
 66
  1
  0
VERTEX
  8
gg1
 10
0.195000
 20
0.529000
  0
VERTEX
  8
gg1
 10
0.195000
 20
0.541000
  0
SEQEND
  8
gg1
  0
POLYLINE
  8
gg1
 62
1
 40
0.000000
 41
0.000000
 66
  1
  0
VERTEX
  8
gg1
 10
0.259000
 20
0.535000
  0
VERTEX
  8
gg1
 10
0.271000
 20
0.535000
  0
SEQEND
  8
gg1
  0
POLYLINE
  8
gg1
 62
1
 40
0.000000
 41
0.000000
 66
  1
  0
VERTEX
  8
gg1
 10
0.265000
 20
0.529000
  0
VERTEX
  8
gg1
 10
0.265000
 20
0.541000
  0
SEQEND
  8
gg1
  0
POLYLINE
  8
gg1
 62
1
 40
0.000000
 41
0.000000
 66
  1
  0
VERTEX
  8
gg1
 10
0.149000
 20
0.465000
  0
VERTEX
  8
gg1
 10
0.161000
 20
0.465000
  0
SEQEND
  8
gg1
  0
POLYLINE
  8
gg1
 62
1
 40
0.000000
 41
0.000000
 66
  1
  0
VERTEX
  8
gg1
 10
0.155000
 20
0.459000
  0
VERTEX
  8
gg1
 10
0.155000
 20
0.471000
  0
SEQEND
  8
gg1
  0
POLYLINE
  8
gg1
 62
1
 40
0.000000
 41
0.000000
 66
  1
  0
VERTEX
  8
gg1
 10
0.224000
 20
0.500000
  0
VERTEX
  8
gg1
 10
0.236000
 20
0.500000
  0
SEQEND
  8
gg1
  0
POLYLINE
  8
gg1
 62
1
 40
0.000000
 41
0.000000
 66
  1
  0
VERTEX
  8
gg1
 10
0.230000
 20
0.494000
  0
VERTEX
  8
gg1
 10
0.230000
 20
0.506000
  0
SEQEND
  8
gg1
  0
ENDSEC
  0
EOF
