  0
SECTION
  2
HEADER
  9
$EXTMIN
 10
0.223000
 20
1.211000
  9
$EXTMAX
 10
2.477000
 20
2.838000
  9
$LIMMIN
 10
0.223000
 20
1.211000
  9
$LIMMAX
 10
2.477000
 20
2.838000
  9
$FILLMODE
 70
  1
  0
ENDSEC
  0
SECTION
  2
TABLES
  0
TABLE
  2
LTYPE
 70
  1
  0
LTYPE
  2
CONTINUOUS
 70
 64
  3
Solid line
 72
 65
 73
  0
 40
0.0
  0
ENDTAB
  0
TABLE
  2
LAYER
 70
 1
  0
LAYER
  2
0
 70
  0
 62
7
  6
CONTINUOUS
  0
LAYER
  2
gg1
 70
  0
 62
1
  6
CONTINUOUS
  0
ENDTAB
  0
TABLE
  2
STYLE
 70
  1
  0
STYLE
  2
STANDARD
 70
  0
 40
0.0
 41
1.0
 50
0.0
 71
  0
 42
0.2
  3
txt
  4

  0
ENDTAB
  0
ENDSEC
  0
SECTION
  2
BLOCKS
  0
BLOCK
  8
0
  2
D10
 70
64
 10
0.0
 20
0.0
  3
D10
  0
CIRCLE
  8
0
 10
0.000000
 20
0.000000
 40
0.002500
 0
ENDBLK
  8
0
  0
BLOCK
  8
0
  2
D11
 70
64
 10
0.0
 20
0.0
  3
D11
  0
CIRCLE
  8
0
 10
0.000000
 20
0.000000
 40
0.005000
 0
ENDBLK
  8
0
  0
BLOCK
  8
0
  2
D12
 70
64
 10
0.0
 20
0.0
  3
D12
  0
CIRCLE
  8
0
 10
0.000000
 20
0.000000
 40
0.003000
 0
ENDBLK
  8
0
  0
BLOCK
  8
0
  2
D13
 70
64
 10
0.0
 20
0.0
  3
D13
  0
CIRCLE
  8
0
 10
0.000000
 20
0.000000
 40
0.001000
 0
ENDBLK
  8
0
  0
ENDSEC
  0
SECTION
  2
ENTITIES
  0
POLYLINE
  8
gg1
 62
1
 40
0.000000
 41
0.000000
 66
  1
  0
VERTEX
  8
gg1
 10
1.000000
 20
1.350000
  0
VERTEX
  8
gg1
 10
1.000000
 20
1.350000
  0
VERTEX
  8
gg1
 10
1.000000
 20
1.350000
 42
0.414214
  0
VERTEX
  8
gg1
 10
1.030000
 20
1.320000
  0
VERTEX
  8
gg1
 10
1.030000
 20
1.320000
  0
SEQEND
  8
gg1
  0
POLYLINE
  8
gg1
 62
1
 40
0.000000
 41
0.000000
 66
  1
  0
VERTEX
  8
gg1
 10
2.353400
 20
1.320100
  0
VERTEX
  8
gg1
 10
2.353400
 20
1.320100
  0
VERTEX
  8
gg1
 10
2.353400
 20
1.320100
 42
0.133092
  0
VERTEX
  8
gg1
 10
2.369100
 20
1.324400
  0
VERTEX
  8
gg1
 10
2.369100
 20
1.324400
  0
SEQEND
  8
gg1
  0
POLYLINE
  8
gg1
 62
1
 40
0.000000
 41
0.000000
 66
  1
  0
VERTEX
  8
gg1
 10
0.320000
 20
2.430200
  0
VERTEX
  8
gg1
 10
0.320000
 20
2.430200
  0
VERTEX
  8
gg1
 10
0.320000
 20
2.430200
 42
0.267480
  0
VERTEX
  8
gg1
 10
0.335000
 20
2.404200
  0
VERTEX
  8
gg1
 10
0.335000
 20
2.404200
  0
SEQEND
  8
gg1
  0
POLYLINE
  8
gg1
 62
1
 40
0.000000
 41
0.000000
 66
  1
  0
VERTEX
  8
gg1
 10
1.014000
 20
1.597300
  0
VERTEX
  8
gg1
 10
1.014000
 20
1.597300
  0
VERTEX
  8
gg1
 10
1.014000
 20
1.597300
 42
0.135693
  0
VERTEX
  8
gg1
 10
1.000000
 20
1.560000
  0
VERTEX
  8
gg1
 10
1.000000
 20
1.560000
  0
SEQEND
  8
gg1
  0
POLYLINE
  8
gg1
 62
1
 40
0.000000
 41
0.000000
 66
  1
  0
VERTEX
  8
gg1
 10
1.045000
 20
1.925000
  0
VERTEX
  8
gg1
 10
1.045000
 20
1.925000
  0
VERTEX
  8
gg1
 10
1.045000
 20
1.925000
 42
0.268090
  0
VERTEX
  8
gg1
 10
0.985000
 20
2.028900
  0
VERTEX
  8
gg1
 10
0.985000
 20
2.028900
  0
SEQEND
  8
gg1
  0
POLYLINE
  8
gg1
 62
1
 40
0.000000
 41
0.000000
 66
  1
  0
VERTEX
  8
gg1
 10
1.014000
 20
1.597300
  0
VERTEX
  8
gg1
 10
1.014000
 20
1.597300
  0
VERTEX
  8
gg1
 10
1.014000
 20
1.597300
 42
0.176584
  0
VERTEX
  8
gg1
 10
1.045000
 20
1.682500
  0
VERTEX
  8
gg1
 10
1.045000
 20
1.682500
  0
SEQEND
  8
gg1
  0
POLYLINE
  8
gg1
 62
1
 40
0.000000
 41
0.000000
 66
  1
  0
VERTEX
  8
gg1
 10
0.383300
 20
2.833000
  0
VERTEX
  8
gg1
 10
0.383300
 20
2.833000
  0
VERTEX
  8
gg1
 10
0.383300
 20
2.833000
 42
0.399621
  0
VERTEX
  8
gg1
 10
0.320000
 20
2.784600
  0
VERTEX
  8
gg1
 10
0.320000
 20
2.784600
  0
SEQEND
  8
gg1
  0
POLYLINE
  8
gg1
 62
1
 40
0.000000
 41
0.000000
 66
  1
  0
VERTEX
  8
gg1
 10
2.459100
 20
1.393200
  0
VERTEX
  8
gg1
 10
2.459100
 20
1.393200
  0
VERTEX
  8
gg1
 10
2.459100
 20
1.393200
 42
0.414214
  0
VERTEX
  8
gg1
 10
2.461700
 20
1.450000
  0
VERTEX
  8
gg1
 10
2.461700
 20
1.450000
  0
SEQEND
  8
gg1
  0
POLYLINE
  8
gg1
 62
1
 40
0.000000
 41
0.000000
 66
  1
  0
VERTEX
  8
gg1
 10
1.986100
 20
2.068400
  0
VERTEX
  8
gg1
 10
1.986100
 20
2.068400
  0
VERTEX
  8
gg1
 10
1.986100
 20
2.068400
 42
0.081455
  0
VERTEX
  8
gg1
 10
1.939400
 20
2.112100
  0
VERTEX
  8
gg1
 10
1.939400
 20
2.112100
  0
SEQEND
  8
gg1
  0
POLYLINE
  8
gg1
 62
1
 40
0.000000
 41
0.000000
 66
  1
  0
VERTEX
  8
gg1
 10
1.209100
 20
2.600000
  0
VERTEX
  8
gg1
 10
1.209100
 20
2.600000
  0
VERTEX
  8
gg1
 10
1.209100
 20
2.600000
 42
0.081953
  0
VERTEX
  8
gg1
 10
1.150900
 20
2.626400
  0
VERTEX
  8
gg1
 10
1.150900
 20
2.626400
  0
SEQEND
  8
gg1
  0
POLYLINE
  8
gg1
 62
1
 40
0.000000
 41
0.000000
 66
  1
  0
VERTEX
  8
gg1
 10
1.030000
 20
1.320000
  0
VERTEX
  8
gg1
 10
2.353400
 20
1.320000
  0
SEQEND
  8
gg1
  0
POLYLINE
  8
gg1
 62
1
 40
0.000000
 41
0.000000
 66
  1
  0
VERTEX
  8
gg1
 10
1.000000
 20
1.350000
  0
VERTEX
  8
gg1
 10
1.000000
 20
1.560000
  0
SEQEND
  8
gg1
  0
POLYLINE
  8
gg1
 62
1
 40
0.000000
 41
0.000000
 66
  1
  0
VERTEX
  8
gg1
 10
0.320000
 20
2.430200
  0
VERTEX
  8
gg1
 10
0.320000
 20
2.784600
  0
SEQEND
  8
gg1
  0
POLYLINE
  8
gg1
 62
1
 40
0.000000
 41
0.000000
 66
  1
  0
VERTEX
  8
gg1
 10
2.368600
 20
1.324100
  0
VERTEX
  8
gg1
 10
2.459100
 20
1.393000
  0
SEQEND
  8
gg1
  0
POLYLINE
  8
gg1
 62
1
 40
0.000000
 41
0.000000
 66
  1
  0
VERTEX
  8
gg1
 10
0.383400
 20
2.833000
  0
VERTEX
  8
gg1
 10
1.150900
 20
2.626400
  0
SEQEND
  8
gg1
  0
POLYLINE
  8
gg1
 62
1
 40
0.000000
 41
0.000000
 66
  1
  0
VERTEX
  8
gg1
 10
1.986100
 20
2.068400
  0
VERTEX
  8
gg1
 10
2.461700
 20
1.450000
  0
SEQEND
  8
gg1
  0
POLYLINE
  8
gg1
 62
1
 40
0.000000
 41
0.000000
 66
  1
  0
VERTEX
  8
gg1
 10
1.209100
 20
2.600000
  0
VERTEX
  8
gg1
 10
1.939400
 20
2.112100
  0
SEQEND
  8
gg1
  0
POLYLINE
  8
gg1
 62
1
 40
0.000000
 41
0.000000
 66
  1
  0
VERTEX
  8
gg1
 10
0.335000
 20
2.404200
  0
VERTEX
  8
gg1
 10
0.985000
 20
2.028900
  0
SEQEND
  8
gg1
  0
POLYLINE
  8
gg1
 62
1
 40
0.000000
 41
0.000000
 66
  1
  0
VERTEX
  8
gg1
 10
1.045000
 20
1.682500
  0
VERTEX
  8
gg1
 10
1.045000
 20
1.925000
  0
SEQEND
  8
gg1
  0
POLYLINE
  8
gg1
 62
1
 40
0.000000
 41
0.000000
 66
  1
  0
VERTEX
  8
gg1
 10
2.472200
 20
1.240000
  0
VERTEX
  8
gg1
 10
2.472200
 20
1.370400
  0
SEQEND
  8
gg1
  0
POLYLINE
  8
gg1
 62
1
 40
0.000000
 41
0.000000
 66
  1
  0
VERTEX
  8
gg1
 10
0.320000
 20
1.240000
  0
VERTEX
  8
gg1
 10
0.320000
 20
2.377700
  0
SEQEND
  8
gg1
  0
POLYLINE
  8
gg1
 62
1
 40
0.000000
 41
0.000000
 66
  1
  0
VERTEX
  8
gg1
 10
1.576000
 20
1.250000
  0
VERTEX
  8
gg1
 10
2.472200
 20
1.250000
  0
SEQEND
  8
gg1
  0
POLYLINE
  8
gg1
 62
1
 40
0.000000
 41
0.000000
 66
  1
  0
VERTEX
  8
gg1
 10
0.320000
 20
1.250000
  0
VERTEX
  8
gg1
 10
1.184200
 20
1.250000
  0
SEQEND
  8
gg1
  0
POLYLINE
  8
gg1
 62
1
 40
0.000000
 41
0.000000
 66
  1
  0
VERTEX
  8
gg1
 10
2.412200
 20
1.270000
  0
VERTEX
  8
gg1
 10
2.472200
 20
1.250000
  0
SEQEND
  8
gg1
  0
POLYLINE
  8
gg1
 62
1
 40
0.000000
 41
0.000000
 66
  1
  0
VERTEX
  8
gg1
 10
2.412200
 20
1.230000
  0
VERTEX
  8
gg1
 10
2.472200
 20
1.250000
  0
SEQEND
  8
gg1
  0
POLYLINE
  8
gg1
 62
1
 40
0.000000
 41
0.000000
 66
  1
  0
VERTEX
  8
gg1
 10
0.320000
 20
1.250000
  0
VERTEX
  8
gg1
 10
0.380000
 20
1.230000
  0
SEQEND
  8
gg1
  0
POLYLINE
  8
gg1
 62
1
 40
0.000000
 41
0.000000
 66
  1
  0
VERTEX
  8
gg1
 10
0.320000
 20
1.250000
  0
VERTEX
  8
gg1
 10
0.380000
 20
1.270000
  0
SEQEND
  8
gg1
  0
POLYLINE
  8
gg1
 62
1
 40
0.000000
 41
0.000000
 66
  1
  0
VERTEX
  8
gg1
 10
0.240000
 20
2.833300
  0
VERTEX
  8
gg1
 10
0.324600
 20
2.833300
  0
SEQEND
  8
gg1
  0
POLYLINE
  8
gg1
 62
1
 40
0.000000
 41
0.000000
 66
  1
  0
VERTEX
  8
gg1
 10
0.240000
 20
1.320000
  0
VERTEX
  8
gg1
 10
0.977500
 20
1.320000
  0
SEQEND
  8
gg1
  0
POLYLINE
  8
gg1
 62
1
 40
0.000000
 41
0.000000
 66
  1
  0
VERTEX
  8
gg1
 10
0.250000
 20
2.251600
  0
VERTEX
  8
gg1
 10
0.250000
 20
2.833300
  0
SEQEND
  8
gg1
  0
POLYLINE
  8
gg1
 62
1
 40
0.000000
 41
0.000000
 66
  1
  0
VERTEX
  8
gg1
 10
0.250000
 20
1.320000
  0
VERTEX
  8
gg1
 10
0.250000
 20
1.869700
  0
SEQEND
  8
gg1
  0
POLYLINE
  8
gg1
 62
1
 40
0.000000
 41
0.000000
 66
  1
  0
VERTEX
  8
gg1
 10
0.230000
 20
2.773300
  0
VERTEX
  8
gg1
 10
0.250000
 20
2.833300
  0
VERTEX
  8
gg1
 10
0.270000
 20
2.773300
  0
SEQEND
  8
gg1
  0
POLYLINE
  8
gg1
 62
1
 40
0.000000
 41
0.000000
 66
  1
  0
VERTEX
  8
gg1
 10
0.250000
 20
1.320000
  0
VERTEX
  8
gg1
 10
0.270000
 20
1.380000
  0
SEQEND
  8
gg1
  0
POLYLINE
  8
gg1
 62
1
 40
0.000000
 41
0.000000
 66
  1
  0
VERTEX
  8
gg1
 10
0.230000
 20
1.380000
  0
VERTEX
  8
gg1
 10
0.250000
 20
1.320000
  0
SEQEND
  8
gg1
  0
POLYLINE
  8
gg1
 62
1
 40
0.000000
 41
0.000000
 66
  1
  0
VERTEX
  8
gg1
 10
1.240100
 20
1.214000
  0
VERTEX
  8
gg1
 10
1.200200
 20
1.214000
  0
VERTEX
  8
gg1
 10
1.240100
 20
1.254000
  0
VERTEX
  8
gg1
 10
1.240100
 20
1.264000
  0
VERTEX
  8
gg1
 10
1.230100
 20
1.274000
  0
VERTEX
  8
gg1
 10
1.210200
 20
1.274000
  0
VERTEX
  8
gg1
 10
1.200200
 20
1.264000
  0
SEQEND
  8
gg1
  0
POLYLINE
  8
gg1
 62
1
 40
0.000000
 41
0.000000
 66
  1
  0
VERTEX
  8
gg1
 10
1.260100
 20
1.214000
  0
VERTEX
  8
gg1
 10
1.280100
 20
1.214000
  0
VERTEX
  8
gg1
 10
1.270100
 20
1.214000
  0
VERTEX
  8
gg1
 10
1.270100
 20
1.274000
  0
VERTEX
  8
gg1
 10
1.260100
 20
1.264000
  0
SEQEND
  8
gg1
  0
POLYLINE
  8
gg1
 62
1
 40
0.000000
 41
0.000000
 66
  1
  0
VERTEX
  8
gg1
 10
1.350100
 20
1.274000
  0
VERTEX
  8
gg1
 10
1.310100
 20
1.274000
  0
VERTEX
  8
gg1
 10
1.310100
 20
1.244000
  0
VERTEX
  8
gg1
 10
1.330100
 20
1.254000
  0
VERTEX
  8
gg1
 10
1.340100
 20
1.254000
  0
VERTEX
  8
gg1
 10
1.350100
 20
1.244000
  0
VERTEX
  8
gg1
 10
1.350100
 20
1.224000
  0
VERTEX
  8
gg1
 10
1.340100
 20
1.214000
  0
VERTEX
  8
gg1
 10
1.320100
 20
1.214000
  0
VERTEX
  8
gg1
 10
1.310100
 20
1.224000
  0
SEQEND
  8
gg1
  0
POLYLINE
  8
gg1
 62
1
 40
0.000000
 41
0.000000
 66
  1
  0
VERTEX
  8
gg1
 10
1.410100
 20
1.214000
  0
VERTEX
  8
gg1
 10
1.370100
 20
1.214000
  0
VERTEX
  8
gg1
 10
1.410100
 20
1.254000
  0
VERTEX
  8
gg1
 10
1.410100
 20
1.264000
  0
VERTEX
  8
gg1
 10
1.400100
 20
1.274000
  0
VERTEX
  8
gg1
 10
1.380100
 20
1.274000
  0
VERTEX
  8
gg1
 10
1.370100
 20
1.264000
  0
SEQEND
  8
gg1
  0
POLYLINE
  8
gg1
 62
1
 40
0.000000
 41
0.000000
 66
  1
  0
VERTEX
  8
gg1
 10
1.430100
 20
1.214000
  0
VERTEX
  8
gg1
 10
1.430100
 20
1.254000
  0
VERTEX
  8
gg1
 10
1.440100
 20
1.254000
  0
VERTEX
  8
gg1
 10
1.450100
 20
1.244000
  0
VERTEX
  8
gg1
 10
1.450100
 20
1.214000
  0
VERTEX
  8
gg1
 10
1.450100
 20
1.244000
  0
VERTEX
  8
gg1
 10
1.460100
 20
1.254000
  0
VERTEX
  8
gg1
 10
1.470100
 20
1.244000
  0
VERTEX
  8
gg1
 10
1.470100
 20
1.214000
  0
SEQEND
  8
gg1
  0
POLYLINE
  8
gg1
 62
1
 40
0.000000
 41
0.000000
 66
  1
  0
VERTEX
  8
gg1
 10
1.490100
 20
1.214000
  0
VERTEX
  8
gg1
 10
1.510100
 20
1.214000
  0
VERTEX
  8
gg1
 10
1.500100
 20
1.214000
  0
VERTEX
  8
gg1
 10
1.500100
 20
1.254000
  0
VERTEX
  8
gg1
 10
1.490100
 20
1.254000
  0
SEQEND
  8
gg1
  0
POLYLINE
  8
gg1
 62
1
 40
0.000000
 41
0.000000
 66
  1
  0
VERTEX
  8
gg1
 10
1.540000
 20
1.214000
  0
VERTEX
  8
gg1
 10
1.560000
 20
1.214000
  0
VERTEX
  8
gg1
 10
1.550000
 20
1.214000
  0
VERTEX
  8
gg1
 10
1.550000
 20
1.274000
  0
VERTEX
  8
gg1
 10
1.540000
 20
1.274000
  0
SEQEND
  8
gg1
  0
POLYLINE
  8
gg1
 62
1
 40
0.000000
 41
0.000000
 66
  1
  0
VERTEX
  8
gg1
 10
0.286000
 20
1.885700
  0
VERTEX
  8
gg1
 10
0.286000
 20
1.905700
  0
VERTEX
  8
gg1
 10
0.286000
 20
1.895700
  0
VERTEX
  8
gg1
 10
0.226000
 20
1.895700
  0
VERTEX
  8
gg1
 10
0.236000
 20
1.885700
  0
SEQEND
  8
gg1
  0
POLYLINE
  8
gg1
 62
1
 40
0.000000
 41
0.000000
 66
  1
  0
VERTEX
  8
gg1
 10
0.226000
 20
1.975700
  0
VERTEX
  8
gg1
 10
0.226000
 20
1.935700
  0
VERTEX
  8
gg1
 10
0.256000
 20
1.935700
  0
VERTEX
  8
gg1
 10
0.246000
 20
1.955700
  0
VERTEX
  8
gg1
 10
0.246000
 20
1.965700
  0
VERTEX
  8
gg1
 10
0.256000
 20
1.975700
  0
VERTEX
  8
gg1
 10
0.276000
 20
1.975700
  0
VERTEX
  8
gg1
 10
0.286000
 20
1.965700
  0
VERTEX
  8
gg1
 10
0.286000
 20
1.945700
  0
VERTEX
  8
gg1
 10
0.276000
 20
1.935700
  0
SEQEND
  8
gg1
  0
POLYLINE
  8
gg1
 62
1
 40
0.000000
 41
0.000000
 66
  1
  0
VERTEX
  8
gg1
 10
0.286000
 20
1.995700
  0
VERTEX
  8
gg1
 10
0.286000
 20
2.015700
  0
VERTEX
  8
gg1
 10
0.286000
 20
2.005700
  0
VERTEX
  8
gg1
 10
0.226000
 20
2.005700
  0
VERTEX
  8
gg1
 10
0.236000
 20
1.995700
  0
SEQEND
  8
gg1
  0
POLYLINE
  8
gg1
 62
1
 40
0.000000
 41
0.000000
 66
  1
  0
VERTEX
  8
gg1
 10
0.236000
 20
2.045700
  0
VERTEX
  8
gg1
 10
0.226000
 20
2.055600
  0
VERTEX
  8
gg1
 10
0.226000
 20
2.075600
  0
VERTEX
  8
gg1
 10
0.236000
 20
2.085600
  0
VERTEX
  8
gg1
 10
0.246000
 20
2.085600
  0
VERTEX
  8
gg1
 10
0.256000
 20
2.075600
  0
VERTEX
  8
gg1
 10
0.256000
 20
2.065600
  0
VERTEX
  8
gg1
 10
0.256000
 20
2.075600
  0
VERTEX
  8
gg1
 10
0.266000
 20
2.085600
  0
VERTEX
  8
gg1
 10
0.276000
 20
2.085600
  0
VERTEX
  8
gg1
 10
0.286000
 20
2.075600
  0
VERTEX
  8
gg1
 10
0.286000
 20
2.055600
  0
VERTEX
  8
gg1
 10
0.276000
 20
2.045700
  0
SEQEND
  8
gg1
  0
POLYLINE
  8
gg1
 62
1
 40
0.000000
 41
0.000000
 66
  1
  0
VERTEX
  8
gg1
 10
0.286000
 20
2.105600
  0
VERTEX
  8
gg1
 10
0.246000
 20
2.105600
  0
VERTEX
  8
gg1
 10
0.246000
 20
2.115600
  0
VERTEX
  8
gg1
 10
0.256000
 20
2.125600
  0
VERTEX
  8
gg1
 10
0.286000
 20
2.125600
  0
VERTEX
  8
gg1
 10
0.256000
 20
2.125600
  0
VERTEX
  8
gg1
 10
0.246000
 20
2.135600
  0
VERTEX
  8
gg1
 10
0.256000
 20
2.145600
  0
VERTEX
  8
gg1
 10
0.286000
 20
2.145600
  0
SEQEND
  8
gg1
  0
POLYLINE
  8
gg1
 62
1
 40
0.000000
 41
0.000000
 66
  1
  0
VERTEX
  8
gg1
 10
0.286000
 20
2.165600
  0
VERTEX
  8
gg1
 10
0.286000
 20
2.185600
  0
VERTEX
  8
gg1
 10
0.286000
 20
2.175600
  0
VERTEX
  8
gg1
 10
0.246000
 20
2.175600
  0
VERTEX
  8
gg1
 10
0.246000
 20
2.165600
  0
SEQEND
  8
gg1
  0
POLYLINE
  8
gg1
 62
1
 40
0.000000
 41
0.000000
 66
  1
  0
VERTEX
  8
gg1
 10
0.286000
 20
2.215600
  0
VERTEX
  8
gg1
 10
0.286000
 20
2.235600
  0
VERTEX
  8
gg1
 10
0.286000
 20
2.225600
  0
VERTEX
  8
gg1
 10
0.226000
 20
2.225600
  0
VERTEX
  8
gg1
 10
0.226000
 20
2.215600
  0
SEQEND
  8
gg1
  0
POLYLINE
  8
gg1
 62
1
 40
0.000000
 41
0.000000
 66
  1
  0
VERTEX
  8
gg1
 10
1.544200
 20
1.918700
  0
VERTEX
  8
gg1
 10
1.669200
 20
1.918700
  0
SEQEND
  8
gg1
  0
POLYLINE
  8
gg1
 62
1
 40
0.000000
 41
0.000000
 66
  1
  0
VERTEX
  8
gg1
 10
1.606700
 20
1.856200
  0
VERTEX
  8
gg1
 10
1.606700
 20
1.981200
  0
SEQEND
  8
gg1
  0
POLYLINE
  8
gg1
 62
1
 40
0.000000
 41
0.000000
 66
  1
  0
VERTEX
  8
gg1
 10
1.725200
 20
1.737700
  0
VERTEX
  8
gg1
 10
1.850200
 20
1.737700
  0
SEQEND
  8
gg1
  0
POLYLINE
  8
gg1
 62
1
 40
0.000000
 41
0.000000
 66
  1
  0
VERTEX
  8
gg1
 10
1.787700
 20
1.675200
  0
VERTEX
  8
gg1
 10
1.787700
 20
1.800200
  0
SEQEND
  8
gg1
  0
POLYLINE
  8
gg1
 62
1
 40
0.000000
 41
0.000000
 66
  1
  0
VERTEX
  8
gg1
 10
1.783600
 20
2.121600
  0
VERTEX
  8
gg1
 10
1.818600
 20
2.121600
  0
SEQEND
  8
gg1
  0
POLYLINE
  8
gg1
 62
1
 40
0.000000
 41
0.000000
 66
  1
  0
VERTEX
  8
gg1
 10
1.801100
 20
2.104100
  0
VERTEX
  8
gg1
 10
1.801100
 20
2.139100
  0
SEQEND
  8
gg1
  0
POLYLINE
  8
gg1
 62
1
 40
0.000000
 41
0.000000
 66
  1
  0
VERTEX
  8
gg1
 10
1.256600
 20
2.473700
  0
VERTEX
  8
gg1
 10
1.291600
 20
2.473700
  0
SEQEND
  8
gg1
  0
POLYLINE
  8
gg1
 62
1
 40
0.000000
 41
0.000000
 66
  1
  0
VERTEX
  8
gg1
 10
1.274100
 20
2.456200
  0
VERTEX
  8
gg1
 10
1.274100
 20
2.491200
  0
SEQEND
  8
gg1
  0
POLYLINE
  8
gg1
 62
1
 40
0.000000
 41
0.000000
 66
  1
  0
VERTEX
  8
gg1
 10
1.495600
 20
2.314100
  0
VERTEX
  8
gg1
 10
1.530600
 20
2.314100
  0
SEQEND
  8
gg1
  0
POLYLINE
  8
gg1
 62
1
 40
0.000000
 41
0.000000
 66
  1
  0
VERTEX
  8
gg1
 10
1.513100
 20
2.296600
  0
VERTEX
  8
gg1
 10
1.513100
 20
2.331600
  0
SEQEND
  8
gg1
  0
POLYLINE
  8
gg1
 62
1
 40
0.000000
 41
0.000000
 66
  1
  0
VERTEX
  8
gg1
 10
1.009400
 20
2.588500
  0
VERTEX
  8
gg1
 10
1.044400
 20
2.588500
  0
SEQEND
  8
gg1
  0
POLYLINE
  8
gg1
 62
1
 40
0.000000
 41
0.000000
 66
  1
  0
VERTEX
  8
gg1
 10
1.026900
 20
2.571000
  0
VERTEX
  8
gg1
 10
1.026900
 20
2.606000
  0
SEQEND
  8
gg1
  0
POLYLINE
  8
gg1
 62
1
 40
0.000000
 41
0.000000
 66
  1
  0
VERTEX
  8
gg1
 10
0.397300
 20
2.753200
  0
VERTEX
  8
gg1
 10
0.432300
 20
2.753200
  0
SEQEND
  8
gg1
  0
POLYLINE
  8
gg1
 62
1
 40
0.000000
 41
0.000000
 66
  1
  0
VERTEX
  8
gg1
 10
0.414800
 20
2.735700
  0
VERTEX
  8
gg1
 10
0.414800
 20
2.770700
  0
SEQEND
  8
gg1
  0
POLYLINE
  8
gg1
 62
1
 40
0.000000
 41
0.000000
 66
  1
  0
VERTEX
  8
gg1
 10
0.674800
 20
2.678500
  0
VERTEX
  8
gg1
 10
0.709800
 20
2.678500
  0
SEQEND
  8
gg1
  0
POLYLINE
  8
gg1
 62
1
 40
0.000000
 41
0.000000
 66
  1
  0
VERTEX
  8
gg1
 10
0.692300
 20
2.661000
  0
VERTEX
  8
gg1
 10
0.692300
 20
2.696000
  0
SEQEND
  8
gg1
  0
POLYLINE
  8
gg1
 62
1
 40
0.000000
 41
0.000000
 66
  1
  0
VERTEX
  8
gg1
 10
2.158600
 20
1.708300
  0
VERTEX
  8
gg1
 10
2.193600
 20
1.708300
  0
SEQEND
  8
gg1
  0
POLYLINE
  8
gg1
 62
1
 40
0.000000
 41
0.000000
 66
  1
  0
VERTEX
  8
gg1
 10
2.176100
 20
1.690800
  0
VERTEX
  8
gg1
 10
2.176100
 20
1.725800
  0
SEQEND
  8
gg1
  0
POLYLINE
  8
gg1
 62
1
 40
0.000000
 41
0.000000
 66
  1
  0
VERTEX
  8
gg1
 10
1.983400
 20
1.936200
  0
VERTEX
  8
gg1
 10
2.018400
 20
1.936200
  0
SEQEND
  8
gg1
  0
POLYLINE
  8
gg1
 62
1
 40
0.000000
 41
0.000000
 66
  1
  0
VERTEX
  8
gg1
 10
2.000900
 20
1.918700
  0
VERTEX
  8
gg1
 10
2.000900
 20
1.953700
  0
SEQEND
  8
gg1
  0
POLYLINE
  8
gg1
 62
1
 40
0.000000
 41
0.000000
 66
  1
  0
VERTEX
  8
gg1
 10
2.369800
 20
1.433700
  0
VERTEX
  8
gg1
 10
2.404800
 20
1.433700
  0
SEQEND
  8
gg1
  0
POLYLINE
  8
gg1
 62
1
 40
0.000000
 41
0.000000
 66
  1
  0
VERTEX
  8
gg1
 10
2.387300
 20
1.416200
  0
VERTEX
  8
gg1
 10
2.387300
 20
1.451200
  0
SEQEND
  8
gg1
  0
POLYLINE
  8
gg1
 62
1
 40
0.000000
 41
0.000000
 66
  1
  0
VERTEX
  8
gg1
 10
0.665800
 20
2.345600
  0
VERTEX
  8
gg1
 10
0.790800
 20
2.345600
  0
SEQEND
  8
gg1
  0
POLYLINE
  8
gg1
 62
1
 40
0.000000
 41
0.000000
 66
  1
  0
VERTEX
  8
gg1
 10
0.728300
 20
2.283100
  0
VERTEX
  8
gg1
 10
0.728300
 20
2.408100
  0
SEQEND
  8
gg1
  0
POLYLINE
  8
gg1
 62
1
 40
0.000000
 41
0.000000
 66
  1
  0
VERTEX
  8
gg1
 10
1.906100
 20
1.556800
  0
VERTEX
  8
gg1
 10
2.031100
 20
1.556800
  0
SEQEND
  8
gg1
  0
POLYLINE
  8
gg1
 62
1
 40
0.000000
 41
0.000000
 66
  1
  0
VERTEX
  8
gg1
 10
1.968600
 20
1.494300
  0
VERTEX
  8
gg1
 10
1.968600
 20
1.619300
  0
SEQEND
  8
gg1
  0
POLYLINE
  8
gg1
 62
1
 40
0.000000
 41
0.000000
 66
  1
  0
VERTEX
  8
gg1
 10
0.444200
 20
2.473500
  0
VERTEX
  8
gg1
 10
0.569200
 20
2.473500
  0
SEQEND
  8
gg1
  0
POLYLINE
  8
gg1
 62
1
 40
0.000000
 41
0.000000
 66
  1
  0
VERTEX
  8
gg1
 10
0.506700
 20
2.411000
  0
VERTEX
  8
gg1
 10
0.506700
 20
2.536000
  0
SEQEND
  8
gg1
  0
POLYLINE
  8
gg1
 62
1
 40
0.000000
 41
0.000000
 66
  1
  0
VERTEX
  8
gg1
 10
1.330000
 20
1.375000
  0
VERTEX
  8
gg1
 10
1.370000
 20
1.375000
  0
SEQEND
  8
gg1
  0
POLYLINE
  8
gg1
 62
1
 40
0.000000
 41
0.000000
 66
  1
  0
VERTEX
  8
gg1
 10
1.350000
 20
1.355000
  0
VERTEX
  8
gg1
 10
1.350000
 20
1.395000
  0
SEQEND
  8
gg1
  0
POLYLINE
  8
gg1
 62
1
 40
0.000000
 41
0.000000
 66
  1
  0
VERTEX
  8
gg1
 10
1.230000
 20
1.375000
  0
VERTEX
  8
gg1
 10
1.270000
 20
1.375000
  0
SEQEND
  8
gg1
  0
POLYLINE
  8
gg1
 62
1
 40
0.000000
 41
0.000000
 66
  1
  0
VERTEX
  8
gg1
 10
1.250000
 20
1.355000
  0
VERTEX
  8
gg1
 10
1.250000
 20
1.395000
  0
SEQEND
  8
gg1
  0
POLYLINE
  8
gg1
 62
1
 40
0.000000
 41
0.000000
 66
  1
  0
VERTEX
  8
gg1
 10
1.130000
 20
1.375000
  0
VERTEX
  8
gg1
 10
1.170000
 20
1.375000
  0
SEQEND
  8
gg1
  0
POLYLINE
  8
gg1
 62
1
 40
0.000000
 41
0.000000
 66
  1
  0
VERTEX
  8
gg1
 10
1.150000
 20
1.355000
  0
VERTEX
  8
gg1
 10
1.150000
 20
1.395000
  0
SEQEND
  8
gg1
  0
POLYLINE
  8
gg1
 62
1
 40
0.000000
 41
0.000000
 66
  1
  0
VERTEX
  8
gg1
 10
1.030000
 20
1.375000
  0
VERTEX
  8
gg1
 10
1.070000
 20
1.375000
  0
SEQEND
  8
gg1
  0
POLYLINE
  8
gg1
 62
1
 40
0.000000
 41
0.000000
 66
  1
  0
VERTEX
  8
gg1
 10
1.050000
 20
1.355000
  0
VERTEX
  8
gg1
 10
1.050000
 20
1.395000
  0
SEQEND
  8
gg1
  0
POLYLINE
  8
gg1
 62
1
 40
0.000000
 41
0.000000
 66
  1
  0
VERTEX
  8
gg1
 10
1.240000
 20
1.900000
  0
VERTEX
  8
gg1
 10
1.280000
 20
1.900000
  0
SEQEND
  8
gg1
  0
POLYLINE
  8
gg1
 62
1
 40
0.000000
 41
0.000000
 66
  1
  0
VERTEX
  8
gg1
 10
1.260000
 20
1.880000
  0
VERTEX
  8
gg1
 10
1.260000
 20
1.920000
  0
SEQEND
  8
gg1
  0
POLYLINE
  8
gg1
 62
1
 40
0.000000
 41
0.000000
 66
  1
  0
VERTEX
  8
gg1
 10
1.140000
 20
1.900000
  0
VERTEX
  8
gg1
 10
1.180000
 20
1.900000
  0
SEQEND
  8
gg1
  0
POLYLINE
  8
gg1
 62
1
 40
0.000000
 41
0.000000
 66
  1
  0
VERTEX
  8
gg1
 10
1.160000
 20
1.880000
  0
VERTEX
  8
gg1
 10
1.160000
 20
1.920000
  0
SEQEND
  8
gg1
  0
POLYLINE
  8
gg1
 62
1
 40
0.000000
 41
0.000000
 66
  1
  0
VERTEX
  8
gg1
 10
1.240000
 20
2.000000
  0
VERTEX
  8
gg1
 10
1.280000
 20
2.000000
  0
SEQEND
  8
gg1
  0
POLYLINE
  8
gg1
 62
1
 40
0.000000
 41
0.000000
 66
  1
  0
VERTEX
  8
gg1
 10
1.260000
 20
1.980000
  0
VERTEX
  8
gg1
 10
1.260000
 20
2.020000
  0
SEQEND
  8
gg1
  0
POLYLINE
  8
gg1
 62
1
 40
0.000000
 41
0.000000
 66
  1
  0
VERTEX
  8
gg1
 10
1.140000
 20
2.000000
  0
VERTEX
  8
gg1
 10
1.180000
 20
2.000000
  0
SEQEND
  8
gg1
  0
POLYLINE
  8
gg1
 62
1
 40
0.000000
 41
0.000000
 66
  1
  0
VERTEX
  8
gg1
 10
1.160000
 20
1.980000
  0
VERTEX
  8
gg1
 10
1.160000
 20
2.020000
  0
SEQEND
  8
gg1
  0
POLYLINE
  8
gg1
 62
1
 40
0.000000
 41
0.000000
 66
  1
  0
VERTEX
  8
gg1
 10
1.240000
 20
1.800000
  0
VERTEX
  8
gg1
 10
1.280000
 20
1.800000
  0
SEQEND
  8
gg1
  0
POLYLINE
  8
gg1
 62
1
 40
0.000000
 41
0.000000
 66
  1
  0
VERTEX
  8
gg1
 10
1.260000
 20
1.780000
  0
VERTEX
  8
gg1
 10
1.260000
 20
1.820000
  0
SEQEND
  8
gg1
  0
POLYLINE
  8
gg1
 62
1
 40
0.000000
 41
0.000000
 66
  1
  0
VERTEX
  8
gg1
 10
1.140000
 20
1.800000
  0
VERTEX
  8
gg1
 10
1.180000
 20
1.800000
  0
SEQEND
  8
gg1
  0
POLYLINE
  8
gg1
 62
1
 40
0.000000
 41
0.000000
 66
  1
  0
VERTEX
  8
gg1
 10
1.160000
 20
1.780000
  0
VERTEX
  8
gg1
 10
1.160000
 20
1.820000
  0
SEQEND
  8
gg1
  0
ENDSEC
  0
EOF
