  0
SECTION
  2
HEADER
  9
$EXTMIN
 10
-0.175000
 20
-0.119000
  9
$EXTMAX
 10
3.005000
 20
0.355000
  9
$LIMMIN
 10
-0.175000
 20
-0.119000
  9
$LIMMAX
 10
3.005000
 20
0.355000
  9
$FILLMODE
 70
  1
  0
ENDSEC
  0
SECTION
  2
TABLES
  0
TABLE
  2
LTYPE
 70
  1
  0
LTYPE
  2
CONTINUOUS
 70
 64
  3
Solid line
 72
 65
 73
  0
 40
0.0
  0
ENDTAB
  0
TABLE
  2
LAYER
 70
 1
  0
LAYER
  2
0
 70
  0
 62
7
  6
CONTINUOUS
  0
LAYER
  2
gg1
 70
  0
 62
1
  6
CONTINUOUS
  0
ENDTAB
  0
TABLE
  2
STYLE
 70
  1
  0
STYLE
  2
STANDARD
 70
  0
 40
0.0
 41
1.0
 50
0.0
 71
  0
 42
0.2
  3
txt
  4

  0
ENDTAB
  0
ENDSEC
  0
SECTION
  2
BLOCKS
  0
BLOCK
  8
0
  2
D10
 70
64
 10
0.0
 20
0.0
  3
D10
  0
CIRCLE
  8
0
 10
0.000000
 20
0.000000
 40
0.005000
 0
ENDBLK
  8
0
  0
BLOCK
  8
0
  2
D11
 70
64
 10
0.0
 20
0.0
  3
D11
  0
CIRCLE
  8
0
 10
0.000000
 20
0.000000
 40
0.002500
 0
ENDBLK
  8
0
  0
BLOCK
  8
0
  2
D12
 70
64
 10
0.0
 20
0.0
  3
D12
  0
CIRCLE
  8
0
 10
0.000000
 20
0.000000
 40
0.003000
 0
ENDBLK
  8
0
  0
BLOCK
  8
0
  2
D13
 70
64
 10
0.0
 20
0.0
  3
D13
  0
CIRCLE
  8
0
 10
0.000000
 20
0.000000
 40
0.001000
 0
ENDBLK
  8
0
  0
ENDSEC
  0
SECTION
  2
ENTITIES
  0
POLYLINE
  8
gg1
 62
1
 40
0.000000
 41
0.000000
 66
  1
  0
VERTEX
  8
gg1
 10
-0.090000
 20
0.350000
  0
VERTEX
  8
gg1
 10
-0.010000
 20
0.350000
  0
SEQEND
  8
gg1
  0
POLYLINE
  8
gg1
 62
1
 40
0.000000
 41
0.000000
 66
  1
  0
VERTEX
  8
gg1
 10
-0.090000
 20
0.000000
  0
VERTEX
  8
gg1
 10
-0.010000
 20
0.000000
  0
SEQEND
  8
gg1
  0
POLYLINE
  8
gg1
 62
1
 40
0.000000
 41
0.000000
 66
  1
  0
VERTEX
  8
gg1
 10
-0.080000
 20
0.175000
  0
VERTEX
  8
gg1
 10
-0.080000
 20
0.350000
  0
SEQEND
  8
gg1
  0
POLYLINE
  8
gg1
 62
1
 40
0.000000
 41
0.000000
 66
  1
  0
VERTEX
  8
gg1
 10
-0.080000
 20
0.000000
  0
VERTEX
  8
gg1
 10
-0.080000
 20
0.175000
  0
SEQEND
  8
gg1
  0
POLYLINE
  8
gg1
 62
1
 40
0.000000
 41
0.000000
 66
  1
  0
VERTEX
  8
gg1
 10
-0.100000
 20
0.290000
  0
VERTEX
  8
gg1
 10
-0.080000
 20
0.350000
  0
VERTEX
  8
gg1
 10
-0.060000
 20
0.290000
  0
SEQEND
  8
gg1
  0
POLYLINE
  8
gg1
 62
1
 40
0.000000
 41
0.000000
 66
  1
  0
VERTEX
  8
gg1
 10
-0.080000
 20
0.000000
  0
VERTEX
  8
gg1
 10
-0.060000
 20
0.060000
  0
SEQEND
  8
gg1
  0
POLYLINE
  8
gg1
 62
1
 40
0.000000
 41
0.000000
 66
  1
  0
VERTEX
  8
gg1
 10
-0.100000
 20
0.060000
  0
VERTEX
  8
gg1
 10
-0.080000
 20
0.000000
  0
SEQEND
  8
gg1
  0
POLYLINE
  8
gg1
 62
1
 40
0.000000
 41
0.000000
 66
  1
  0
VERTEX
  8
gg1
 10
3.000000
 20
-0.090000
  0
VERTEX
  8
gg1
 10
3.000000
 20
-0.010000
  0
SEQEND
  8
gg1
  0
POLYLINE
  8
gg1
 62
1
 40
0.000000
 41
0.000000
 66
  1
  0
VERTEX
  8
gg1
 10
0.000000
 20
-0.090000
  0
VERTEX
  8
gg1
 10
0.000000
 20
-0.010000
  0
SEQEND
  8
gg1
  0
POLYLINE
  8
gg1
 62
1
 40
0.000000
 41
0.000000
 66
  1
  0
VERTEX
  8
gg1
 10
1.684900
 20
-0.080000
  0
VERTEX
  8
gg1
 10
3.000000
 20
-0.080000
  0
SEQEND
  8
gg1
  0
POLYLINE
  8
gg1
 62
1
 40
0.000000
 41
0.000000
 66
  1
  0
VERTEX
  8
gg1
 10
0.000000
 20
-0.080000
  0
VERTEX
  8
gg1
 10
1.283100
 20
-0.080000
  0
SEQEND
  8
gg1
  0
POLYLINE
  8
gg1
 62
1
 40
0.000000
 41
0.000000
 66
  1
  0
VERTEX
  8
gg1
 10
2.940000
 20
-0.060000
  0
VERTEX
  8
gg1
 10
3.000000
 20
-0.080000
  0
SEQEND
  8
gg1
  0
POLYLINE
  8
gg1
 62
1
 40
0.000000
 41
0.000000
 66
  1
  0
VERTEX
  8
gg1
 10
2.940000
 20
-0.100000
  0
VERTEX
  8
gg1
 10
3.000000
 20
-0.080000
  0
SEQEND
  8
gg1
  0
POLYLINE
  8
gg1
 62
1
 40
0.000000
 41
0.000000
 66
  1
  0
VERTEX
  8
gg1
 10
0.000000
 20
-0.080000
  0
VERTEX
  8
gg1
 10
0.060000
 20
-0.100000
  0
SEQEND
  8
gg1
  0
POLYLINE
  8
gg1
 62
1
 40
0.000000
 41
0.000000
 66
  1
  0
VERTEX
  8
gg1
 10
0.000000
 20
-0.080000
  0
VERTEX
  8
gg1
 10
0.060000
 20
-0.060000
  0
SEQEND
  8
gg1
  0
POLYLINE
  8
gg1
 62
1
 40
0.000000
 41
0.000000
 66
  1
  0
VERTEX
  8
gg1
 10
0.000000
 20
0.000000
  0
VERTEX
  8
gg1
 10
0.000000
 20
0.350000
  0
SEQEND
  8
gg1
  0
POLYLINE
  8
gg1
 62
1
 40
0.000000
 41
0.000000
 66
  1
  0
VERTEX
  8
gg1
 10
3.000000
 20
0.000000
  0
VERTEX
  8
gg1
 10
3.000000
 20
0.275000
  0
SEQEND
  8
gg1
  0
POLYLINE
  8
gg1
 62
1
 40
0.000000
 41
0.000000
 66
  1
  0
VERTEX
  8
gg1
 10
0.000000
 20
0.000000
  0
VERTEX
  8
gg1
 10
3.000000
 20
0.000000
  0
SEQEND
  8
gg1
  0
POLYLINE
  8
gg1
 62
1
 40
0.000000
 41
0.000000
 66
  1
  0
VERTEX
  8
gg1
 10
0.000000
 20
0.350000
  0
VERTEX
  8
gg1
 10
3.000000
 20
0.350000
  0
SEQEND
  8
gg1
  0
POLYLINE
  8
gg1
 62
1
 40
0.000000
 41
0.000000
 66
  1
  0
VERTEX
  8
gg1
 10
3.000000
 20
0.275000
  0
VERTEX
  8
gg1
 10
3.000000
 20
0.350000
  0
SEQEND
  8
gg1
  0
POLYLINE
  8
gg1
 62
1
 40
0.000000
 41
0.000000
 66
  1
  0
VERTEX
  8
gg1
 10
-0.162000
 20
0.022000
  0
VERTEX
  8
gg1
 10
-0.172000
 20
0.032000
  0
VERTEX
  8
gg1
 10
-0.172000
 20
0.052000
  0
VERTEX
  8
gg1
 10
-0.162000
 20
0.062000
  0
VERTEX
  8
gg1
 10
-0.152000
 20
0.062000
  0
VERTEX
  8
gg1
 10
-0.142000
 20
0.052000
  0
VERTEX
  8
gg1
 10
-0.142000
 20
0.042000
  0
VERTEX
  8
gg1
 10
-0.142000
 20
0.052000
  0
VERTEX
  8
gg1
 10
-0.132000
 20
0.062000
  0
VERTEX
  8
gg1
 10
-0.122000
 20
0.062000
  0
VERTEX
  8
gg1
 10
-0.112000
 20
0.052000
  0
VERTEX
  8
gg1
 10
-0.112000
 20
0.032000
  0
VERTEX
  8
gg1
 10
-0.122000
 20
0.022000
  0
SEQEND
  8
gg1
  0
POLYLINE
  8
gg1
 62
1
 40
0.000000
 41
0.000000
 66
  1
  0
VERTEX
  8
gg1
 10
-0.172000
 20
0.122000
  0
VERTEX
  8
gg1
 10
-0.172000
 20
0.082000
  0
VERTEX
  8
gg1
 10
-0.142000
 20
0.082000
  0
VERTEX
  8
gg1
 10
-0.152000
 20
0.102000
  0
VERTEX
  8
gg1
 10
-0.152000
 20
0.112000
  0
VERTEX
  8
gg1
 10
-0.142000
 20
0.122000
  0
VERTEX
  8
gg1
 10
-0.122000
 20
0.122000
  0
VERTEX
  8
gg1
 10
-0.112000
 20
0.112000
  0
VERTEX
  8
gg1
 10
-0.112000
 20
0.092000
  0
VERTEX
  8
gg1
 10
-0.122000
 20
0.082000
  0
SEQEND
  8
gg1
  0
POLYLINE
  8
gg1
 62
1
 40
0.000000
 41
0.000000
 66
  1
  0
VERTEX
  8
gg1
 10
-0.162000
 20
0.142000
  0
VERTEX
  8
gg1
 10
-0.172000
 20
0.152000
  0
VERTEX
  8
gg1
 10
-0.172000
 20
0.172000
  0
VERTEX
  8
gg1
 10
-0.162000
 20
0.181900
  0
VERTEX
  8
gg1
 10
-0.122000
 20
0.181900
  0
VERTEX
  8
gg1
 10
-0.112000
 20
0.172000
  0
VERTEX
  8
gg1
 10
-0.112000
 20
0.152000
  0
VERTEX
  8
gg1
 10
-0.122000
 20
0.142000
  0
VERTEX
  8
gg1
 10
-0.162000
 20
0.142000
  0
SEQEND
  8
gg1
  0
POLYLINE
  8
gg1
 62
1
 40
0.000000
 41
0.000000
 66
  1
  0
VERTEX
  8
gg1
 10
-0.112000
 20
0.201900
  0
VERTEX
  8
gg1
 10
-0.152000
 20
0.201900
  0
VERTEX
  8
gg1
 10
-0.152000
 20
0.211900
  0
VERTEX
  8
gg1
 10
-0.142000
 20
0.221900
  0
VERTEX
  8
gg1
 10
-0.112000
 20
0.221900
  0
VERTEX
  8
gg1
 10
-0.142000
 20
0.221900
  0
VERTEX
  8
gg1
 10
-0.152000
 20
0.231900
  0
VERTEX
  8
gg1
 10
-0.142000
 20
0.241900
  0
VERTEX
  8
gg1
 10
-0.112000
 20
0.241900
  0
SEQEND
  8
gg1
  0
POLYLINE
  8
gg1
 62
1
 40
0.000000
 41
0.000000
 66
  1
  0
VERTEX
  8
gg1
 10
-0.112000
 20
0.261900
  0
VERTEX
  8
gg1
 10
-0.112000
 20
0.281900
  0
VERTEX
  8
gg1
 10
-0.112000
 20
0.271900
  0
VERTEX
  8
gg1
 10
-0.152000
 20
0.271900
  0
VERTEX
  8
gg1
 10
-0.152000
 20
0.261900
  0
SEQEND
  8
gg1
  0
POLYLINE
  8
gg1
 62
1
 40
0.000000
 41
0.000000
 66
  1
  0
VERTEX
  8
gg1
 10
-0.112000
 20
0.311900
  0
VERTEX
  8
gg1
 10
-0.112000
 20
0.331900
  0
VERTEX
  8
gg1
 10
-0.112000
 20
0.321900
  0
VERTEX
  8
gg1
 10
-0.172000
 20
0.321900
  0
VERTEX
  8
gg1
 10
-0.172000
 20
0.311900
  0
SEQEND
  8
gg1
  0
POLYLINE
  8
gg1
 62
1
 40
0.000000
 41
0.000000
 66
  1
  0
VERTEX
  8
gg1
 10
1.299100
 20
-0.066000
  0
VERTEX
  8
gg1
 10
1.309100
 20
-0.056000
  0
VERTEX
  8
gg1
 10
1.329000
 20
-0.056000
  0
VERTEX
  8
gg1
 10
1.339000
 20
-0.066000
  0
VERTEX
  8
gg1
 10
1.339000
 20
-0.076000
  0
VERTEX
  8
gg1
 10
1.329000
 20
-0.086000
  0
VERTEX
  8
gg1
 10
1.319100
 20
-0.086000
  0
VERTEX
  8
gg1
 10
1.329000
 20
-0.086000
  0
VERTEX
  8
gg1
 10
1.339000
 20
-0.096000
  0
VERTEX
  8
gg1
 10
1.339000
 20
-0.106000
  0
VERTEX
  8
gg1
 10
1.329000
 20
-0.116000
  0
VERTEX
  8
gg1
 10
1.309100
 20
-0.116000
  0
VERTEX
  8
gg1
 10
1.299100
 20
-0.106000
  0
SEQEND
  8
gg1
  0
POLYLINE
  8
gg1
 62
1
 40
0.000000
 41
0.000000
 66
  1
  0
VERTEX
  8
gg1
 10
1.359000
 20
-0.066000
  0
VERTEX
  8
gg1
 10
1.369000
 20
-0.056000
  0
VERTEX
  8
gg1
 10
1.389000
 20
-0.056000
  0
VERTEX
  8
gg1
 10
1.399000
 20
-0.066000
  0
VERTEX
  8
gg1
 10
1.399000
 20
-0.106000
  0
VERTEX
  8
gg1
 10
1.389000
 20
-0.116000
  0
VERTEX
  8
gg1
 10
1.369000
 20
-0.116000
  0
VERTEX
  8
gg1
 10
1.359000
 20
-0.106000
  0
VERTEX
  8
gg1
 10
1.359000
 20
-0.066000
  0
SEQEND
  8
gg1
  0
POLYLINE
  8
gg1
 62
1
 40
0.000000
 41
0.000000
 66
  1
  0
VERTEX
  8
gg1
 10
1.419000
 20
-0.066000
  0
VERTEX
  8
gg1
 10
1.429000
 20
-0.056000
  0
VERTEX
  8
gg1
 10
1.449000
 20
-0.056000
  0
VERTEX
  8
gg1
 10
1.459000
 20
-0.066000
  0
VERTEX
  8
gg1
 10
1.459000
 20
-0.106000
  0
VERTEX
  8
gg1
 10
1.449000
 20
-0.116000
  0
VERTEX
  8
gg1
 10
1.429000
 20
-0.116000
  0
VERTEX
  8
gg1
 10
1.419000
 20
-0.106000
  0
VERTEX
  8
gg1
 10
1.419000
 20
-0.066000
  0
SEQEND
  8
gg1
  0
POLYLINE
  8
gg1
 62
1
 40
0.000000
 41
0.000000
 66
  1
  0
VERTEX
  8
gg1
 10
1.479000
 20
-0.066000
  0
VERTEX
  8
gg1
 10
1.489000
 20
-0.056000
  0
VERTEX
  8
gg1
 10
1.509000
 20
-0.056000
  0
VERTEX
  8
gg1
 10
1.519000
 20
-0.066000
  0
VERTEX
  8
gg1
 10
1.519000
 20
-0.106000
  0
VERTEX
  8
gg1
 10
1.509000
 20
-0.116000
  0
VERTEX
  8
gg1
 10
1.489000
 20
-0.116000
  0
VERTEX
  8
gg1
 10
1.479000
 20
-0.106000
  0
VERTEX
  8
gg1
 10
1.479000
 20
-0.066000
  0
SEQEND
  8
gg1
  0
POLYLINE
  8
gg1
 62
1
 40
0.000000
 41
0.000000
 66
  1
  0
VERTEX
  8
gg1
 10
1.539000
 20
-0.116000
  0
VERTEX
  8
gg1
 10
1.539000
 20
-0.076000
  0
VERTEX
  8
gg1
 10
1.549000
 20
-0.076000
  0
VERTEX
  8
gg1
 10
1.559000
 20
-0.086000
  0
VERTEX
  8
gg1
 10
1.559000
 20
-0.116000
  0
VERTEX
  8
gg1
 10
1.559000
 20
-0.086000
  0
VERTEX
  8
gg1
 10
1.569000
 20
-0.076000
  0
VERTEX
  8
gg1
 10
1.579000
 20
-0.086000
  0
VERTEX
  8
gg1
 10
1.579000
 20
-0.116000
  0
SEQEND
  8
gg1
  0
POLYLINE
  8
gg1
 62
1
 40
0.000000
 41
0.000000
 66
  1
  0
VERTEX
  8
gg1
 10
1.599000
 20
-0.116000
  0
VERTEX
  8
gg1
 10
1.619000
 20
-0.116000
  0
VERTEX
  8
gg1
 10
1.609000
 20
-0.116000
  0
VERTEX
  8
gg1
 10
1.609000
 20
-0.076000
  0
VERTEX
  8
gg1
 10
1.599000
 20
-0.076000
  0
SEQEND
  8
gg1
  0
POLYLINE
  8
gg1
 62
1
 40
0.000000
 41
0.000000
 66
  1
  0
VERTEX
  8
gg1
 10
1.648900
 20
-0.116000
  0
VERTEX
  8
gg1
 10
1.668900
 20
-0.116000
  0
VERTEX
  8
gg1
 10
1.658900
 20
-0.116000
  0
VERTEX
  8
gg1
 10
1.658900
 20
-0.056000
  0
VERTEX
  8
gg1
 10
1.648900
 20
-0.056000
  0
SEQEND
  8
gg1
  0
POLYLINE
  8
gg1
 62
1
 40
0.000000
 41
0.000000
 66
  1
  0
VERTEX
  8
gg1
 10
2.730000
 20
0.050000
  0
VERTEX
  8
gg1
 10
2.770000
 20
0.050000
  0
SEQEND
  8
gg1
  0
POLYLINE
  8
gg1
 62
1
 40
0.000000
 41
0.000000
 66
  1
  0
VERTEX
  8
gg1
 10
2.750000
 20
0.030000
  0
VERTEX
  8
gg1
 10
2.750000
 20
0.070000
  0
SEQEND
  8
gg1
  0
POLYLINE
  8
gg1
 62
1
 40
0.000000
 41
0.000000
 66
  1
  0
VERTEX
  8
gg1
 10
2.830000
 20
0.050000
  0
VERTEX
  8
gg1
 10
2.870000
 20
0.050000
  0
SEQEND
  8
gg1
  0
POLYLINE
  8
gg1
 62
1
 40
0.000000
 41
0.000000
 66
  1
  0
VERTEX
  8
gg1
 10
2.850000
 20
0.030000
  0
VERTEX
  8
gg1
 10
2.850000
 20
0.070000
  0
SEQEND
  8
gg1
  0
POLYLINE
  8
gg1
 62
1
 40
0.000000
 41
0.000000
 66
  1
  0
VERTEX
  8
gg1
 10
2.930000
 20
0.050000
  0
VERTEX
  8
gg1
 10
2.970000
 20
0.050000
  0
SEQEND
  8
gg1
  0
POLYLINE
  8
gg1
 62
1
 40
0.000000
 41
0.000000
 66
  1
  0
VERTEX
  8
gg1
 10
2.950000
 20
0.030000
  0
VERTEX
  8
gg1
 10
2.950000
 20
0.070000
  0
SEQEND
  8
gg1
  0
POLYLINE
  8
gg1
 62
1
 40
0.000000
 41
0.000000
 66
  1
  0
VERTEX
  8
gg1
 10
2.630000
 20
0.050000
  0
VERTEX
  8
gg1
 10
2.670000
 20
0.050000
  0
SEQEND
  8
gg1
  0
POLYLINE
  8
gg1
 62
1
 40
0.000000
 41
0.000000
 66
  1
  0
VERTEX
  8
gg1
 10
2.650000
 20
0.030000
  0
VERTEX
  8
gg1
 10
2.650000
 20
0.070000
  0
SEQEND
  8
gg1
  0
POLYLINE
  8
gg1
 62
1
 40
0.000000
 41
0.000000
 66
  1
  0
VERTEX
  8
gg1
 10
2.530000
 20
0.050000
  0
VERTEX
  8
gg1
 10
2.570000
 20
0.050000
  0
SEQEND
  8
gg1
  0
POLYLINE
  8
gg1
 62
1
 40
0.000000
 41
0.000000
 66
  1
  0
VERTEX
  8
gg1
 10
2.550000
 20
0.030000
  0
VERTEX
  8
gg1
 10
2.550000
 20
0.070000
  0
SEQEND
  8
gg1
  0
POLYLINE
  8
gg1
 62
1
 40
0.000000
 41
0.000000
 66
  1
  0
VERTEX
  8
gg1
 10
2.430000
 20
0.050000
  0
VERTEX
  8
gg1
 10
2.470000
 20
0.050000
  0
SEQEND
  8
gg1
  0
POLYLINE
  8
gg1
 62
1
 40
0.000000
 41
0.000000
 66
  1
  0
VERTEX
  8
gg1
 10
2.450000
 20
0.030000
  0
VERTEX
  8
gg1
 10
2.450000
 20
0.070000
  0
SEQEND
  8
gg1
  0
POLYLINE
  8
gg1
 62
1
 40
0.000000
 41
0.000000
 66
  1
  0
VERTEX
  8
gg1
 10
2.330000
 20
0.050000
  0
VERTEX
  8
gg1
 10
2.370000
 20
0.050000
  0
SEQEND
  8
gg1
  0
POLYLINE
  8
gg1
 62
1
 40
0.000000
 41
0.000000
 66
  1
  0
VERTEX
  8
gg1
 10
2.350000
 20
0.030000
  0
VERTEX
  8
gg1
 10
2.350000
 20
0.070000
  0
SEQEND
  8
gg1
  0
POLYLINE
  8
gg1
 62
1
 40
0.000000
 41
0.000000
 66
  1
  0
VERTEX
  8
gg1
 10
0.630000
 20
0.050000
  0
VERTEX
  8
gg1
 10
0.670000
 20
0.050000
  0
SEQEND
  8
gg1
  0
POLYLINE
  8
gg1
 62
1
 40
0.000000
 41
0.000000
 66
  1
  0
VERTEX
  8
gg1
 10
0.650000
 20
0.030000
  0
VERTEX
  8
gg1
 10
0.650000
 20
0.070000
  0
SEQEND
  8
gg1
  0
POLYLINE
  8
gg1
 62
1
 40
0.000000
 41
0.000000
 66
  1
  0
VERTEX
  8
gg1
 10
0.530000
 20
0.050000
  0
VERTEX
  8
gg1
 10
0.570000
 20
0.050000
  0
SEQEND
  8
gg1
  0
POLYLINE
  8
gg1
 62
1
 40
0.000000
 41
0.000000
 66
  1
  0
VERTEX
  8
gg1
 10
0.550000
 20
0.030000
  0
VERTEX
  8
gg1
 10
0.550000
 20
0.070000
  0
SEQEND
  8
gg1
  0
POLYLINE
  8
gg1
 62
1
 40
0.000000
 41
0.000000
 66
  1
  0
VERTEX
  8
gg1
 10
0.430000
 20
0.050000
  0
VERTEX
  8
gg1
 10
0.470000
 20
0.050000
  0
SEQEND
  8
gg1
  0
POLYLINE
  8
gg1
 62
1
 40
0.000000
 41
0.000000
 66
  1
  0
VERTEX
  8
gg1
 10
0.450000
 20
0.030000
  0
VERTEX
  8
gg1
 10
0.450000
 20
0.070000
  0
SEQEND
  8
gg1
  0
POLYLINE
  8
gg1
 62
1
 40
0.000000
 41
0.000000
 66
  1
  0
VERTEX
  8
gg1
 10
0.330000
 20
0.050000
  0
VERTEX
  8
gg1
 10
0.370000
 20
0.050000
  0
SEQEND
  8
gg1
  0
POLYLINE
  8
gg1
 62
1
 40
0.000000
 41
0.000000
 66
  1
  0
VERTEX
  8
gg1
 10
0.350000
 20
0.030000
  0
VERTEX
  8
gg1
 10
0.350000
 20
0.070000
  0
SEQEND
  8
gg1
  0
POLYLINE
  8
gg1
 62
1
 40
0.000000
 41
0.000000
 66
  1
  0
VERTEX
  8
gg1
 10
0.230000
 20
0.050000
  0
VERTEX
  8
gg1
 10
0.270000
 20
0.050000
  0
SEQEND
  8
gg1
  0
POLYLINE
  8
gg1
 62
1
 40
0.000000
 41
0.000000
 66
  1
  0
VERTEX
  8
gg1
 10
0.250000
 20
0.030000
  0
VERTEX
  8
gg1
 10
0.250000
 20
0.070000
  0
SEQEND
  8
gg1
  0
POLYLINE
  8
gg1
 62
1
 40
0.000000
 41
0.000000
 66
  1
  0
VERTEX
  8
gg1
 10
0.130000
 20
0.050000
  0
VERTEX
  8
gg1
 10
0.170000
 20
0.050000
  0
SEQEND
  8
gg1
  0
POLYLINE
  8
gg1
 62
1
 40
0.000000
 41
0.000000
 66
  1
  0
VERTEX
  8
gg1
 10
0.150000
 20
0.030000
  0
VERTEX
  8
gg1
 10
0.150000
 20
0.070000
  0
SEQEND
  8
gg1
  0
POLYLINE
  8
gg1
 62
1
 40
0.000000
 41
0.000000
 66
  1
  0
VERTEX
  8
gg1
 10
0.030000
 20
0.050000
  0
VERTEX
  8
gg1
 10
0.070000
 20
0.050000
  0
SEQEND
  8
gg1
  0
POLYLINE
  8
gg1
 62
1
 40
0.000000
 41
0.000000
 66
  1
  0
VERTEX
  8
gg1
 10
0.050000
 20
0.030000
  0
VERTEX
  8
gg1
 10
0.050000
 20
0.070000
  0
SEQEND
  8
gg1
  0
POLYLINE
  8
gg1
 62
1
 40
0.000000
 41
0.000000
 66
  1
  0
VERTEX
  8
gg1
 10
0.090000
 20
0.310000
  0
VERTEX
  8
gg1
 10
0.105000
 20
0.310000
  0
SEQEND
  8
gg1
  0
POLYLINE
  8
gg1
 62
1
 40
0.000000
 41
0.000000
 66
  1
  0
VERTEX
  8
gg1
 10
0.097500
 20
0.302500
  0
VERTEX
  8
gg1
 10
0.097500
 20
0.317500
  0
SEQEND
  8
gg1
  0
POLYLINE
  8
gg1
 62
1
 40
0.000000
 41
0.000000
 66
  1
  0
VERTEX
  8
gg1
 10
0.465000
 20
0.310000
  0
VERTEX
  8
gg1
 10
0.480000
 20
0.310000
  0
SEQEND
  8
gg1
  0
POLYLINE
  8
gg1
 62
1
 40
0.000000
 41
0.000000
 66
  1
  0
VERTEX
  8
gg1
 10
0.472500
 20
0.302500
  0
VERTEX
  8
gg1
 10
0.472500
 20
0.317500
  0
SEQEND
  8
gg1
  0
POLYLINE
  8
gg1
 62
1
 40
0.000000
 41
0.000000
 66
  1
  0
VERTEX
  8
gg1
 10
0.087500
 20
0.165000
  0
VERTEX
  8
gg1
 10
0.102500
 20
0.165000
  0
SEQEND
  8
gg1
  0
POLYLINE
  8
gg1
 62
1
 40
0.000000
 41
0.000000
 66
  1
  0
VERTEX
  8
gg1
 10
0.095000
 20
0.157500
  0
VERTEX
  8
gg1
 10
0.095000
 20
0.172500
  0
SEQEND
  8
gg1
  0
POLYLINE
  8
gg1
 62
1
 40
0.000000
 41
0.000000
 66
  1
  0
VERTEX
  8
gg1
 10
2.715000
 20
0.310000
  0
VERTEX
  8
gg1
 10
2.730000
 20
0.310000
  0
SEQEND
  8
gg1
  0
POLYLINE
  8
gg1
 62
1
 40
0.000000
 41
0.000000
 66
  1
  0
VERTEX
  8
gg1
 10
2.722500
 20
0.302500
  0
VERTEX
  8
gg1
 10
2.722500
 20
0.317500
  0
SEQEND
  8
gg1
  0
POLYLINE
  8
gg1
 62
1
 40
0.000000
 41
0.000000
 66
  1
  0
VERTEX
  8
gg1
 10
1.237500
 20
0.045000
  0
VERTEX
  8
gg1
 10
1.252500
 20
0.045000
  0
SEQEND
  8
gg1
  0
POLYLINE
  8
gg1
 62
1
 40
0.000000
 41
0.000000
 66
  1
  0
VERTEX
  8
gg1
 10
1.245000
 20
0.037500
  0
VERTEX
  8
gg1
 10
1.245000
 20
0.052500
  0
SEQEND
  8
gg1
  0
POLYLINE
  8
gg1
 62
1
 40
0.000000
 41
0.000000
 66
  1
  0
VERTEX
  8
gg1
 10
1.612800
 20
0.045000
  0
VERTEX
  8
gg1
 10
1.627800
 20
0.045000
  0
SEQEND
  8
gg1
  0
POLYLINE
  8
gg1
 62
1
 40
0.000000
 41
0.000000
 66
  1
  0
VERTEX
  8
gg1
 10
1.620300
 20
0.037500
  0
VERTEX
  8
gg1
 10
1.620300
 20
0.052500
  0
SEQEND
  8
gg1
  0
POLYLINE
  8
gg1
 62
1
 40
0.000000
 41
0.000000
 66
  1
  0
VERTEX
  8
gg1
 10
1.185000
 20
0.100000
  0
VERTEX
  8
gg1
 10
1.200000
 20
0.100000
  0
SEQEND
  8
gg1
  0
POLYLINE
  8
gg1
 62
1
 40
0.000000
 41
0.000000
 66
  1
  0
VERTEX
  8
gg1
 10
1.192500
 20
0.092500
  0
VERTEX
  8
gg1
 10
1.192500
 20
0.107500
  0
SEQEND
  8
gg1
  0
POLYLINE
  8
gg1
 62
1
 40
0.000000
 41
0.000000
 66
  1
  0
VERTEX
  8
gg1
 10
1.567500
 20
0.099900
  0
VERTEX
  8
gg1
 10
1.582500
 20
0.099900
  0
SEQEND
  8
gg1
  0
POLYLINE
  8
gg1
 62
1
 40
0.000000
 41
0.000000
 66
  1
  0
VERTEX
  8
gg1
 10
1.575000
 20
0.092400
  0
VERTEX
  8
gg1
 10
1.575000
 20
0.107400
  0
SEQEND
  8
gg1
  0
POLYLINE
  8
gg1
 62
1
 40
0.000000
 41
0.000000
 66
  1
  0
VERTEX
  8
gg1
 10
1.425300
 20
0.045000
  0
VERTEX
  8
gg1
 10
1.440300
 20
0.045000
  0
SEQEND
  8
gg1
  0
POLYLINE
  8
gg1
 62
1
 40
0.000000
 41
0.000000
 66
  1
  0
VERTEX
  8
gg1
 10
1.432800
 20
0.037500
  0
VERTEX
  8
gg1
 10
1.432800
 20
0.052500
  0
SEQEND
  8
gg1
  0
POLYLINE
  8
gg1
 62
1
 40
0.000000
 41
0.000000
 66
  1
  0
VERTEX
  8
gg1
 10
1.559700
 20
0.045000
  0
VERTEX
  8
gg1
 10
1.574700
 20
0.045000
  0
SEQEND
  8
gg1
  0
POLYLINE
  8
gg1
 62
1
 40
0.000000
 41
0.000000
 66
  1
  0
VERTEX
  8
gg1
 10
1.567200
 20
0.037500
  0
VERTEX
  8
gg1
 10
1.567200
 20
0.052500
  0
SEQEND
  8
gg1
  0
POLYLINE
  8
gg1
 62
1
 40
0.000000
 41
0.000000
 66
  1
  0
VERTEX
  8
gg1
 10
1.935000
 20
0.100000
  0
VERTEX
  8
gg1
 10
1.950000
 20
0.100000
  0
SEQEND
  8
gg1
  0
POLYLINE
  8
gg1
 62
1
 40
0.000000
 41
0.000000
 66
  1
  0
VERTEX
  8
gg1
 10
1.942500
 20
0.092500
  0
VERTEX
  8
gg1
 10
1.942500
 20
0.107500
  0
SEQEND
  8
gg1
  0
POLYLINE
  8
gg1
 62
1
 40
0.000000
 41
0.000000
 66
  1
  0
VERTEX
  8
gg1
 10
2.132500
 20
0.065000
  0
VERTEX
  8
gg1
 10
2.147500
 20
0.065000
  0
SEQEND
  8
gg1
  0
POLYLINE
  8
gg1
 62
1
 40
0.000000
 41
0.000000
 66
  1
  0
VERTEX
  8
gg1
 10
2.140000
 20
0.057500
  0
VERTEX
  8
gg1
 10
2.140000
 20
0.072500
  0
SEQEND
  8
gg1
  0
POLYLINE
  8
gg1
 62
1
 40
0.000000
 41
0.000000
 66
  1
  0
VERTEX
  8
gg1
 10
1.792500
 20
0.060000
  0
VERTEX
  8
gg1
 10
1.807500
 20
0.060000
  0
SEQEND
  8
gg1
  0
POLYLINE
  8
gg1
 62
1
 40
0.000000
 41
0.000000
 66
  1
  0
VERTEX
  8
gg1
 10
1.800000
 20
0.052500
  0
VERTEX
  8
gg1
 10
1.800000
 20
0.067500
  0
SEQEND
  8
gg1
  0
POLYLINE
  8
gg1
 62
1
 40
0.000000
 41
0.000000
 66
  1
  0
VERTEX
  8
gg1
 10
1.042500
 20
0.060000
  0
VERTEX
  8
gg1
 10
1.057500
 20
0.060000
  0
SEQEND
  8
gg1
  0
POLYLINE
  8
gg1
 62
1
 40
0.000000
 41
0.000000
 66
  1
  0
VERTEX
  8
gg1
 10
1.050000
 20
0.052500
  0
VERTEX
  8
gg1
 10
1.050000
 20
0.067500
  0
SEQEND
  8
gg1
  0
POLYLINE
  8
gg1
 62
1
 40
0.000000
 41
0.000000
 66
  1
  0
VERTEX
  8
gg1
 10
0.277500
 20
0.275000
  0
VERTEX
  8
gg1
 10
0.292500
 20
0.275000
  0
SEQEND
  8
gg1
  0
POLYLINE
  8
gg1
 62
1
 40
0.000000
 41
0.000000
 66
  1
  0
VERTEX
  8
gg1
 10
0.285000
 20
0.267500
  0
VERTEX
  8
gg1
 10
0.285000
 20
0.282500
  0
SEQEND
  8
gg1
  0
POLYLINE
  8
gg1
 62
1
 40
0.000000
 41
0.000000
 66
  1
  0
VERTEX
  8
gg1
 10
0.830000
 20
0.255000
  0
VERTEX
  8
gg1
 10
0.845000
 20
0.255000
  0
SEQEND
  8
gg1
  0
POLYLINE
  8
gg1
 62
1
 40
0.000000
 41
0.000000
 66
  1
  0
VERTEX
  8
gg1
 10
0.837500
 20
0.247500
  0
VERTEX
  8
gg1
 10
0.837500
 20
0.262500
  0
SEQEND
  8
gg1
  0
POLYLINE
  8
gg1
 62
1
 40
0.000000
 41
0.000000
 66
  1
  0
VERTEX
  8
gg1
 10
0.652500
 20
0.275000
  0
VERTEX
  8
gg1
 10
0.667500
 20
0.275000
  0
SEQEND
  8
gg1
  0
POLYLINE
  8
gg1
 62
1
 40
0.000000
 41
0.000000
 66
  1
  0
VERTEX
  8
gg1
 10
0.660000
 20
0.267500
  0
VERTEX
  8
gg1
 10
0.660000
 20
0.282500
  0
SEQEND
  8
gg1
  0
POLYLINE
  8
gg1
 62
1
 40
0.000000
 41
0.000000
 66
  1
  0
VERTEX
  8
gg1
 10
1.590000
 20
0.310000
  0
VERTEX
  8
gg1
 10
1.605000
 20
0.310000
  0
SEQEND
  8
gg1
  0
POLYLINE
  8
gg1
 62
1
 40
0.000000
 41
0.000000
 66
  1
  0
VERTEX
  8
gg1
 10
1.597500
 20
0.302500
  0
VERTEX
  8
gg1
 10
1.597500
 20
0.317500
  0
SEQEND
  8
gg1
  0
POLYLINE
  8
gg1
 62
1
 40
0.000000
 41
0.000000
 66
  1
  0
VERTEX
  8
gg1
 10
1.777500
 20
0.275000
  0
VERTEX
  8
gg1
 10
1.792500
 20
0.275000
  0
SEQEND
  8
gg1
  0
POLYLINE
  8
gg1
 62
1
 40
0.000000
 41
0.000000
 66
  1
  0
VERTEX
  8
gg1
 10
1.785000
 20
0.267500
  0
VERTEX
  8
gg1
 10
1.785000
 20
0.282500
  0
SEQEND
  8
gg1
  0
POLYLINE
  8
gg1
 62
1
 40
0.000000
 41
0.000000
 66
  1
  0
VERTEX
  8
gg1
 10
2.902500
 20
0.275000
  0
VERTEX
  8
gg1
 10
2.917500
 20
0.275000
  0
SEQEND
  8
gg1
  0
POLYLINE
  8
gg1
 62
1
 40
0.000000
 41
0.000000
 66
  1
  0
VERTEX
  8
gg1
 10
2.910000
 20
0.267500
  0
VERTEX
  8
gg1
 10
2.910000
 20
0.282500
  0
SEQEND
  8
gg1
  0
POLYLINE
  8
gg1
 62
1
 40
0.000000
 41
0.000000
 66
  1
  0
VERTEX
  8
gg1
 10
1.822500
 20
0.215500
  0
VERTEX
  8
gg1
 10
1.837500
 20
0.215500
  0
SEQEND
  8
gg1
  0
POLYLINE
  8
gg1
 62
1
 40
0.000000
 41
0.000000
 66
  1
  0
VERTEX
  8
gg1
 10
1.830000
 20
0.208000
  0
VERTEX
  8
gg1
 10
1.830000
 20
0.223000
  0
SEQEND
  8
gg1
  0
POLYLINE
  8
gg1
 62
1
 40
0.000000
 41
0.000000
 66
  1
  0
VERTEX
  8
gg1
 10
1.147500
 20
0.215500
  0
VERTEX
  8
gg1
 10
1.162500
 20
0.215500
  0
SEQEND
  8
gg1
  0
POLYLINE
  8
gg1
 62
1
 40
0.000000
 41
0.000000
 66
  1
  0
VERTEX
  8
gg1
 10
1.155000
 20
0.208000
  0
VERTEX
  8
gg1
 10
1.155000
 20
0.223000
  0
SEQEND
  8
gg1
  0
POLYLINE
  8
gg1
 62
1
 40
0.000000
 41
0.000000
 66
  1
  0
VERTEX
  8
gg1
 10
1.402500
 20
0.275000
  0
VERTEX
  8
gg1
 10
1.417500
 20
0.275000
  0
SEQEND
  8
gg1
  0
POLYLINE
  8
gg1
 62
1
 40
0.000000
 41
0.000000
 66
  1
  0
VERTEX
  8
gg1
 10
1.410000
 20
0.267500
  0
VERTEX
  8
gg1
 10
1.410000
 20
0.282500
  0
SEQEND
  8
gg1
  0
POLYLINE
  8
gg1
 62
1
 40
0.000000
 41
0.000000
 66
  1
  0
VERTEX
  8
gg1
 10
2.332500
 20
0.275000
  0
VERTEX
  8
gg1
 10
2.347500
 20
0.275000
  0
SEQEND
  8
gg1
  0
POLYLINE
  8
gg1
 62
1
 40
0.000000
 41
0.000000
 66
  1
  0
VERTEX
  8
gg1
 10
2.340000
 20
0.267500
  0
VERTEX
  8
gg1
 10
2.340000
 20
0.282500
  0
SEQEND
  8
gg1
  0
POLYLINE
  8
gg1
 62
1
 40
0.000000
 41
0.000000
 66
  1
  0
VERTEX
  8
gg1
 10
2.532500
 20
0.255000
  0
VERTEX
  8
gg1
 10
2.547500
 20
0.255000
  0
SEQEND
  8
gg1
  0
POLYLINE
  8
gg1
 62
1
 40
0.000000
 41
0.000000
 66
  1
  0
VERTEX
  8
gg1
 10
2.540000
 20
0.247500
  0
VERTEX
  8
gg1
 10
2.540000
 20
0.262500
  0
SEQEND
  8
gg1
  0
POLYLINE
  8
gg1
 62
1
 40
0.000000
 41
0.000000
 66
  1
  0
VERTEX
  8
gg1
 10
2.157500
 20
0.235000
  0
VERTEX
  8
gg1
 10
2.172500
 20
0.235000
  0
SEQEND
  8
gg1
  0
POLYLINE
  8
gg1
 62
1
 40
0.000000
 41
0.000000
 66
  1
  0
VERTEX
  8
gg1
 10
2.165000
 20
0.227500
  0
VERTEX
  8
gg1
 10
2.165000
 20
0.242500
  0
SEQEND
  8
gg1
  0
POLYLINE
  8
gg1
 62
1
 40
0.000000
 41
0.000000
 66
  1
  0
VERTEX
  8
gg1
 10
1.957000
 20
0.255000
  0
VERTEX
  8
gg1
 10
1.972000
 20
0.255000
  0
SEQEND
  8
gg1
  0
POLYLINE
  8
gg1
 62
1
 40
0.000000
 41
0.000000
 66
  1
  0
VERTEX
  8
gg1
 10
1.964500
 20
0.247500
  0
VERTEX
  8
gg1
 10
1.964500
 20
0.262500
  0
SEQEND
  8
gg1
  0
POLYLINE
  8
gg1
 62
1
 40
0.000000
 41
0.000000
 66
  1
  0
VERTEX
  8
gg1
 10
0.462500
 20
0.165000
  0
VERTEX
  8
gg1
 10
0.477500
 20
0.165000
  0
SEQEND
  8
gg1
  0
POLYLINE
  8
gg1
 62
1
 40
0.000000
 41
0.000000
 66
  1
  0
VERTEX
  8
gg1
 10
0.470000
 20
0.157500
  0
VERTEX
  8
gg1
 10
0.470000
 20
0.172500
  0
SEQEND
  8
gg1
  0
POLYLINE
  8
gg1
 62
1
 40
0.000000
 41
0.000000
 66
  1
  0
VERTEX
  8
gg1
 10
0.837500
 20
0.165000
  0
VERTEX
  8
gg1
 10
0.852500
 20
0.165000
  0
SEQEND
  8
gg1
  0
POLYLINE
  8
gg1
 62
1
 40
0.000000
 41
0.000000
 66
  1
  0
VERTEX
  8
gg1
 10
0.845000
 20
0.157500
  0
VERTEX
  8
gg1
 10
0.845000
 20
0.172500
  0
SEQEND
  8
gg1
  0
POLYLINE
  8
gg1
 62
1
 40
0.000000
 41
0.000000
 66
  1
  0
VERTEX
  8
gg1
 10
1.897500
 20
0.215500
  0
VERTEX
  8
gg1
 10
1.912500
 20
0.215500
  0
SEQEND
  8
gg1
  0
POLYLINE
  8
gg1
 62
1
 40
0.000000
 41
0.000000
 66
  1
  0
VERTEX
  8
gg1
 10
1.905000
 20
0.208000
  0
VERTEX
  8
gg1
 10
1.905000
 20
0.223000
  0
SEQEND
  8
gg1
  0
POLYLINE
  8
gg1
 62
1
 40
0.000000
 41
0.000000
 66
  1
  0
VERTEX
  8
gg1
 10
2.902500
 20
0.165000
  0
VERTEX
  8
gg1
 10
2.917500
 20
0.165000
  0
SEQEND
  8
gg1
  0
POLYLINE
  8
gg1
 62
1
 40
0.000000
 41
0.000000
 66
  1
  0
VERTEX
  8
gg1
 10
2.910000
 20
0.157500
  0
VERTEX
  8
gg1
 10
2.910000
 20
0.172500
  0
SEQEND
  8
gg1
  0
POLYLINE
  8
gg1
 62
1
 40
0.000000
 41
0.000000
 66
  1
  0
VERTEX
  8
gg1
 10
2.902500
 20
0.135000
  0
VERTEX
  8
gg1
 10
2.917500
 20
0.135000
  0
SEQEND
  8
gg1
  0
POLYLINE
  8
gg1
 62
1
 40
0.000000
 41
0.000000
 66
  1
  0
VERTEX
  8
gg1
 10
2.910000
 20
0.127500
  0
VERTEX
  8
gg1
 10
2.910000
 20
0.142500
  0
SEQEND
  8
gg1
  0
POLYLINE
  8
gg1
 62
1
 40
0.000000
 41
0.000000
 66
  1
  0
VERTEX
  8
gg1
 10
0.087500
 20
0.125000
  0
VERTEX
  8
gg1
 10
0.102500
 20
0.125000
  0
SEQEND
  8
gg1
  0
POLYLINE
  8
gg1
 62
1
 40
0.000000
 41
0.000000
 66
  1
  0
VERTEX
  8
gg1
 10
0.095000
 20
0.117500
  0
VERTEX
  8
gg1
 10
0.095000
 20
0.132500
  0
SEQEND
  8
gg1
  0
POLYLINE
  8
gg1
 62
1
 40
0.000000
 41
0.000000
 66
  1
  0
VERTEX
  8
gg1
 10
1.212500
 20
0.165000
  0
VERTEX
  8
gg1
 10
1.227500
 20
0.165000
  0
SEQEND
  8
gg1
  0
POLYLINE
  8
gg1
 62
1
 40
0.000000
 41
0.000000
 66
  1
  0
VERTEX
  8
gg1
 10
1.220000
 20
0.157500
  0
VERTEX
  8
gg1
 10
1.220000
 20
0.172500
  0
SEQEND
  8
gg1
  0
POLYLINE
  8
gg1
 62
1
 40
0.000000
 41
0.000000
 66
  1
  0
VERTEX
  8
gg1
 10
1.587500
 20
0.165000
  0
VERTEX
  8
gg1
 10
1.602500
 20
0.165000
  0
SEQEND
  8
gg1
  0
POLYLINE
  8
gg1
 62
1
 40
0.000000
 41
0.000000
 66
  1
  0
VERTEX
  8
gg1
 10
1.595000
 20
0.157500
  0
VERTEX
  8
gg1
 10
1.595000
 20
0.172500
  0
SEQEND
  8
gg1
  0
POLYLINE
  8
gg1
 62
1
 40
0.000000
 41
0.000000
 66
  1
  0
VERTEX
  8
gg1
 10
1.962500
 20
0.165000
  0
VERTEX
  8
gg1
 10
1.977500
 20
0.165000
  0
SEQEND
  8
gg1
  0
POLYLINE
  8
gg1
 62
1
 40
0.000000
 41
0.000000
 66
  1
  0
VERTEX
  8
gg1
 10
1.970000
 20
0.157500
  0
VERTEX
  8
gg1
 10
1.970000
 20
0.172500
  0
SEQEND
  8
gg1
  0
POLYLINE
  8
gg1
 62
1
 40
0.000000
 41
0.000000
 66
  1
  0
VERTEX
  8
gg1
 10
2.337500
 20
0.165000
  0
VERTEX
  8
gg1
 10
2.352500
 20
0.165000
  0
SEQEND
  8
gg1
  0
POLYLINE
  8
gg1
 62
1
 40
0.000000
 41
0.000000
 66
  1
  0
VERTEX
  8
gg1
 10
2.345000
 20
0.157500
  0
VERTEX
  8
gg1
 10
2.345000
 20
0.172500
  0
SEQEND
  8
gg1
  0
POLYLINE
  8
gg1
 62
1
 40
0.000000
 41
0.000000
 66
  1
  0
VERTEX
  8
gg1
 10
2.712500
 20
0.165000
  0
VERTEX
  8
gg1
 10
2.727500
 20
0.165000
  0
SEQEND
  8
gg1
  0
POLYLINE
  8
gg1
 62
1
 40
0.000000
 41
0.000000
 66
  1
  0
VERTEX
  8
gg1
 10
2.720000
 20
0.157500
  0
VERTEX
  8
gg1
 10
2.720000
 20
0.172500
  0
SEQEND
  8
gg1
  0
POLYLINE
  8
gg1
 62
1
 40
0.000000
 41
0.000000
 66
  1
  0
VERTEX
  8
gg1
 10
1.032500
 20
0.205000
  0
VERTEX
  8
gg1
 10
1.047500
 20
0.205000
  0
SEQEND
  8
gg1
  0
POLYLINE
  8
gg1
 62
1
 40
0.000000
 41
0.000000
 66
  1
  0
VERTEX
  8
gg1
 10
1.040000
 20
0.197500
  0
VERTEX
  8
gg1
 10
1.040000
 20
0.212500
  0
SEQEND
  8
gg1
  0
POLYLINE
  8
gg1
 62
1
 40
0.000000
 41
0.000000
 66
  1
  0
VERTEX
  8
gg1
 10
1.207500
 20
0.275000
  0
VERTEX
  8
gg1
 10
1.222500
 20
0.275000
  0
SEQEND
  8
gg1
  0
POLYLINE
  8
gg1
 62
1
 40
0.000000
 41
0.000000
 66
  1
  0
VERTEX
  8
gg1
 10
1.215000
 20
0.267500
  0
VERTEX
  8
gg1
 10
1.215000
 20
0.282500
  0
SEQEND
  8
gg1
  0
ENDSEC
  0
EOF
