  0
SECTION
  2
HEADER
  9
$EXTMIN
 10
-0.127000
 20
-0.144000
  9
$EXTMAX
 10
0.705000
 20
0.805000
  9
$LIMMIN
 10
-0.127000
 20
-0.144000
  9
$LIMMAX
 10
0.705000
 20
0.805000
  9
$FILLMODE
 70
  1
  0
ENDSEC
  0
SECTION
  2
TABLES
  0
TABLE
  2
LTYPE
 70
  1
  0
LTYPE
  2
CONTINUOUS
 70
 64
  3
Solid line
 72
 65
 73
  0
 40
0.0
  0
ENDTAB
  0
TABLE
  2
LAYER
 70
 1
  0
LAYER
  2
0
 70
  0
 62
7
  6
CONTINUOUS
  0
LAYER
  2
gg1
 70
  0
 62
1
  6
CONTINUOUS
  0
ENDTAB
  0
TABLE
  2
STYLE
 70
  1
  0
STYLE
  2
STANDARD
 70
  0
 40
0.0
 41
1.0
 50
0.0
 71
  0
 42
0.2
  3
txt
  4

  0
ENDTAB
  0
ENDSEC
  0
SECTION
  2
BLOCKS
  0
BLOCK
  8
0
  2
D10
 70
64
 10
0.0
 20
0.0
  3
D10
  0
CIRCLE
  8
0
 10
0.000000
 20
0.000000
 40
0.005000
 0
ENDBLK
  8
0
  0
BLOCK
  8
0
  2
D11
 70
64
 10
0.0
 20
0.0
  3
D11
  0
CIRCLE
  8
0
 10
0.000000
 20
0.000000
 40
0.002500
 0
ENDBLK
  8
0
  0
BLOCK
  8
0
  2
D12
 70
64
 10
0.0
 20
0.0
  3
D12
  0
CIRCLE
  8
0
 10
0.000000
 20
0.000000
 40
0.003000
 0
ENDBLK
  8
0
  0
BLOCK
  8
0
  2
D13
 70
64
 10
0.0
 20
0.0
  3
D13
  0
CIRCLE
  8
0
 10
0.000000
 20
0.000000
 40
0.001000
 0
ENDBLK
  8
0
  0
ENDSEC
  0
SECTION
  2
ENTITIES
  0
POLYLINE
  8
gg1
 62
1
 40
0.000000
 41
0.000000
 66
  1
  0
VERTEX
  8
gg1
 10
0.000000
 20
-0.115000
  0
VERTEX
  8
gg1
 10
0.000000
 20
-0.010000
  0
SEQEND
  8
gg1
  0
POLYLINE
  8
gg1
 62
1
 40
0.000000
 41
0.000000
 66
  1
  0
VERTEX
  8
gg1
 10
0.700000
 20
-0.115000
  0
VERTEX
  8
gg1
 10
0.700000
 20
-0.010000
  0
SEQEND
  8
gg1
  0
POLYLINE
  8
gg1
 62
1
 40
0.000000
 41
0.000000
 66
  1
  0
VERTEX
  8
gg1
 10
0.000000
 20
-0.105000
  0
VERTEX
  8
gg1
 10
0.163000
 20
-0.105000
  0
SEQEND
  8
gg1
  0
POLYLINE
  8
gg1
 62
1
 40
0.000000
 41
0.000000
 66
  1
  0
VERTEX
  8
gg1
 10
0.504900
 20
-0.105000
  0
VERTEX
  8
gg1
 10
0.700000
 20
-0.105000
  0
SEQEND
  8
gg1
  0
POLYLINE
  8
gg1
 62
1
 40
0.000000
 41
0.000000
 66
  1
  0
VERTEX
  8
gg1
 10
0.000000
 20
-0.105000
  0
VERTEX
  8
gg1
 10
0.060000
 20
-0.125000
  0
SEQEND
  8
gg1
  0
POLYLINE
  8
gg1
 62
1
 40
0.000000
 41
0.000000
 66
  1
  0
VERTEX
  8
gg1
 10
0.000000
 20
-0.105000
  0
VERTEX
  8
gg1
 10
0.060000
 20
-0.085000
  0
SEQEND
  8
gg1
  0
POLYLINE
  8
gg1
 62
1
 40
0.000000
 41
0.000000
 66
  1
  0
VERTEX
  8
gg1
 10
0.640000
 20
-0.085000
  0
VERTEX
  8
gg1
 10
0.700000
 20
-0.105000
  0
SEQEND
  8
gg1
  0
POLYLINE
  8
gg1
 62
1
 40
0.000000
 41
0.000000
 66
  1
  0
VERTEX
  8
gg1
 10
0.640000
 20
-0.125000
  0
VERTEX
  8
gg1
 10
0.700000
 20
-0.105000
  0
SEQEND
  8
gg1
  0
POLYLINE
  8
gg1
 62
1
 40
0.000000
 41
0.000000
 66
  1
  0
VERTEX
  8
gg1
 10
-0.100000
 20
0.800000
  0
VERTEX
  8
gg1
 10
-0.080000
 20
0.740000
  0
SEQEND
  8
gg1
  0
POLYLINE
  8
gg1
 62
1
 40
0.000000
 41
0.000000
 66
  1
  0
VERTEX
  8
gg1
 10
-0.120000
 20
0.740000
  0
VERTEX
  8
gg1
 10
-0.100000
 20
0.800000
  0
SEQEND
  8
gg1
  0
POLYLINE
  8
gg1
 62
1
 40
0.000000
 41
0.000000
 66
  1
  0
VERTEX
  8
gg1
 10
-0.120000
 20
0.060000
  0
VERTEX
  8
gg1
 10
-0.100000
 20
0.000000
  0
VERTEX
  8
gg1
 10
-0.080000
 20
0.060000
  0
SEQEND
  8
gg1
  0
POLYLINE
  8
gg1
 62
1
 40
0.000000
 41
0.000000
 66
  1
  0
VERTEX
  8
gg1
 10
-0.100000
 20
0.554900
  0
VERTEX
  8
gg1
 10
-0.100000
 20
0.800000
  0
SEQEND
  8
gg1
  0
POLYLINE
  8
gg1
 62
1
 40
0.000000
 41
0.000000
 66
  1
  0
VERTEX
  8
gg1
 10
-0.100000
 20
0.000000
  0
VERTEX
  8
gg1
 10
-0.100000
 20
0.213000
  0
SEQEND
  8
gg1
  0
POLYLINE
  8
gg1
 62
1
 40
0.000000
 41
0.000000
 66
  1
  0
VERTEX
  8
gg1
 10
-0.110000
 20
0.800000
  0
VERTEX
  8
gg1
 10
-0.010000
 20
0.800000
  0
SEQEND
  8
gg1
  0
POLYLINE
  8
gg1
 62
1
 40
0.000000
 41
0.000000
 66
  1
  0
VERTEX
  8
gg1
 10
-0.110000
 20
0.000000
  0
VERTEX
  8
gg1
 10
-0.010000
 20
0.000000
  0
SEQEND
  8
gg1
  0
POLYLINE
  8
gg1
 62
1
 40
0.000000
 41
0.000000
 66
  1
  0
VERTEX
  8
gg1
 10
0.000000
 20
0.800000
  0
VERTEX
  8
gg1
 10
0.700000
 20
0.800000
  0
SEQEND
  8
gg1
  0
POLYLINE
  8
gg1
 62
1
 40
0.000000
 41
0.000000
 66
  1
  0
VERTEX
  8
gg1
 10
0.700000
 20
0.000000
  0
VERTEX
  8
gg1
 10
0.700000
 20
0.800000
  0
SEQEND
  8
gg1
  0
POLYLINE
  8
gg1
 62
1
 40
0.000000
 41
0.000000
 66
  1
  0
VERTEX
  8
gg1
 10
0.000000
 20
0.000000
  0
VERTEX
  8
gg1
 10
0.700000
 20
0.000000
  0
SEQEND
  8
gg1
  0
POLYLINE
  8
gg1
 62
1
 40
0.000000
 41
0.000000
 66
  1
  0
VERTEX
  8
gg1
 10
0.000000
 20
0.000000
  0
VERTEX
  8
gg1
 10
0.000000
 20
0.800000
  0
SEQEND
  8
gg1
  0
POLYLINE
  8
gg1
 62
1
 40
0.000000
 41
0.000000
 66
  1
  0
VERTEX
  8
gg1
 10
0.179000
 20
-0.081000
  0
VERTEX
  8
gg1
 10
0.219000
 20
-0.081000
  0
VERTEX
  8
gg1
 10
0.219000
 20
-0.091000
  0
VERTEX
  8
gg1
 10
0.179000
 20
-0.131000
  0
VERTEX
  8
gg1
 10
0.179000
 20
-0.141000
  0
SEQEND
  8
gg1
  0
POLYLINE
  8
gg1
 62
1
 40
0.000000
 41
0.000000
 66
  1
  0
VERTEX
  8
gg1
 10
0.239000
 20
-0.091000
  0
VERTEX
  8
gg1
 10
0.249000
 20
-0.081000
  0
VERTEX
  8
gg1
 10
0.269000
 20
-0.081000
  0
VERTEX
  8
gg1
 10
0.279000
 20
-0.091000
  0
VERTEX
  8
gg1
 10
0.279000
 20
-0.131000
  0
VERTEX
  8
gg1
 10
0.269000
 20
-0.141000
  0
VERTEX
  8
gg1
 10
0.249000
 20
-0.141000
  0
VERTEX
  8
gg1
 10
0.239000
 20
-0.131000
  0
VERTEX
  8
gg1
 10
0.239000
 20
-0.091000
  0
SEQEND
  8
gg1
  0
POLYLINE
  8
gg1
 62
1
 40
0.000000
 41
0.000000
 66
  1
  0
VERTEX
  8
gg1
 10
0.299000
 20
-0.091000
  0
VERTEX
  8
gg1
 10
0.309000
 20
-0.081000
  0
VERTEX
  8
gg1
 10
0.329000
 20
-0.081000
  0
VERTEX
  8
gg1
 10
0.339000
 20
-0.091000
  0
VERTEX
  8
gg1
 10
0.339000
 20
-0.131000
  0
VERTEX
  8
gg1
 10
0.329000
 20
-0.141000
  0
VERTEX
  8
gg1
 10
0.309000
 20
-0.141000
  0
VERTEX
  8
gg1
 10
0.299000
 20
-0.131000
  0
VERTEX
  8
gg1
 10
0.299000
 20
-0.091000
  0
SEQEND
  8
gg1
  0
POLYLINE
  8
gg1
 62
1
 40
0.000000
 41
0.000000
 66
  1
  0
VERTEX
  8
gg1
 10
0.359000
 20
-0.141000
  0
VERTEX
  8
gg1
 10
0.359000
 20
-0.101000
  0
VERTEX
  8
gg1
 10
0.369000
 20
-0.101000
  0
VERTEX
  8
gg1
 10
0.379000
 20
-0.111000
  0
VERTEX
  8
gg1
 10
0.379000
 20
-0.141000
  0
VERTEX
  8
gg1
 10
0.379000
 20
-0.111000
  0
VERTEX
  8
gg1
 10
0.389000
 20
-0.101000
  0
VERTEX
  8
gg1
 10
0.399000
 20
-0.111000
  0
VERTEX
  8
gg1
 10
0.399000
 20
-0.141000
  0
SEQEND
  8
gg1
  0
POLYLINE
  8
gg1
 62
1
 40
0.000000
 41
0.000000
 66
  1
  0
VERTEX
  8
gg1
 10
0.419000
 20
-0.141000
  0
VERTEX
  8
gg1
 10
0.439000
 20
-0.141000
  0
VERTEX
  8
gg1
 10
0.429000
 20
-0.141000
  0
VERTEX
  8
gg1
 10
0.429000
 20
-0.101000
  0
VERTEX
  8
gg1
 10
0.419000
 20
-0.101000
  0
SEQEND
  8
gg1
  0
POLYLINE
  8
gg1
 62
1
 40
0.000000
 41
0.000000
 66
  1
  0
VERTEX
  8
gg1
 10
0.469000
 20
-0.141000
  0
VERTEX
  8
gg1
 10
0.489000
 20
-0.141000
  0
VERTEX
  8
gg1
 10
0.479000
 20
-0.141000
  0
VERTEX
  8
gg1
 10
0.479000
 20
-0.081000
  0
VERTEX
  8
gg1
 10
0.469000
 20
-0.081000
  0
SEQEND
  8
gg1
  0
POLYLINE
  8
gg1
 62
1
 40
0.000000
 41
0.000000
 66
  1
  0
VERTEX
  8
gg1
 10
-0.114000
 20
0.229000
  0
VERTEX
  8
gg1
 10
-0.124000
 20
0.239000
  0
VERTEX
  8
gg1
 10
-0.124000
 20
0.259000
  0
VERTEX
  8
gg1
 10
-0.114000
 20
0.269000
  0
VERTEX
  8
gg1
 10
-0.104000
 20
0.269000
  0
VERTEX
  8
gg1
 10
-0.094000
 20
0.259000
  0
VERTEX
  8
gg1
 10
-0.084000
 20
0.269000
  0
VERTEX
  8
gg1
 10
-0.074000
 20
0.269000
  0
VERTEX
  8
gg1
 10
-0.064000
 20
0.259000
  0
VERTEX
  8
gg1
 10
-0.064000
 20
0.239000
  0
VERTEX
  8
gg1
 10
-0.074000
 20
0.229000
  0
VERTEX
  8
gg1
 10
-0.084000
 20
0.229000
  0
VERTEX
  8
gg1
 10
-0.094000
 20
0.239000
  0
VERTEX
  8
gg1
 10
-0.104000
 20
0.229000
  0
VERTEX
  8
gg1
 10
-0.114000
 20
0.229000
  0
SEQEND
  8
gg1
  0
POLYLINE
  8
gg1
 62
1
 40
0.000000
 41
0.000000
 66
  1
  0
VERTEX
  8
gg1
 10
-0.094000
 20
0.239000
  0
VERTEX
  8
gg1
 10
-0.094000
 20
0.259000
  0
SEQEND
  8
gg1
  0
POLYLINE
  8
gg1
 62
1
 40
0.000000
 41
0.000000
 66
  1
  0
VERTEX
  8
gg1
 10
-0.114000
 20
0.289000
  0
VERTEX
  8
gg1
 10
-0.124000
 20
0.299000
  0
VERTEX
  8
gg1
 10
-0.124000
 20
0.319000
  0
VERTEX
  8
gg1
 10
-0.114000
 20
0.329000
  0
VERTEX
  8
gg1
 10
-0.074000
 20
0.329000
  0
VERTEX
  8
gg1
 10
-0.064000
 20
0.319000
  0
VERTEX
  8
gg1
 10
-0.064000
 20
0.299000
  0
VERTEX
  8
gg1
 10
-0.074000
 20
0.289000
  0
VERTEX
  8
gg1
 10
-0.114000
 20
0.289000
  0
SEQEND
  8
gg1
  0
POLYLINE
  8
gg1
 62
1
 40
0.000000
 41
0.000000
 66
  1
  0
VERTEX
  8
gg1
 10
-0.114000
 20
0.349000
  0
VERTEX
  8
gg1
 10
-0.124000
 20
0.359000
  0
VERTEX
  8
gg1
 10
-0.124000
 20
0.379000
  0
VERTEX
  8
gg1
 10
-0.114000
 20
0.389000
  0
VERTEX
  8
gg1
 10
-0.074000
 20
0.389000
  0
VERTEX
  8
gg1
 10
-0.064000
 20
0.379000
  0
VERTEX
  8
gg1
 10
-0.064000
 20
0.359000
  0
VERTEX
  8
gg1
 10
-0.074000
 20
0.349000
  0
VERTEX
  8
gg1
 10
-0.114000
 20
0.349000
  0
SEQEND
  8
gg1
  0
POLYLINE
  8
gg1
 62
1
 40
0.000000
 41
0.000000
 66
  1
  0
VERTEX
  8
gg1
 10
-0.064000
 20
0.409000
  0
VERTEX
  8
gg1
 10
-0.104000
 20
0.409000
  0
VERTEX
  8
gg1
 10
-0.104000
 20
0.419000
  0
VERTEX
  8
gg1
 10
-0.094000
 20
0.429000
  0
VERTEX
  8
gg1
 10
-0.064000
 20
0.429000
  0
VERTEX
  8
gg1
 10
-0.094000
 20
0.429000
  0
VERTEX
  8
gg1
 10
-0.104000
 20
0.439000
  0
VERTEX
  8
gg1
 10
-0.094000
 20
0.449000
  0
VERTEX
  8
gg1
 10
-0.064000
 20
0.449000
  0
SEQEND
  8
gg1
  0
POLYLINE
  8
gg1
 62
1
 40
0.000000
 41
0.000000
 66
  1
  0
VERTEX
  8
gg1
 10
-0.064000
 20
0.469000
  0
VERTEX
  8
gg1
 10
-0.064000
 20
0.489000
  0
VERTEX
  8
gg1
 10
-0.064000
 20
0.479000
  0
VERTEX
  8
gg1
 10
-0.104000
 20
0.479000
  0
VERTEX
  8
gg1
 10
-0.104000
 20
0.469000
  0
SEQEND
  8
gg1
  0
POLYLINE
  8
gg1
 62
1
 40
0.000000
 41
0.000000
 66
  1
  0
VERTEX
  8
gg1
 10
-0.064000
 20
0.519000
  0
VERTEX
  8
gg1
 10
-0.064000
 20
0.539000
  0
VERTEX
  8
gg1
 10
-0.064000
 20
0.529000
  0
VERTEX
  8
gg1
 10
-0.124000
 20
0.529000
  0
VERTEX
  8
gg1
 10
-0.124000
 20
0.519000
  0
SEQEND
  8
gg1
  0
POLYLINE
  8
gg1
 62
1
 40
0.000000
 41
0.000000
 66
  1
  0
VERTEX
  8
gg1
 10
0.572000
 20
0.715000
  0
VERTEX
  8
gg1
 10
0.658000
 20
0.715000
  0
SEQEND
  8
gg1
  0
POLYLINE
  8
gg1
 62
1
 40
0.000000
 41
0.000000
 66
  1
  0
VERTEX
  8
gg1
 10
0.615000
 20
0.672000
  0
VERTEX
  8
gg1
 10
0.615000
 20
0.758000
  0
SEQEND
  8
gg1
  0
POLYLINE
  8
gg1
 62
1
 40
0.000000
 41
0.000000
 66
  1
  0
VERTEX
  8
gg1
 10
0.470000
 20
0.200000
  0
VERTEX
  8
gg1
 10
0.490000
 20
0.200000
  0
SEQEND
  8
gg1
  0
POLYLINE
  8
gg1
 62
1
 40
0.000000
 41
0.000000
 66
  1
  0
VERTEX
  8
gg1
 10
0.480000
 20
0.190000
  0
VERTEX
  8
gg1
 10
0.480000
 20
0.210000
  0
SEQEND
  8
gg1
  0
POLYLINE
  8
gg1
 62
1
 40
0.000000
 41
0.000000
 66
  1
  0
VERTEX
  8
gg1
 10
0.230000
 20
0.150000
  0
VERTEX
  8
gg1
 10
0.270000
 20
0.150000
  0
SEQEND
  8
gg1
  0
POLYLINE
  8
gg1
 62
1
 40
0.000000
 41
0.000000
 66
  1
  0
VERTEX
  8
gg1
 10
0.250000
 20
0.130000
  0
VERTEX
  8
gg1
 10
0.250000
 20
0.170000
  0
SEQEND
  8
gg1
  0
POLYLINE
  8
gg1
 62
1
 40
0.000000
 41
0.000000
 66
  1
  0
VERTEX
  8
gg1
 10
0.630000
 20
0.050000
  0
VERTEX
  8
gg1
 10
0.670000
 20
0.050000
  0
SEQEND
  8
gg1
  0
POLYLINE
  8
gg1
 62
1
 40
0.000000
 41
0.000000
 66
  1
  0
VERTEX
  8
gg1
 10
0.650000
 20
0.030000
  0
VERTEX
  8
gg1
 10
0.650000
 20
0.070000
  0
SEQEND
  8
gg1
  0
POLYLINE
  8
gg1
 62
1
 40
0.000000
 41
0.000000
 66
  1
  0
VERTEX
  8
gg1
 10
0.530000
 20
0.050000
  0
VERTEX
  8
gg1
 10
0.570000
 20
0.050000
  0
SEQEND
  8
gg1
  0
POLYLINE
  8
gg1
 62
1
 40
0.000000
 41
0.000000
 66
  1
  0
VERTEX
  8
gg1
 10
0.550000
 20
0.030000
  0
VERTEX
  8
gg1
 10
0.550000
 20
0.070000
  0
SEQEND
  8
gg1
  0
POLYLINE
  8
gg1
 62
1
 40
0.000000
 41
0.000000
 66
  1
  0
VERTEX
  8
gg1
 10
0.430000
 20
0.050000
  0
VERTEX
  8
gg1
 10
0.470000
 20
0.050000
  0
SEQEND
  8
gg1
  0
POLYLINE
  8
gg1
 62
1
 40
0.000000
 41
0.000000
 66
  1
  0
VERTEX
  8
gg1
 10
0.450000
 20
0.030000
  0
VERTEX
  8
gg1
 10
0.450000
 20
0.070000
  0
SEQEND
  8
gg1
  0
POLYLINE
  8
gg1
 62
1
 40
0.000000
 41
0.000000
 66
  1
  0
VERTEX
  8
gg1
 10
0.330000
 20
0.050000
  0
VERTEX
  8
gg1
 10
0.370000
 20
0.050000
  0
SEQEND
  8
gg1
  0
POLYLINE
  8
gg1
 62
1
 40
0.000000
 41
0.000000
 66
  1
  0
VERTEX
  8
gg1
 10
0.350000
 20
0.030000
  0
VERTEX
  8
gg1
 10
0.350000
 20
0.070000
  0
SEQEND
  8
gg1
  0
POLYLINE
  8
gg1
 62
1
 40
0.000000
 41
0.000000
 66
  1
  0
VERTEX
  8
gg1
 10
0.230000
 20
0.050000
  0
VERTEX
  8
gg1
 10
0.270000
 20
0.050000
  0
SEQEND
  8
gg1
  0
POLYLINE
  8
gg1
 62
1
 40
0.000000
 41
0.000000
 66
  1
  0
VERTEX
  8
gg1
 10
0.250000
 20
0.030000
  0
VERTEX
  8
gg1
 10
0.250000
 20
0.070000
  0
SEQEND
  8
gg1
  0
POLYLINE
  8
gg1
 62
1
 40
0.000000
 41
0.000000
 66
  1
  0
VERTEX
  8
gg1
 10
0.042000
 20
0.085000
  0
VERTEX
  8
gg1
 10
0.128000
 20
0.085000
  0
SEQEND
  8
gg1
  0
POLYLINE
  8
gg1
 62
1
 40
0.000000
 41
0.000000
 66
  1
  0
VERTEX
  8
gg1
 10
0.085000
 20
0.042000
  0
VERTEX
  8
gg1
 10
0.085000
 20
0.128000
  0
SEQEND
  8
gg1
  0
ENDSEC
  0
EOF
