  0
SECTION
  2
HEADER
  9
$EXTMIN
 10
-0.235000
 20
-0.139000
  9
$EXTMAX
 10
2.525000
 20
0.295000
  9
$LIMMIN
 10
-0.235000
 20
-0.139000
  9
$LIMMAX
 10
2.525000
 20
0.295000
  9
$FILLMODE
 70
  1
  0
ENDSEC
  0
SECTION
  2
TABLES
  0
TABLE
  2
LTYPE
 70
  1
  0
LTYPE
  2
CONTINUOUS
 70
 64
  3
Solid line
 72
 65
 73
  0
 40
0.0
  0
ENDTAB
  0
TABLE
  2
LAYER
 70
 1
  0
LAYER
  2
0
 70
  0
 62
7
  6
CONTINUOUS
  0
LAYER
  2
gg1
 70
  0
 62
1
  6
CONTINUOUS
  0
ENDTAB
  0
TABLE
  2
STYLE
 70
  1
  0
STYLE
  2
STANDARD
 70
  0
 40
0.0
 41
1.0
 50
0.0
 71
  0
 42
0.2
  3
txt
  4

  0
ENDTAB
  0
ENDSEC
  0
SECTION
  2
BLOCKS
  0
BLOCK
  8
0
  2
D10
 70
64
 10
0.0
 20
0.0
  3
D10
  0
CIRCLE
  8
0
 10
0.000000
 20
0.000000
 40
0.005000
 0
ENDBLK
  8
0
  0
BLOCK
  8
0
  2
D11
 70
64
 10
0.0
 20
0.0
  3
D11
  0
CIRCLE
  8
0
 10
0.000000
 20
0.000000
 40
0.002500
 0
ENDBLK
  8
0
  0
BLOCK
  8
0
  2
D12
 70
64
 10
0.0
 20
0.0
  3
D12
  0
CIRCLE
  8
0
 10
0.000000
 20
0.000000
 40
0.003000
 0
ENDBLK
  8
0
  0
BLOCK
  8
0
  2
D13
 70
64
 10
0.0
 20
0.0
  3
D13
  0
CIRCLE
  8
0
 10
0.000000
 20
0.000000
 40
0.001000
 0
ENDBLK
  8
0
  0
ENDSEC
  0
SECTION
  2
ENTITIES
  0
POLYLINE
  8
gg1
 62
1
 40
0.000000
 41
0.000000
 66
  1
  0
VERTEX
  8
gg1
 10
-0.110000
 20
0.290000
  0
VERTEX
  8
gg1
 10
-0.012500
 20
0.290000
  0
SEQEND
  8
gg1
  0
POLYLINE
  8
gg1
 62
1
 40
0.000000
 41
0.000000
 66
  1
  0
VERTEX
  8
gg1
 10
-0.110000
 20
0.000000
  0
VERTEX
  8
gg1
 10
-0.012500
 20
0.000000
  0
SEQEND
  8
gg1
  0
POLYLINE
  8
gg1
 62
1
 40
0.000000
 41
0.000000
 66
  1
  0
VERTEX
  8
gg1
 10
-0.100000
 20
0.145000
  0
VERTEX
  8
gg1
 10
-0.100000
 20
0.290000
  0
SEQEND
  8
gg1
  0
POLYLINE
  8
gg1
 62
1
 40
0.000000
 41
0.000000
 66
  1
  0
VERTEX
  8
gg1
 10
-0.100000
 20
0.000000
  0
VERTEX
  8
gg1
 10
-0.100000
 20
0.145000
  0
SEQEND
  8
gg1
  0
POLYLINE
  8
gg1
 62
1
 40
0.000000
 41
0.000000
 66
  1
  0
VERTEX
  8
gg1
 10
-0.120000
 20
0.230000
  0
VERTEX
  8
gg1
 10
-0.100000
 20
0.290000
  0
VERTEX
  8
gg1
 10
-0.080000
 20
0.230000
  0
SEQEND
  8
gg1
  0
POLYLINE
  8
gg1
 62
1
 40
0.000000
 41
0.000000
 66
  1
  0
VERTEX
  8
gg1
 10
-0.100000
 20
0.000000
  0
VERTEX
  8
gg1
 10
-0.080000
 20
0.060000
  0
SEQEND
  8
gg1
  0
POLYLINE
  8
gg1
 62
1
 40
0.000000
 41
0.000000
 66
  1
  0
VERTEX
  8
gg1
 10
-0.120000
 20
0.060000
  0
VERTEX
  8
gg1
 10
-0.100000
 20
0.000000
  0
SEQEND
  8
gg1
  0
POLYLINE
  8
gg1
 62
1
 40
0.000000
 41
0.000000
 66
  1
  0
VERTEX
  8
gg1
 10
2.520000
 20
-0.110000
  0
VERTEX
  8
gg1
 10
2.520000
 20
-0.012500
  0
SEQEND
  8
gg1
  0
POLYLINE
  8
gg1
 62
1
 40
0.000000
 41
0.000000
 66
  1
  0
VERTEX
  8
gg1
 10
0.000000
 20
-0.110000
  0
VERTEX
  8
gg1
 10
0.000000
 20
-0.012500
  0
SEQEND
  8
gg1
  0
POLYLINE
  8
gg1
 62
1
 40
0.000000
 41
0.000000
 66
  1
  0
VERTEX
  8
gg1
 10
1.444900
 20
-0.100000
  0
VERTEX
  8
gg1
 10
2.520000
 20
-0.100000
  0
SEQEND
  8
gg1
  0
POLYLINE
  8
gg1
 62
1
 40
0.000000
 41
0.000000
 66
  1
  0
VERTEX
  8
gg1
 10
0.000000
 20
-0.100000
  0
VERTEX
  8
gg1
 10
1.043100
 20
-0.100000
  0
SEQEND
  8
gg1
  0
POLYLINE
  8
gg1
 62
1
 40
0.000000
 41
0.000000
 66
  1
  0
VERTEX
  8
gg1
 10
2.460000
 20
-0.080000
  0
VERTEX
  8
gg1
 10
2.520000
 20
-0.100000
  0
SEQEND
  8
gg1
  0
POLYLINE
  8
gg1
 62
1
 40
0.000000
 41
0.000000
 66
  1
  0
VERTEX
  8
gg1
 10
2.460000
 20
-0.120000
  0
VERTEX
  8
gg1
 10
2.520000
 20
-0.100000
  0
SEQEND
  8
gg1
  0
POLYLINE
  8
gg1
 62
1
 40
0.000000
 41
0.000000
 66
  1
  0
VERTEX
  8
gg1
 10
0.000000
 20
-0.100000
  0
VERTEX
  8
gg1
 10
0.060000
 20
-0.120000
  0
SEQEND
  8
gg1
  0
POLYLINE
  8
gg1
 62
1
 40
0.000000
 41
0.000000
 66
  1
  0
VERTEX
  8
gg1
 10
0.000000
 20
-0.100000
  0
VERTEX
  8
gg1
 10
0.060000
 20
-0.080000
  0
SEQEND
  8
gg1
  0
POLYLINE
  8
gg1
 62
1
 40
0.000000
 41
0.000000
 66
  1
  0
VERTEX
  8
gg1
 10
2.520000
 20
0.000000
  0
VERTEX
  8
gg1
 10
2.520000
 20
0.290000
  0
SEQEND
  8
gg1
  0
POLYLINE
  8
gg1
 62
1
 40
0.000000
 41
0.000000
 66
  1
  0
VERTEX
  8
gg1
 10
0.000000
 20
0.000000
  0
VERTEX
  8
gg1
 10
2.520000
 20
0.000000
  0
SEQEND
  8
gg1
  0
POLYLINE
  8
gg1
 62
1
 40
0.000000
 41
0.000000
 66
  1
  0
VERTEX
  8
gg1
 10
0.000000
 20
0.000000
  0
VERTEX
  8
gg1
 10
0.000000
 20
0.290000
  0
VERTEX
  8
gg1
 10
2.520000
 20
0.290000
  0
SEQEND
  8
gg1
  0
POLYLINE
  8
gg1
 62
1
 40
0.000000
 41
0.000000
 66
  1
  0
VERTEX
  8
gg1
 10
-0.172000
 20
0.014000
  0
VERTEX
  8
gg1
 10
-0.172000
 20
-0.025900
  0
VERTEX
  8
gg1
 10
-0.212000
 20
0.014000
  0
VERTEX
  8
gg1
 10
-0.222000
 20
0.014000
  0
VERTEX
  8
gg1
 10
-0.232000
 20
0.004000
  0
VERTEX
  8
gg1
 10
-0.232000
 20
-0.016000
  0
VERTEX
  8
gg1
 10
-0.222000
 20
-0.025900
  0
SEQEND
  8
gg1
  0
POLYLINE
  8
gg1
 62
1
 40
0.000000
 41
0.000000
 66
  1
  0
VERTEX
  8
gg1
 10
-0.182000
 20
0.034000
  0
VERTEX
  8
gg1
 10
-0.172000
 20
0.044000
  0
VERTEX
  8
gg1
 10
-0.172000
 20
0.064000
  0
VERTEX
  8
gg1
 10
-0.182000
 20
0.074000
  0
VERTEX
  8
gg1
 10
-0.222000
 20
0.074000
  0
VERTEX
  8
gg1
 10
-0.232000
 20
0.064000
  0
VERTEX
  8
gg1
 10
-0.232000
 20
0.044000
  0
VERTEX
  8
gg1
 10
-0.222000
 20
0.034000
  0
VERTEX
  8
gg1
 10
-0.212000
 20
0.034000
  0
VERTEX
  8
gg1
 10
-0.202000
 20
0.044000
  0
VERTEX
  8
gg1
 10
-0.202000
 20
0.074000
  0
SEQEND
  8
gg1
  0
POLYLINE
  8
gg1
 62
1
 40
0.000000
 41
0.000000
 66
  1
  0
VERTEX
  8
gg1
 10
-0.222000
 20
0.094000
  0
VERTEX
  8
gg1
 10
-0.232000
 20
0.104000
  0
VERTEX
  8
gg1
 10
-0.232000
 20
0.124000
  0
VERTEX
  8
gg1
 10
-0.222000
 20
0.134000
  0
VERTEX
  8
gg1
 10
-0.182000
 20
0.134000
  0
VERTEX
  8
gg1
 10
-0.172000
 20
0.124000
  0
VERTEX
  8
gg1
 10
-0.172000
 20
0.104000
  0
VERTEX
  8
gg1
 10
-0.182000
 20
0.094000
  0
VERTEX
  8
gg1
 10
-0.222000
 20
0.094000
  0
SEQEND
  8
gg1
  0
POLYLINE
  8
gg1
 62
1
 40
0.000000
 41
0.000000
 66
  1
  0
VERTEX
  8
gg1
 10
-0.172000
 20
0.154000
  0
VERTEX
  8
gg1
 10
-0.212000
 20
0.154000
  0
VERTEX
  8
gg1
 10
-0.212000
 20
0.164000
  0
VERTEX
  8
gg1
 10
-0.202000
 20
0.174000
  0
VERTEX
  8
gg1
 10
-0.172000
 20
0.174000
  0
VERTEX
  8
gg1
 10
-0.202000
 20
0.174000
  0
VERTEX
  8
gg1
 10
-0.212000
 20
0.184000
  0
VERTEX
  8
gg1
 10
-0.202000
 20
0.194000
  0
VERTEX
  8
gg1
 10
-0.172000
 20
0.194000
  0
SEQEND
  8
gg1
  0
POLYLINE
  8
gg1
 62
1
 40
0.000000
 41
0.000000
 66
  1
  0
VERTEX
  8
gg1
 10
-0.172000
 20
0.214000
  0
VERTEX
  8
gg1
 10
-0.172000
 20
0.234000
  0
VERTEX
  8
gg1
 10
-0.172000
 20
0.224000
  0
VERTEX
  8
gg1
 10
-0.212000
 20
0.224000
  0
VERTEX
  8
gg1
 10
-0.212000
 20
0.214000
  0
SEQEND
  8
gg1
  0
POLYLINE
  8
gg1
 62
1
 40
0.000000
 41
0.000000
 66
  1
  0
VERTEX
  8
gg1
 10
-0.172000
 20
0.264000
  0
VERTEX
  8
gg1
 10
-0.172000
 20
0.284000
  0
VERTEX
  8
gg1
 10
-0.172000
 20
0.274000
  0
VERTEX
  8
gg1
 10
-0.232000
 20
0.274000
  0
VERTEX
  8
gg1
 10
-0.232000
 20
0.264000
  0
SEQEND
  8
gg1
  0
POLYLINE
  8
gg1
 62
1
 40
0.000000
 41
0.000000
 66
  1
  0
VERTEX
  8
gg1
 10
1.099000
 20
-0.136000
  0
VERTEX
  8
gg1
 10
1.059100
 20
-0.136000
  0
VERTEX
  8
gg1
 10
1.099000
 20
-0.096000
  0
VERTEX
  8
gg1
 10
1.099000
 20
-0.086000
  0
VERTEX
  8
gg1
 10
1.089100
 20
-0.076000
  0
VERTEX
  8
gg1
 10
1.069100
 20
-0.076000
  0
VERTEX
  8
gg1
 10
1.059100
 20
-0.086000
  0
SEQEND
  8
gg1
  0
POLYLINE
  8
gg1
 62
1
 40
0.000000
 41
0.000000
 66
  1
  0
VERTEX
  8
gg1
 10
1.159000
 20
-0.076000
  0
VERTEX
  8
gg1
 10
1.119000
 20
-0.076000
  0
VERTEX
  8
gg1
 10
1.119000
 20
-0.106000
  0
VERTEX
  8
gg1
 10
1.139000
 20
-0.096000
  0
VERTEX
  8
gg1
 10
1.149000
 20
-0.096000
  0
VERTEX
  8
gg1
 10
1.159000
 20
-0.106000
  0
VERTEX
  8
gg1
 10
1.159000
 20
-0.126000
  0
VERTEX
  8
gg1
 10
1.149000
 20
-0.136000
  0
VERTEX
  8
gg1
 10
1.129000
 20
-0.136000
  0
VERTEX
  8
gg1
 10
1.119000
 20
-0.126000
  0
SEQEND
  8
gg1
  0
POLYLINE
  8
gg1
 62
1
 40
0.000000
 41
0.000000
 66
  1
  0
VERTEX
  8
gg1
 10
1.219000
 20
-0.136000
  0
VERTEX
  8
gg1
 10
1.179000
 20
-0.136000
  0
VERTEX
  8
gg1
 10
1.219000
 20
-0.096000
  0
VERTEX
  8
gg1
 10
1.219000
 20
-0.086000
  0
VERTEX
  8
gg1
 10
1.209000
 20
-0.076000
  0
VERTEX
  8
gg1
 10
1.189000
 20
-0.076000
  0
VERTEX
  8
gg1
 10
1.179000
 20
-0.086000
  0
SEQEND
  8
gg1
  0
POLYLINE
  8
gg1
 62
1
 40
0.000000
 41
0.000000
 66
  1
  0
VERTEX
  8
gg1
 10
1.239000
 20
-0.086000
  0
VERTEX
  8
gg1
 10
1.249000
 20
-0.076000
  0
VERTEX
  8
gg1
 10
1.269000
 20
-0.076000
  0
VERTEX
  8
gg1
 10
1.279000
 20
-0.086000
  0
VERTEX
  8
gg1
 10
1.279000
 20
-0.126000
  0
VERTEX
  8
gg1
 10
1.269000
 20
-0.136000
  0
VERTEX
  8
gg1
 10
1.249000
 20
-0.136000
  0
VERTEX
  8
gg1
 10
1.239000
 20
-0.126000
  0
VERTEX
  8
gg1
 10
1.239000
 20
-0.086000
  0
SEQEND
  8
gg1
  0
POLYLINE
  8
gg1
 62
1
 40
0.000000
 41
0.000000
 66
  1
  0
VERTEX
  8
gg1
 10
1.299000
 20
-0.136000
  0
VERTEX
  8
gg1
 10
1.299000
 20
-0.096000
  0
VERTEX
  8
gg1
 10
1.309000
 20
-0.096000
  0
VERTEX
  8
gg1
 10
1.319000
 20
-0.106000
  0
VERTEX
  8
gg1
 10
1.319000
 20
-0.136000
  0
VERTEX
  8
gg1
 10
1.319000
 20
-0.106000
  0
VERTEX
  8
gg1
 10
1.329000
 20
-0.096000
  0
VERTEX
  8
gg1
 10
1.339000
 20
-0.106000
  0
VERTEX
  8
gg1
 10
1.339000
 20
-0.136000
  0
SEQEND
  8
gg1
  0
POLYLINE
  8
gg1
 62
1
 40
0.000000
 41
0.000000
 66
  1
  0
VERTEX
  8
gg1
 10
1.359000
 20
-0.136000
  0
VERTEX
  8
gg1
 10
1.379000
 20
-0.136000
  0
VERTEX
  8
gg1
 10
1.369000
 20
-0.136000
  0
VERTEX
  8
gg1
 10
1.369000
 20
-0.096000
  0
VERTEX
  8
gg1
 10
1.359000
 20
-0.096000
  0
SEQEND
  8
gg1
  0
POLYLINE
  8
gg1
 62
1
 40
0.000000
 41
0.000000
 66
  1
  0
VERTEX
  8
gg1
 10
1.408900
 20
-0.136000
  0
VERTEX
  8
gg1
 10
1.428900
 20
-0.136000
  0
VERTEX
  8
gg1
 10
1.418900
 20
-0.136000
  0
VERTEX
  8
gg1
 10
1.418900
 20
-0.076000
  0
VERTEX
  8
gg1
 10
1.408900
 20
-0.076000
  0
SEQEND
  8
gg1
  0
POLYLINE
  8
gg1
 62
1
 40
0.000000
 41
0.000000
 66
  1
  0
VERTEX
  8
gg1
 10
1.140000
 20
0.050000
  0
VERTEX
  8
gg1
 10
1.180000
 20
0.050000
  0
SEQEND
  8
gg1
  0
POLYLINE
  8
gg1
 62
1
 40
0.000000
 41
0.000000
 66
  1
  0
VERTEX
  8
gg1
 10
1.160000
 20
0.030000
  0
VERTEX
  8
gg1
 10
1.160000
 20
0.070000
  0
SEQEND
  8
gg1
  0
POLYLINE
  8
gg1
 62
1
 40
0.000000
 41
0.000000
 66
  1
  0
VERTEX
  8
gg1
 10
1.040000
 20
0.050000
  0
VERTEX
  8
gg1
 10
1.080000
 20
0.050000
  0
SEQEND
  8
gg1
  0
POLYLINE
  8
gg1
 62
1
 40
0.000000
 41
0.000000
 66
  1
  0
VERTEX
  8
gg1
 10
1.060000
 20
0.030000
  0
VERTEX
  8
gg1
 10
1.060000
 20
0.070000
  0
SEQEND
  8
gg1
  0
POLYLINE
  8
gg1
 62
1
 40
0.000000
 41
0.000000
 66
  1
  0
VERTEX
  8
gg1
 10
0.540000
 20
0.050000
  0
VERTEX
  8
gg1
 10
0.580000
 20
0.050000
  0
SEQEND
  8
gg1
  0
POLYLINE
  8
gg1
 62
1
 40
0.000000
 41
0.000000
 66
  1
  0
VERTEX
  8
gg1
 10
0.560000
 20
0.030000
  0
VERTEX
  8
gg1
 10
0.560000
 20
0.070000
  0
SEQEND
  8
gg1
  0
POLYLINE
  8
gg1
 62
1
 40
0.000000
 41
0.000000
 66
  1
  0
VERTEX
  8
gg1
 10
0.640000
 20
0.050000
  0
VERTEX
  8
gg1
 10
0.680000
 20
0.050000
  0
SEQEND
  8
gg1
  0
POLYLINE
  8
gg1
 62
1
 40
0.000000
 41
0.000000
 66
  1
  0
VERTEX
  8
gg1
 10
0.660000
 20
0.030000
  0
VERTEX
  8
gg1
 10
0.660000
 20
0.070000
  0
SEQEND
  8
gg1
  0
POLYLINE
  8
gg1
 62
1
 40
0.000000
 41
0.000000
 66
  1
  0
VERTEX
  8
gg1
 10
0.740000
 20
0.050000
  0
VERTEX
  8
gg1
 10
0.780000
 20
0.050000
  0
SEQEND
  8
gg1
  0
POLYLINE
  8
gg1
 62
1
 40
0.000000
 41
0.000000
 66
  1
  0
VERTEX
  8
gg1
 10
0.760000
 20
0.030000
  0
VERTEX
  8
gg1
 10
0.760000
 20
0.070000
  0
SEQEND
  8
gg1
  0
POLYLINE
  8
gg1
 62
1
 40
0.000000
 41
0.000000
 66
  1
  0
VERTEX
  8
gg1
 10
0.840000
 20
0.050000
  0
VERTEX
  8
gg1
 10
0.880000
 20
0.050000
  0
SEQEND
  8
gg1
  0
POLYLINE
  8
gg1
 62
1
 40
0.000000
 41
0.000000
 66
  1
  0
VERTEX
  8
gg1
 10
0.860000
 20
0.030000
  0
VERTEX
  8
gg1
 10
0.860000
 20
0.070000
  0
SEQEND
  8
gg1
  0
POLYLINE
  8
gg1
 62
1
 40
0.000000
 41
0.000000
 66
  1
  0
VERTEX
  8
gg1
 10
0.940000
 20
0.050000
  0
VERTEX
  8
gg1
 10
0.980000
 20
0.050000
  0
SEQEND
  8
gg1
  0
POLYLINE
  8
gg1
 62
1
 40
0.000000
 41
0.000000
 66
  1
  0
VERTEX
  8
gg1
 10
0.960000
 20
0.030000
  0
VERTEX
  8
gg1
 10
0.960000
 20
0.070000
  0
SEQEND
  8
gg1
  0
POLYLINE
  8
gg1
 62
1
 40
0.000000
 41
0.000000
 66
  1
  0
VERTEX
  8
gg1
 10
1.940000
 20
0.050000
  0
VERTEX
  8
gg1
 10
1.980000
 20
0.050000
  0
SEQEND
  8
gg1
  0
POLYLINE
  8
gg1
 62
1
 40
0.000000
 41
0.000000
 66
  1
  0
VERTEX
  8
gg1
 10
1.960000
 20
0.030000
  0
VERTEX
  8
gg1
 10
1.960000
 20
0.070000
  0
SEQEND
  8
gg1
  0
POLYLINE
  8
gg1
 62
1
 40
0.000000
 41
0.000000
 66
  1
  0
VERTEX
  8
gg1
 10
1.840000
 20
0.050000
  0
VERTEX
  8
gg1
 10
1.880000
 20
0.050000
  0
SEQEND
  8
gg1
  0
POLYLINE
  8
gg1
 62
1
 40
0.000000
 41
0.000000
 66
  1
  0
VERTEX
  8
gg1
 10
1.860000
 20
0.030000
  0
VERTEX
  8
gg1
 10
1.860000
 20
0.070000
  0
SEQEND
  8
gg1
  0
POLYLINE
  8
gg1
 62
1
 40
0.000000
 41
0.000000
 66
  1
  0
VERTEX
  8
gg1
 10
1.340000
 20
0.050000
  0
VERTEX
  8
gg1
 10
1.380000
 20
0.050000
  0
SEQEND
  8
gg1
  0
POLYLINE
  8
gg1
 62
1
 40
0.000000
 41
0.000000
 66
  1
  0
VERTEX
  8
gg1
 10
1.360000
 20
0.030000
  0
VERTEX
  8
gg1
 10
1.360000
 20
0.070000
  0
SEQEND
  8
gg1
  0
POLYLINE
  8
gg1
 62
1
 40
0.000000
 41
0.000000
 66
  1
  0
VERTEX
  8
gg1
 10
1.440000
 20
0.050000
  0
VERTEX
  8
gg1
 10
1.480000
 20
0.050000
  0
SEQEND
  8
gg1
  0
POLYLINE
  8
gg1
 62
1
 40
0.000000
 41
0.000000
 66
  1
  0
VERTEX
  8
gg1
 10
1.460000
 20
0.030000
  0
VERTEX
  8
gg1
 10
1.460000
 20
0.070000
  0
SEQEND
  8
gg1
  0
POLYLINE
  8
gg1
 62
1
 40
0.000000
 41
0.000000
 66
  1
  0
VERTEX
  8
gg1
 10
1.540000
 20
0.050000
  0
VERTEX
  8
gg1
 10
1.580000
 20
0.050000
  0
SEQEND
  8
gg1
  0
POLYLINE
  8
gg1
 62
1
 40
0.000000
 41
0.000000
 66
  1
  0
VERTEX
  8
gg1
 10
1.560000
 20
0.030000
  0
VERTEX
  8
gg1
 10
1.560000
 20
0.070000
  0
SEQEND
  8
gg1
  0
POLYLINE
  8
gg1
 62
1
 40
0.000000
 41
0.000000
 66
  1
  0
VERTEX
  8
gg1
 10
1.640000
 20
0.050000
  0
VERTEX
  8
gg1
 10
1.680000
 20
0.050000
  0
SEQEND
  8
gg1
  0
POLYLINE
  8
gg1
 62
1
 40
0.000000
 41
0.000000
 66
  1
  0
VERTEX
  8
gg1
 10
1.660000
 20
0.030000
  0
VERTEX
  8
gg1
 10
1.660000
 20
0.070000
  0
SEQEND
  8
gg1
  0
POLYLINE
  8
gg1
 62
1
 40
0.000000
 41
0.000000
 66
  1
  0
VERTEX
  8
gg1
 10
1.740000
 20
0.050000
  0
VERTEX
  8
gg1
 10
1.780000
 20
0.050000
  0
SEQEND
  8
gg1
  0
POLYLINE
  8
gg1
 62
1
 40
0.000000
 41
0.000000
 66
  1
  0
VERTEX
  8
gg1
 10
1.760000
 20
0.030000
  0
VERTEX
  8
gg1
 10
1.760000
 20
0.070000
  0
SEQEND
  8
gg1
  0
POLYLINE
  8
gg1
 62
1
 40
0.000000
 41
0.000000
 66
  1
  0
VERTEX
  8
gg1
 10
0.152500
 20
0.241100
  0
VERTEX
  8
gg1
 10
0.167500
 20
0.241100
  0
SEQEND
  8
gg1
  0
POLYLINE
  8
gg1
 62
1
 40
0.000000
 41
0.000000
 66
  1
  0
VERTEX
  8
gg1
 10
0.160000
 20
0.233600
  0
VERTEX
  8
gg1
 10
0.160000
 20
0.248600
  0
SEQEND
  8
gg1
  0
POLYLINE
  8
gg1
 62
1
 40
0.000000
 41
0.000000
 66
  1
  0
VERTEX
  8
gg1
 10
0.082500
 20
0.241100
  0
VERTEX
  8
gg1
 10
0.097500
 20
0.241100
  0
SEQEND
  8
gg1
  0
POLYLINE
  8
gg1
 62
1
 40
0.000000
 41
0.000000
 66
  1
  0
VERTEX
  8
gg1
 10
0.090000
 20
0.233600
  0
VERTEX
  8
gg1
 10
0.090000
 20
0.248600
  0
SEQEND
  8
gg1
  0
POLYLINE
  8
gg1
 62
1
 40
0.000000
 41
0.000000
 66
  1
  0
VERTEX
  8
gg1
 10
0.832500
 20
0.240900
  0
VERTEX
  8
gg1
 10
0.847500
 20
0.240900
  0
SEQEND
  8
gg1
  0
POLYLINE
  8
gg1
 62
1
 40
0.000000
 41
0.000000
 66
  1
  0
VERTEX
  8
gg1
 10
0.840000
 20
0.233400
  0
VERTEX
  8
gg1
 10
0.840000
 20
0.248400
  0
SEQEND
  8
gg1
  0
POLYLINE
  8
gg1
 62
1
 40
0.000000
 41
0.000000
 66
  1
  0
VERTEX
  8
gg1
 10
1.652500
 20
0.240900
  0
VERTEX
  8
gg1
 10
1.667500
 20
0.240900
  0
SEQEND
  8
gg1
  0
POLYLINE
  8
gg1
 62
1
 40
0.000000
 41
0.000000
 66
  1
  0
VERTEX
  8
gg1
 10
1.660000
 20
0.233400
  0
VERTEX
  8
gg1
 10
1.660000
 20
0.248400
  0
SEQEND
  8
gg1
  0
POLYLINE
  8
gg1
 62
1
 40
0.000000
 41
0.000000
 66
  1
  0
VERTEX
  8
gg1
 10
2.332500
 20
0.240900
  0
VERTEX
  8
gg1
 10
2.347500
 20
0.240900
  0
SEQEND
  8
gg1
  0
POLYLINE
  8
gg1
 62
1
 40
0.000000
 41
0.000000
 66
  1
  0
VERTEX
  8
gg1
 10
2.340000
 20
0.233400
  0
VERTEX
  8
gg1
 10
2.340000
 20
0.248400
  0
SEQEND
  8
gg1
  0
POLYLINE
  8
gg1
 62
1
 40
0.000000
 41
0.000000
 66
  1
  0
VERTEX
  8
gg1
 10
2.012500
 20
0.050000
  0
VERTEX
  8
gg1
 10
2.027500
 20
0.050000
  0
SEQEND
  8
gg1
  0
POLYLINE
  8
gg1
 62
1
 40
0.000000
 41
0.000000
 66
  1
  0
VERTEX
  8
gg1
 10
2.020000
 20
0.042500
  0
VERTEX
  8
gg1
 10
2.020000
 20
0.057500
  0
SEQEND
  8
gg1
  0
POLYLINE
  8
gg1
 62
1
 40
0.000000
 41
0.000000
 66
  1
  0
VERTEX
  8
gg1
 10
2.252500
 20
0.220000
  0
VERTEX
  8
gg1
 10
2.267500
 20
0.220000
  0
SEQEND
  8
gg1
  0
POLYLINE
  8
gg1
 62
1
 40
0.000000
 41
0.000000
 66
  1
  0
VERTEX
  8
gg1
 10
2.260000
 20
0.212500
  0
VERTEX
  8
gg1
 10
2.260000
 20
0.227500
  0
SEQEND
  8
gg1
  0
POLYLINE
  8
gg1
 62
1
 40
0.000000
 41
0.000000
 66
  1
  0
VERTEX
  8
gg1
 10
1.277500
 20
0.240900
  0
VERTEX
  8
gg1
 10
1.292500
 20
0.240900
  0
SEQEND
  8
gg1
  0
POLYLINE
  8
gg1
 62
1
 40
0.000000
 41
0.000000
 66
  1
  0
VERTEX
  8
gg1
 10
1.285000
 20
0.233400
  0
VERTEX
  8
gg1
 10
1.285000
 20
0.248400
  0
SEQEND
  8
gg1
  0
POLYLINE
  8
gg1
 62
1
 40
0.000000
 41
0.000000
 66
  1
  0
VERTEX
  8
gg1
 10
1.207500
 20
0.240900
  0
VERTEX
  8
gg1
 10
1.222500
 20
0.240900
  0
SEQEND
  8
gg1
  0
POLYLINE
  8
gg1
 62
1
 40
0.000000
 41
0.000000
 66
  1
  0
VERTEX
  8
gg1
 10
1.215000
 20
0.233400
  0
VERTEX
  8
gg1
 10
1.215000
 20
0.248400
  0
SEQEND
  8
gg1
  0
POLYLINE
  8
gg1
 62
1
 40
0.000000
 41
0.000000
 66
  1
  0
VERTEX
  8
gg1
 10
1.292500
 20
0.170000
  0
VERTEX
  8
gg1
 10
1.307500
 20
0.170000
  0
SEQEND
  8
gg1
  0
POLYLINE
  8
gg1
 62
1
 40
0.000000
 41
0.000000
 66
  1
  0
VERTEX
  8
gg1
 10
1.300000
 20
0.162500
  0
VERTEX
  8
gg1
 10
1.300000
 20
0.177500
  0
SEQEND
  8
gg1
  0
POLYLINE
  8
gg1
 62
1
 40
0.000000
 41
0.000000
 66
  1
  0
VERTEX
  8
gg1
 10
1.582500
 20
0.240900
  0
VERTEX
  8
gg1
 10
1.597500
 20
0.240900
  0
SEQEND
  8
gg1
  0
POLYLINE
  8
gg1
 62
1
 40
0.000000
 41
0.000000
 66
  1
  0
VERTEX
  8
gg1
 10
1.590000
 20
0.233400
  0
VERTEX
  8
gg1
 10
1.590000
 20
0.248400
  0
SEQEND
  8
gg1
  0
POLYLINE
  8
gg1
 62
1
 40
0.000000
 41
0.000000
 66
  1
  0
VERTEX
  8
gg1
 10
2.383400
 20
0.170000
  0
VERTEX
  8
gg1
 10
2.398400
 20
0.170000
  0
SEQEND
  8
gg1
  0
POLYLINE
  8
gg1
 62
1
 40
0.000000
 41
0.000000
 66
  1
  0
VERTEX
  8
gg1
 10
2.390900
 20
0.162500
  0
VERTEX
  8
gg1
 10
2.390900
 20
0.177500
  0
SEQEND
  8
gg1
  0
POLYLINE
  8
gg1
 62
1
 40
0.000000
 41
0.000000
 66
  1
  0
VERTEX
  8
gg1
 10
0.902500
 20
0.240900
  0
VERTEX
  8
gg1
 10
0.917500
 20
0.240900
  0
SEQEND
  8
gg1
  0
POLYLINE
  8
gg1
 62
1
 40
0.000000
 41
0.000000
 66
  1
  0
VERTEX
  8
gg1
 10
0.910000
 20
0.233400
  0
VERTEX
  8
gg1
 10
0.910000
 20
0.248400
  0
SEQEND
  8
gg1
  0
POLYLINE
  8
gg1
 62
1
 40
0.000000
 41
0.000000
 66
  1
  0
VERTEX
  8
gg1
 10
1.910500
 20
0.240000
  0
VERTEX
  8
gg1
 10
1.925500
 20
0.240000
  0
SEQEND
  8
gg1
  0
POLYLINE
  8
gg1
 62
1
 40
0.000000
 41
0.000000
 66
  1
  0
VERTEX
  8
gg1
 10
1.918000
 20
0.232500
  0
VERTEX
  8
gg1
 10
1.918000
 20
0.247500
  0
SEQEND
  8
gg1
  0
POLYLINE
  8
gg1
 62
1
 40
0.000000
 41
0.000000
 66
  1
  0
VERTEX
  8
gg1
 10
2.192500
 20
0.195000
  0
VERTEX
  8
gg1
 10
2.207500
 20
0.195000
  0
SEQEND
  8
gg1
  0
POLYLINE
  8
gg1
 62
1
 40
0.000000
 41
0.000000
 66
  1
  0
VERTEX
  8
gg1
 10
2.200000
 20
0.187500
  0
VERTEX
  8
gg1
 10
2.200000
 20
0.202500
  0
SEQEND
  8
gg1
  0
POLYLINE
  8
gg1
 62
1
 40
0.000000
 41
0.000000
 66
  1
  0
VERTEX
  8
gg1
 10
1.432500
 20
0.173000
  0
VERTEX
  8
gg1
 10
1.447500
 20
0.173000
  0
SEQEND
  8
gg1
  0
POLYLINE
  8
gg1
 62
1
 40
0.000000
 41
0.000000
 66
  1
  0
VERTEX
  8
gg1
 10
1.440000
 20
0.165500
  0
VERTEX
  8
gg1
 10
1.440000
 20
0.180500
  0
SEQEND
  8
gg1
  0
POLYLINE
  8
gg1
 62
1
 40
0.000000
 41
0.000000
 66
  1
  0
VERTEX
  8
gg1
 10
1.592500
 20
0.176400
  0
VERTEX
  8
gg1
 10
1.607500
 20
0.176400
  0
SEQEND
  8
gg1
  0
POLYLINE
  8
gg1
 62
1
 40
0.000000
 41
0.000000
 66
  1
  0
VERTEX
  8
gg1
 10
1.600000
 20
0.168900
  0
VERTEX
  8
gg1
 10
1.600000
 20
0.183900
  0
SEQEND
  8
gg1
  0
POLYLINE
  8
gg1
 62
1
 40
0.000000
 41
0.000000
 66
  1
  0
VERTEX
  8
gg1
 10
1.662500
 20
0.175000
  0
VERTEX
  8
gg1
 10
1.677500
 20
0.175000
  0
SEQEND
  8
gg1
  0
POLYLINE
  8
gg1
 62
1
 40
0.000000
 41
0.000000
 66
  1
  0
VERTEX
  8
gg1
 10
1.670000
 20
0.167500
  0
VERTEX
  8
gg1
 10
1.670000
 20
0.182500
  0
SEQEND
  8
gg1
  0
POLYLINE
  8
gg1
 62
1
 40
0.000000
 41
0.000000
 66
  1
  0
VERTEX
  8
gg1
 10
2.298400
 20
0.125000
  0
VERTEX
  8
gg1
 10
2.313400
 20
0.125000
  0
SEQEND
  8
gg1
  0
POLYLINE
  8
gg1
 62
1
 40
0.000000
 41
0.000000
 66
  1
  0
VERTEX
  8
gg1
 10
2.305900
 20
0.117500
  0
VERTEX
  8
gg1
 10
2.305900
 20
0.132500
  0
SEQEND
  8
gg1
  0
POLYLINE
  8
gg1
 62
1
 40
0.000000
 41
0.000000
 66
  1
  0
VERTEX
  8
gg1
 10
2.242500
 20
0.080000
  0
VERTEX
  8
gg1
 10
2.257500
 20
0.080000
  0
SEQEND
  8
gg1
  0
POLYLINE
  8
gg1
 62
1
 40
0.000000
 41
0.000000
 66
  1
  0
VERTEX
  8
gg1
 10
2.250000
 20
0.072500
  0
VERTEX
  8
gg1
 10
2.250000
 20
0.087500
  0
SEQEND
  8
gg1
  0
POLYLINE
  8
gg1
 62
1
 40
0.000000
 41
0.000000
 66
  1
  0
VERTEX
  8
gg1
 10
2.208000
 20
0.110000
  0
VERTEX
  8
gg1
 10
2.223000
 20
0.110000
  0
SEQEND
  8
gg1
  0
POLYLINE
  8
gg1
 62
1
 40
0.000000
 41
0.000000
 66
  1
  0
VERTEX
  8
gg1
 10
2.215500
 20
0.102500
  0
VERTEX
  8
gg1
 10
2.215500
 20
0.117500
  0
SEQEND
  8
gg1
  0
POLYLINE
  8
gg1
 62
1
 40
0.000000
 41
0.000000
 66
  1
  0
VERTEX
  8
gg1
 10
1.992700
 20
0.165000
  0
VERTEX
  8
gg1
 10
2.007700
 20
0.165000
  0
SEQEND
  8
gg1
  0
POLYLINE
  8
gg1
 62
1
 40
0.000000
 41
0.000000
 66
  1
  0
VERTEX
  8
gg1
 10
2.000200
 20
0.157500
  0
VERTEX
  8
gg1
 10
2.000200
 20
0.172500
  0
SEQEND
  8
gg1
  0
POLYLINE
  8
gg1
 62
1
 40
0.000000
 41
0.000000
 66
  1
  0
VERTEX
  8
gg1
 10
1.887500
 20
0.135000
  0
VERTEX
  8
gg1
 10
1.902500
 20
0.135000
  0
SEQEND
  8
gg1
  0
POLYLINE
  8
gg1
 62
1
 40
0.000000
 41
0.000000
 66
  1
  0
VERTEX
  8
gg1
 10
1.895000
 20
0.127500
  0
VERTEX
  8
gg1
 10
1.895000
 20
0.142500
  0
SEQEND
  8
gg1
  0
POLYLINE
  8
gg1
 62
1
 40
0.000000
 41
0.000000
 66
  1
  0
VERTEX
  8
gg1
 10
0.992500
 20
0.135000
  0
VERTEX
  8
gg1
 10
1.007500
 20
0.135000
  0
SEQEND
  8
gg1
  0
POLYLINE
  8
gg1
 62
1
 40
0.000000
 41
0.000000
 66
  1
  0
VERTEX
  8
gg1
 10
1.000000
 20
0.127500
  0
VERTEX
  8
gg1
 10
1.000000
 20
0.142500
  0
SEQEND
  8
gg1
  0
POLYLINE
  8
gg1
 62
1
 40
0.000000
 41
0.000000
 66
  1
  0
VERTEX
  8
gg1
 10
1.107500
 20
0.125000
  0
VERTEX
  8
gg1
 10
1.122500
 20
0.125000
  0
SEQEND
  8
gg1
  0
POLYLINE
  8
gg1
 62
1
 40
0.000000
 41
0.000000
 66
  1
  0
VERTEX
  8
gg1
 10
1.115000
 20
0.117500
  0
VERTEX
  8
gg1
 10
1.115000
 20
0.132500
  0
SEQEND
  8
gg1
  0
POLYLINE
  8
gg1
 62
1
 40
0.000000
 41
0.000000
 66
  1
  0
VERTEX
  8
gg1
 10
0.447500
 20
0.075000
  0
VERTEX
  8
gg1
 10
0.462500
 20
0.075000
  0
SEQEND
  8
gg1
  0
POLYLINE
  8
gg1
 62
1
 40
0.000000
 41
0.000000
 66
  1
  0
VERTEX
  8
gg1
 10
0.455000
 20
0.067500
  0
VERTEX
  8
gg1
 10
0.455000
 20
0.082500
  0
SEQEND
  8
gg1
  0
POLYLINE
  8
gg1
 62
1
 40
0.000000
 41
0.000000
 66
  1
  0
VERTEX
  8
gg1
 10
0.707500
 20
0.105000
  0
VERTEX
  8
gg1
 10
0.722500
 20
0.105000
  0
SEQEND
  8
gg1
  0
POLYLINE
  8
gg1
 62
1
 40
0.000000
 41
0.000000
 66
  1
  0
VERTEX
  8
gg1
 10
0.715000
 20
0.097500
  0
VERTEX
  8
gg1
 10
0.715000
 20
0.112500
  0
SEQEND
  8
gg1
  0
POLYLINE
  8
gg1
 62
1
 40
0.000000
 41
0.000000
 66
  1
  0
VERTEX
  8
gg1
 10
0.043200
 20
0.045000
  0
VERTEX
  8
gg1
 10
0.058200
 20
0.045000
  0
SEQEND
  8
gg1
  0
POLYLINE
  8
gg1
 62
1
 40
0.000000
 41
0.000000
 66
  1
  0
VERTEX
  8
gg1
 10
0.050700
 20
0.037500
  0
VERTEX
  8
gg1
 10
0.050700
 20
0.052500
  0
SEQEND
  8
gg1
  0
POLYLINE
  8
gg1
 62
1
 40
0.000000
 41
0.000000
 66
  1
  0
VERTEX
  8
gg1
 10
0.467500
 20
0.040000
  0
VERTEX
  8
gg1
 10
0.482500
 20
0.040000
  0
SEQEND
  8
gg1
  0
POLYLINE
  8
gg1
 62
1
 40
0.000000
 41
0.000000
 66
  1
  0
VERTEX
  8
gg1
 10
0.475000
 20
0.032500
  0
VERTEX
  8
gg1
 10
0.475000
 20
0.047500
  0
SEQEND
  8
gg1
  0
POLYLINE
  8
gg1
 62
1
 40
0.000000
 41
0.000000
 66
  1
  0
VERTEX
  8
gg1
 10
0.487500
 20
0.075000
  0
VERTEX
  8
gg1
 10
0.502500
 20
0.075000
  0
SEQEND
  8
gg1
  0
POLYLINE
  8
gg1
 62
1
 40
0.000000
 41
0.000000
 66
  1
  0
VERTEX
  8
gg1
 10
0.495000
 20
0.067500
  0
VERTEX
  8
gg1
 10
0.495000
 20
0.082500
  0
SEQEND
  8
gg1
  0
POLYLINE
  8
gg1
 62
1
 40
0.000000
 41
0.000000
 66
  1
  0
VERTEX
  8
gg1
 10
0.214000
 20
0.105000
  0
VERTEX
  8
gg1
 10
0.229000
 20
0.105000
  0
SEQEND
  8
gg1
  0
POLYLINE
  8
gg1
 62
1
 40
0.000000
 41
0.000000
 66
  1
  0
VERTEX
  8
gg1
 10
0.221500
 20
0.097500
  0
VERTEX
  8
gg1
 10
0.221500
 20
0.112500
  0
SEQEND
  8
gg1
  0
ENDSEC
  0
EOF
