  0
SECTION
  2
HEADER
  9
$EXTMIN
 10
-0.115000
 20
-0.119000
  9
$EXTMAX
 10
0.805000
 20
0.705000
  9
$LIMMIN
 10
-0.115000
 20
-0.119000
  9
$LIMMAX
 10
0.805000
 20
0.705000
  9
$FILLMODE
 70
  1
  0
ENDSEC
  0
SECTION
  2
TABLES
  0
TABLE
  2
LTYPE
 70
  1
  0
LTYPE
  2
CONTINUOUS
 70
 64
  3
Solid line
 72
 65
 73
  0
 40
0.0
  0
ENDTAB
  0
TABLE
  2
LAYER
 70
 1
  0
LAYER
  2
0
 70
  0
 62
7
  6
CONTINUOUS
  0
LAYER
  2
gg1
 70
  0
 62
1
  6
CONTINUOUS
  0
ENDTAB
  0
TABLE
  2
STYLE
 70
  1
  0
STYLE
  2
STANDARD
 70
  0
 40
0.0
 41
1.0
 50
0.0
 71
  0
 42
0.2
  3
txt
  4

  0
ENDTAB
  0
ENDSEC
  0
SECTION
  2
BLOCKS
  0
BLOCK
  8
0
  2
D10
 70
64
 10
0.0
 20
0.0
  3
D10
  0
CIRCLE
  8
0
 10
0.000000
 20
0.000000
 40
0.005000
 0
ENDBLK
  8
0
  0
BLOCK
  8
0
  2
D11
 70
64
 10
0.0
 20
0.0
  3
D11
  0
CIRCLE
  8
0
 10
0.000000
 20
0.000000
 40
0.002500
 0
ENDBLK
  8
0
  0
BLOCK
  8
0
  2
D12
 70
64
 10
0.0
 20
0.0
  3
D12
  0
CIRCLE
  8
0
 10
0.000000
 20
0.000000
 40
0.003000
 0
ENDBLK
  8
0
  0
BLOCK
  8
0
  2
D13
 70
64
 10
0.0
 20
0.0
  3
D13
  0
CIRCLE
  8
0
 10
0.000000
 20
0.000000
 40
0.001000
 0
ENDBLK
  8
0
  0
ENDSEC
  0
SECTION
  2
ENTITIES
  0
POLYLINE
  8
gg1
 62
1
 40
0.000000
 41
0.000000
 66
  1
  0
VERTEX
  8
gg1
 10
-0.090000
 20
0.700000
  0
VERTEX
  8
gg1
 10
-0.010000
 20
0.700000
  0
SEQEND
  8
gg1
  0
POLYLINE
  8
gg1
 62
1
 40
0.000000
 41
0.000000
 66
  1
  0
VERTEX
  8
gg1
 10
-0.090000
 20
0.000000
  0
VERTEX
  8
gg1
 10
-0.010000
 20
0.000000
  0
SEQEND
  8
gg1
  0
POLYLINE
  8
gg1
 62
1
 40
0.000000
 41
0.000000
 66
  1
  0
VERTEX
  8
gg1
 10
-0.080000
 20
0.525900
  0
VERTEX
  8
gg1
 10
-0.080000
 20
0.700000
  0
SEQEND
  8
gg1
  0
POLYLINE
  8
gg1
 62
1
 40
0.000000
 41
0.000000
 66
  1
  0
VERTEX
  8
gg1
 10
-0.080000
 20
0.000000
  0
VERTEX
  8
gg1
 10
-0.080000
 20
0.184000
  0
SEQEND
  8
gg1
  0
POLYLINE
  8
gg1
 62
1
 40
0.000000
 41
0.000000
 66
  1
  0
VERTEX
  8
gg1
 10
-0.100000
 20
0.640000
  0
VERTEX
  8
gg1
 10
-0.080000
 20
0.700000
  0
VERTEX
  8
gg1
 10
-0.060000
 20
0.640000
  0
SEQEND
  8
gg1
  0
POLYLINE
  8
gg1
 62
1
 40
0.000000
 41
0.000000
 66
  1
  0
VERTEX
  8
gg1
 10
-0.080000
 20
0.000000
  0
VERTEX
  8
gg1
 10
-0.060000
 20
0.060000
  0
SEQEND
  8
gg1
  0
POLYLINE
  8
gg1
 62
1
 40
0.000000
 41
0.000000
 66
  1
  0
VERTEX
  8
gg1
 10
-0.100000
 20
0.060000
  0
VERTEX
  8
gg1
 10
-0.080000
 20
0.000000
  0
SEQEND
  8
gg1
  0
POLYLINE
  8
gg1
 62
1
 40
0.000000
 41
0.000000
 66
  1
  0
VERTEX
  8
gg1
 10
0.800000
 20
-0.090000
  0
VERTEX
  8
gg1
 10
0.800000
 20
-0.010000
  0
SEQEND
  8
gg1
  0
POLYLINE
  8
gg1
 62
1
 40
0.000000
 41
0.000000
 66
  1
  0
VERTEX
  8
gg1
 10
0.000000
 20
-0.090000
  0
VERTEX
  8
gg1
 10
0.000000
 20
-0.010000
  0
SEQEND
  8
gg1
  0
POLYLINE
  8
gg1
 62
1
 40
0.000000
 41
0.000000
 66
  1
  0
VERTEX
  8
gg1
 10
0.554900
 20
-0.080000
  0
VERTEX
  8
gg1
 10
0.800000
 20
-0.080000
  0
SEQEND
  8
gg1
  0
POLYLINE
  8
gg1
 62
1
 40
0.000000
 41
0.000000
 66
  1
  0
VERTEX
  8
gg1
 10
0.000000
 20
-0.080000
  0
VERTEX
  8
gg1
 10
0.213000
 20
-0.080000
  0
SEQEND
  8
gg1
  0
POLYLINE
  8
gg1
 62
1
 40
0.000000
 41
0.000000
 66
  1
  0
VERTEX
  8
gg1
 10
0.740000
 20
-0.060000
  0
VERTEX
  8
gg1
 10
0.800000
 20
-0.080000
  0
SEQEND
  8
gg1
  0
POLYLINE
  8
gg1
 62
1
 40
0.000000
 41
0.000000
 66
  1
  0
VERTEX
  8
gg1
 10
0.740000
 20
-0.100000
  0
VERTEX
  8
gg1
 10
0.800000
 20
-0.080000
  0
SEQEND
  8
gg1
  0
POLYLINE
  8
gg1
 62
1
 40
0.000000
 41
0.000000
 66
  1
  0
VERTEX
  8
gg1
 10
0.000000
 20
-0.080000
  0
VERTEX
  8
gg1
 10
0.060000
 20
-0.100000
  0
SEQEND
  8
gg1
  0
POLYLINE
  8
gg1
 62
1
 40
0.000000
 41
0.000000
 66
  1
  0
VERTEX
  8
gg1
 10
0.000000
 20
-0.080000
  0
VERTEX
  8
gg1
 10
0.060000
 20
-0.060000
  0
SEQEND
  8
gg1
  0
POLYLINE
  8
gg1
 62
1
 40
0.000000
 41
0.000000
 66
  1
  0
VERTEX
  8
gg1
 10
0.000000
 20
0.000000
  0
VERTEX
  8
gg1
 10
0.000000
 20
0.700000
  0
SEQEND
  8
gg1
  0
POLYLINE
  8
gg1
 62
1
 40
0.000000
 41
0.000000
 66
  1
  0
VERTEX
  8
gg1
 10
0.800000
 20
0.000000
  0
VERTEX
  8
gg1
 10
0.800000
 20
0.700000
  0
SEQEND
  8
gg1
  0
POLYLINE
  8
gg1
 62
1
 40
0.000000
 41
0.000000
 66
  1
  0
VERTEX
  8
gg1
 10
0.000000
 20
0.700000
  0
VERTEX
  8
gg1
 10
0.800000
 20
0.700000
  0
SEQEND
  8
gg1
  0
POLYLINE
  8
gg1
 62
1
 40
0.000000
 41
0.000000
 66
  1
  0
VERTEX
  8
gg1
 10
0.000000
 20
0.000000
  0
VERTEX
  8
gg1
 10
0.800000
 20
0.000000
  0
SEQEND
  8
gg1
  0
POLYLINE
  8
gg1
 62
1
 40
0.000000
 41
0.000000
 66
  1
  0
VERTEX
  8
gg1
 10
-0.112000
 20
0.200000
  0
VERTEX
  8
gg1
 10
-0.112000
 20
0.240000
  0
VERTEX
  8
gg1
 10
-0.102000
 20
0.240000
  0
VERTEX
  8
gg1
 10
-0.062000
 20
0.200000
  0
VERTEX
  8
gg1
 10
-0.052000
 20
0.200000
  0
SEQEND
  8
gg1
  0
POLYLINE
  8
gg1
 62
1
 40
0.000000
 41
0.000000
 66
  1
  0
VERTEX
  8
gg1
 10
-0.102000
 20
0.260000
  0
VERTEX
  8
gg1
 10
-0.112000
 20
0.270000
  0
VERTEX
  8
gg1
 10
-0.112000
 20
0.290000
  0
VERTEX
  8
gg1
 10
-0.102000
 20
0.300000
  0
VERTEX
  8
gg1
 10
-0.062000
 20
0.300000
  0
VERTEX
  8
gg1
 10
-0.052000
 20
0.290000
  0
VERTEX
  8
gg1
 10
-0.052000
 20
0.270000
  0
VERTEX
  8
gg1
 10
-0.062000
 20
0.260000
  0
VERTEX
  8
gg1
 10
-0.102000
 20
0.260000
  0
SEQEND
  8
gg1
  0
POLYLINE
  8
gg1
 62
1
 40
0.000000
 41
0.000000
 66
  1
  0
VERTEX
  8
gg1
 10
-0.102000
 20
0.320000
  0
VERTEX
  8
gg1
 10
-0.112000
 20
0.330000
  0
VERTEX
  8
gg1
 10
-0.112000
 20
0.350000
  0
VERTEX
  8
gg1
 10
-0.102000
 20
0.359900
  0
VERTEX
  8
gg1
 10
-0.062000
 20
0.359900
  0
VERTEX
  8
gg1
 10
-0.052000
 20
0.350000
  0
VERTEX
  8
gg1
 10
-0.052000
 20
0.330000
  0
VERTEX
  8
gg1
 10
-0.062000
 20
0.320000
  0
VERTEX
  8
gg1
 10
-0.102000
 20
0.320000
  0
SEQEND
  8
gg1
  0
POLYLINE
  8
gg1
 62
1
 40
0.000000
 41
0.000000
 66
  1
  0
VERTEX
  8
gg1
 10
-0.052000
 20
0.379900
  0
VERTEX
  8
gg1
 10
-0.092000
 20
0.379900
  0
VERTEX
  8
gg1
 10
-0.092000
 20
0.389900
  0
VERTEX
  8
gg1
 10
-0.082000
 20
0.399900
  0
VERTEX
  8
gg1
 10
-0.052000
 20
0.399900
  0
VERTEX
  8
gg1
 10
-0.082000
 20
0.399900
  0
VERTEX
  8
gg1
 10
-0.092000
 20
0.409900
  0
VERTEX
  8
gg1
 10
-0.082000
 20
0.419900
  0
VERTEX
  8
gg1
 10
-0.052000
 20
0.419900
  0
SEQEND
  8
gg1
  0
POLYLINE
  8
gg1
 62
1
 40
0.000000
 41
0.000000
 66
  1
  0
VERTEX
  8
gg1
 10
-0.052000
 20
0.439900
  0
VERTEX
  8
gg1
 10
-0.052000
 20
0.459900
  0
VERTEX
  8
gg1
 10
-0.052000
 20
0.449900
  0
VERTEX
  8
gg1
 10
-0.092000
 20
0.449900
  0
VERTEX
  8
gg1
 10
-0.092000
 20
0.439900
  0
SEQEND
  8
gg1
  0
POLYLINE
  8
gg1
 62
1
 40
0.000000
 41
0.000000
 66
  1
  0
VERTEX
  8
gg1
 10
-0.052000
 20
0.489900
  0
VERTEX
  8
gg1
 10
-0.052000
 20
0.509900
  0
VERTEX
  8
gg1
 10
-0.052000
 20
0.499900
  0
VERTEX
  8
gg1
 10
-0.112000
 20
0.499900
  0
VERTEX
  8
gg1
 10
-0.112000
 20
0.489900
  0
SEQEND
  8
gg1
  0
POLYLINE
  8
gg1
 62
1
 40
0.000000
 41
0.000000
 66
  1
  0
VERTEX
  8
gg1
 10
0.229000
 20
-0.066000
  0
VERTEX
  8
gg1
 10
0.239000
 20
-0.056000
  0
VERTEX
  8
gg1
 10
0.259000
 20
-0.056000
  0
VERTEX
  8
gg1
 10
0.269000
 20
-0.066000
  0
VERTEX
  8
gg1
 10
0.269000
 20
-0.076000
  0
VERTEX
  8
gg1
 10
0.259000
 20
-0.086000
  0
VERTEX
  8
gg1
 10
0.269000
 20
-0.096000
  0
VERTEX
  8
gg1
 10
0.269000
 20
-0.106000
  0
VERTEX
  8
gg1
 10
0.259000
 20
-0.116000
  0
VERTEX
  8
gg1
 10
0.239000
 20
-0.116000
  0
VERTEX
  8
gg1
 10
0.229000
 20
-0.106000
  0
VERTEX
  8
gg1
 10
0.229000
 20
-0.096000
  0
VERTEX
  8
gg1
 10
0.239000
 20
-0.086000
  0
VERTEX
  8
gg1
 10
0.229000
 20
-0.076000
  0
VERTEX
  8
gg1
 10
0.229000
 20
-0.066000
  0
SEQEND
  8
gg1
  0
POLYLINE
  8
gg1
 62
1
 40
0.000000
 41
0.000000
 66
  1
  0
VERTEX
  8
gg1
 10
0.239000
 20
-0.086000
  0
VERTEX
  8
gg1
 10
0.259000
 20
-0.086000
  0
SEQEND
  8
gg1
  0
POLYLINE
  8
gg1
 62
1
 40
0.000000
 41
0.000000
 66
  1
  0
VERTEX
  8
gg1
 10
0.289000
 20
-0.066000
  0
VERTEX
  8
gg1
 10
0.299000
 20
-0.056000
  0
VERTEX
  8
gg1
 10
0.319000
 20
-0.056000
  0
VERTEX
  8
gg1
 10
0.329000
 20
-0.066000
  0
VERTEX
  8
gg1
 10
0.329000
 20
-0.106000
  0
VERTEX
  8
gg1
 10
0.319000
 20
-0.116000
  0
VERTEX
  8
gg1
 10
0.299000
 20
-0.116000
  0
VERTEX
  8
gg1
 10
0.289000
 20
-0.106000
  0
VERTEX
  8
gg1
 10
0.289000
 20
-0.066000
  0
SEQEND
  8
gg1
  0
POLYLINE
  8
gg1
 62
1
 40
0.000000
 41
0.000000
 66
  1
  0
VERTEX
  8
gg1
 10
0.349000
 20
-0.066000
  0
VERTEX
  8
gg1
 10
0.359000
 20
-0.056000
  0
VERTEX
  8
gg1
 10
0.379000
 20
-0.056000
  0
VERTEX
  8
gg1
 10
0.389000
 20
-0.066000
  0
VERTEX
  8
gg1
 10
0.389000
 20
-0.106000
  0
VERTEX
  8
gg1
 10
0.379000
 20
-0.116000
  0
VERTEX
  8
gg1
 10
0.359000
 20
-0.116000
  0
VERTEX
  8
gg1
 10
0.349000
 20
-0.106000
  0
VERTEX
  8
gg1
 10
0.349000
 20
-0.066000
  0
SEQEND
  8
gg1
  0
POLYLINE
  8
gg1
 62
1
 40
0.000000
 41
0.000000
 66
  1
  0
VERTEX
  8
gg1
 10
0.409000
 20
-0.116000
  0
VERTEX
  8
gg1
 10
0.409000
 20
-0.076000
  0
VERTEX
  8
gg1
 10
0.419000
 20
-0.076000
  0
VERTEX
  8
gg1
 10
0.429000
 20
-0.086000
  0
VERTEX
  8
gg1
 10
0.429000
 20
-0.116000
  0
VERTEX
  8
gg1
 10
0.429000
 20
-0.086000
  0
VERTEX
  8
gg1
 10
0.439000
 20
-0.076000
  0
VERTEX
  8
gg1
 10
0.449000
 20
-0.086000
  0
VERTEX
  8
gg1
 10
0.449000
 20
-0.116000
  0
SEQEND
  8
gg1
  0
POLYLINE
  8
gg1
 62
1
 40
0.000000
 41
0.000000
 66
  1
  0
VERTEX
  8
gg1
 10
0.469000
 20
-0.116000
  0
VERTEX
  8
gg1
 10
0.489000
 20
-0.116000
  0
VERTEX
  8
gg1
 10
0.479000
 20
-0.116000
  0
VERTEX
  8
gg1
 10
0.479000
 20
-0.076000
  0
VERTEX
  8
gg1
 10
0.469000
 20
-0.076000
  0
SEQEND
  8
gg1
  0
POLYLINE
  8
gg1
 62
1
 40
0.000000
 41
0.000000
 66
  1
  0
VERTEX
  8
gg1
 10
0.519000
 20
-0.116000
  0
VERTEX
  8
gg1
 10
0.539000
 20
-0.116000
  0
VERTEX
  8
gg1
 10
0.529000
 20
-0.116000
  0
VERTEX
  8
gg1
 10
0.529000
 20
-0.056000
  0
VERTEX
  8
gg1
 10
0.519000
 20
-0.056000
  0
SEQEND
  8
gg1
  0
POLYLINE
  8
gg1
 62
1
 40
0.000000
 41
0.000000
 66
  1
  0
VERTEX
  8
gg1
 10
0.730000
 20
0.250000
  0
VERTEX
  8
gg1
 10
0.770000
 20
0.250000
  0
SEQEND
  8
gg1
  0
POLYLINE
  8
gg1
 62
1
 40
0.000000
 41
0.000000
 66
  1
  0
VERTEX
  8
gg1
 10
0.750000
 20
0.230000
  0
VERTEX
  8
gg1
 10
0.750000
 20
0.270000
  0
SEQEND
  8
gg1
  0
POLYLINE
  8
gg1
 62
1
 40
0.000000
 41
0.000000
 66
  1
  0
VERTEX
  8
gg1
 10
0.730000
 20
0.350000
  0
VERTEX
  8
gg1
 10
0.770000
 20
0.350000
  0
SEQEND
  8
gg1
  0
POLYLINE
  8
gg1
 62
1
 40
0.000000
 41
0.000000
 66
  1
  0
VERTEX
  8
gg1
 10
0.750000
 20
0.330000
  0
VERTEX
  8
gg1
 10
0.750000
 20
0.370000
  0
SEQEND
  8
gg1
  0
POLYLINE
  8
gg1
 62
1
 40
0.000000
 41
0.000000
 66
  1
  0
VERTEX
  8
gg1
 10
0.730000
 20
0.450000
  0
VERTEX
  8
gg1
 10
0.770000
 20
0.450000
  0
SEQEND
  8
gg1
  0
POLYLINE
  8
gg1
 62
1
 40
0.000000
 41
0.000000
 66
  1
  0
VERTEX
  8
gg1
 10
0.750000
 20
0.430000
  0
VERTEX
  8
gg1
 10
0.750000
 20
0.470000
  0
SEQEND
  8
gg1
  0
POLYLINE
  8
gg1
 62
1
 40
0.000000
 41
0.000000
 66
  1
  0
VERTEX
  8
gg1
 10
0.730000
 20
0.550000
  0
VERTEX
  8
gg1
 10
0.770000
 20
0.550000
  0
SEQEND
  8
gg1
  0
POLYLINE
  8
gg1
 62
1
 40
0.000000
 41
0.000000
 66
  1
  0
VERTEX
  8
gg1
 10
0.750000
 20
0.530000
  0
VERTEX
  8
gg1
 10
0.750000
 20
0.570000
  0
SEQEND
  8
gg1
  0
POLYLINE
  8
gg1
 62
1
 40
0.000000
 41
0.000000
 66
  1
  0
VERTEX
  8
gg1
 10
0.730000
 20
0.650000
  0
VERTEX
  8
gg1
 10
0.770000
 20
0.650000
  0
SEQEND
  8
gg1
  0
POLYLINE
  8
gg1
 62
1
 40
0.000000
 41
0.000000
 66
  1
  0
VERTEX
  8
gg1
 10
0.750000
 20
0.630000
  0
VERTEX
  8
gg1
 10
0.750000
 20
0.670000
  0
SEQEND
  8
gg1
  0
POLYLINE
  8
gg1
 62
1
 40
0.000000
 41
0.000000
 66
  1
  0
VERTEX
  8
gg1
 10
0.730000
 20
0.150000
  0
VERTEX
  8
gg1
 10
0.770000
 20
0.150000
  0
SEQEND
  8
gg1
  0
POLYLINE
  8
gg1
 62
1
 40
0.000000
 41
0.000000
 66
  1
  0
VERTEX
  8
gg1
 10
0.750000
 20
0.130000
  0
VERTEX
  8
gg1
 10
0.750000
 20
0.170000
  0
SEQEND
  8
gg1
  0
POLYLINE
  8
gg1
 62
1
 40
0.000000
 41
0.000000
 66
  1
  0
VERTEX
  8
gg1
 10
0.730000
 20
0.050000
  0
VERTEX
  8
gg1
 10
0.770000
 20
0.050000
  0
SEQEND
  8
gg1
  0
POLYLINE
  8
gg1
 62
1
 40
0.000000
 41
0.000000
 66
  1
  0
VERTEX
  8
gg1
 10
0.750000
 20
0.030000
  0
VERTEX
  8
gg1
 10
0.750000
 20
0.070000
  0
SEQEND
  8
gg1
  0
POLYLINE
  8
gg1
 62
1
 40
0.000000
 41
0.000000
 66
  1
  0
VERTEX
  8
gg1
 10
0.030000
 20
0.650000
  0
VERTEX
  8
gg1
 10
0.070000
 20
0.650000
  0
SEQEND
  8
gg1
  0
POLYLINE
  8
gg1
 62
1
 40
0.000000
 41
0.000000
 66
  1
  0
VERTEX
  8
gg1
 10
0.050000
 20
0.630000
  0
VERTEX
  8
gg1
 10
0.050000
 20
0.670000
  0
SEQEND
  8
gg1
  0
POLYLINE
  8
gg1
 62
1
 40
0.000000
 41
0.000000
 66
  1
  0
VERTEX
  8
gg1
 10
0.030000
 20
0.550000
  0
VERTEX
  8
gg1
 10
0.070000
 20
0.550000
  0
SEQEND
  8
gg1
  0
POLYLINE
  8
gg1
 62
1
 40
0.000000
 41
0.000000
 66
  1
  0
VERTEX
  8
gg1
 10
0.050000
 20
0.530000
  0
VERTEX
  8
gg1
 10
0.050000
 20
0.570000
  0
SEQEND
  8
gg1
  0
POLYLINE
  8
gg1
 62
1
 40
0.000000
 41
0.000000
 66
  1
  0
VERTEX
  8
gg1
 10
0.030000
 20
0.450000
  0
VERTEX
  8
gg1
 10
0.070000
 20
0.450000
  0
SEQEND
  8
gg1
  0
POLYLINE
  8
gg1
 62
1
 40
0.000000
 41
0.000000
 66
  1
  0
VERTEX
  8
gg1
 10
0.050000
 20
0.430000
  0
VERTEX
  8
gg1
 10
0.050000
 20
0.470000
  0
SEQEND
  8
gg1
  0
POLYLINE
  8
gg1
 62
1
 40
0.000000
 41
0.000000
 66
  1
  0
VERTEX
  8
gg1
 10
0.030000
 20
0.350000
  0
VERTEX
  8
gg1
 10
0.070000
 20
0.350000
  0
SEQEND
  8
gg1
  0
POLYLINE
  8
gg1
 62
1
 40
0.000000
 41
0.000000
 66
  1
  0
VERTEX
  8
gg1
 10
0.050000
 20
0.330000
  0
VERTEX
  8
gg1
 10
0.050000
 20
0.370000
  0
SEQEND
  8
gg1
  0
POLYLINE
  8
gg1
 62
1
 40
0.000000
 41
0.000000
 66
  1
  0
VERTEX
  8
gg1
 10
0.142500
 20
0.385000
  0
VERTEX
  8
gg1
 10
0.157500
 20
0.385000
  0
SEQEND
  8
gg1
  0
POLYLINE
  8
gg1
 62
1
 40
0.000000
 41
0.000000
 66
  1
  0
VERTEX
  8
gg1
 10
0.150000
 20
0.377500
  0
VERTEX
  8
gg1
 10
0.150000
 20
0.392500
  0
SEQEND
  8
gg1
  0
POLYLINE
  8
gg1
 62
1
 40
0.000000
 41
0.000000
 66
  1
  0
VERTEX
  8
gg1
 10
0.442500
 20
0.385000
  0
VERTEX
  8
gg1
 10
0.457500
 20
0.385000
  0
SEQEND
  8
gg1
  0
POLYLINE
  8
gg1
 62
1
 40
0.000000
 41
0.000000
 66
  1
  0
VERTEX
  8
gg1
 10
0.450000
 20
0.377500
  0
VERTEX
  8
gg1
 10
0.450000
 20
0.392500
  0
SEQEND
  8
gg1
  0
POLYLINE
  8
gg1
 62
1
 40
0.000000
 41
0.000000
 66
  1
  0
VERTEX
  8
gg1
 10
0.537500
 20
0.385000
  0
VERTEX
  8
gg1
 10
0.552500
 20
0.385000
  0
SEQEND
  8
gg1
  0
POLYLINE
  8
gg1
 62
1
 40
0.000000
 41
0.000000
 66
  1
  0
VERTEX
  8
gg1
 10
0.545000
 20
0.377500
  0
VERTEX
  8
gg1
 10
0.545000
 20
0.392500
  0
SEQEND
  8
gg1
  0
POLYLINE
  8
gg1
 62
1
 40
0.000000
 41
0.000000
 66
  1
  0
VERTEX
  8
gg1
 10
0.403200
 20
0.420700
  0
VERTEX
  8
gg1
 10
0.418200
 20
0.420700
  0
SEQEND
  8
gg1
  0
POLYLINE
  8
gg1
 62
1
 40
0.000000
 41
0.000000
 66
  1
  0
VERTEX
  8
gg1
 10
0.410700
 20
0.413200
  0
VERTEX
  8
gg1
 10
0.410700
 20
0.428200
  0
SEQEND
  8
gg1
  0
POLYLINE
  8
gg1
 62
1
 40
0.000000
 41
0.000000
 66
  1
  0
VERTEX
  8
gg1
 10
0.446500
 20
0.550000
  0
VERTEX
  8
gg1
 10
0.461500
 20
0.550000
  0
SEQEND
  8
gg1
  0
POLYLINE
  8
gg1
 62
1
 40
0.000000
 41
0.000000
 66
  1
  0
VERTEX
  8
gg1
 10
0.454000
 20
0.542500
  0
VERTEX
  8
gg1
 10
0.454000
 20
0.557500
  0
SEQEND
  8
gg1
  0
POLYLINE
  8
gg1
 62
1
 40
0.000000
 41
0.000000
 66
  1
  0
VERTEX
  8
gg1
 10
0.652500
 20
0.300000
  0
VERTEX
  8
gg1
 10
0.667500
 20
0.300000
  0
SEQEND
  8
gg1
  0
POLYLINE
  8
gg1
 62
1
 40
0.000000
 41
0.000000
 66
  1
  0
VERTEX
  8
gg1
 10
0.660000
 20
0.292500
  0
VERTEX
  8
gg1
 10
0.660000
 20
0.307500
  0
SEQEND
  8
gg1
  0
POLYLINE
  8
gg1
 62
1
 40
0.000000
 41
0.000000
 66
  1
  0
VERTEX
  8
gg1
 10
0.652500
 20
0.200000
  0
VERTEX
  8
gg1
 10
0.667500
 20
0.200000
  0
SEQEND
  8
gg1
  0
POLYLINE
  8
gg1
 62
1
 40
0.000000
 41
0.000000
 66
  1
  0
VERTEX
  8
gg1
 10
0.660000
 20
0.192500
  0
VERTEX
  8
gg1
 10
0.660000
 20
0.207500
  0
SEQEND
  8
gg1
  0
POLYLINE
  8
gg1
 62
1
 40
0.000000
 41
0.000000
 66
  1
  0
VERTEX
  8
gg1
 10
0.307500
 20
0.385000
  0
VERTEX
  8
gg1
 10
0.322500
 20
0.385000
  0
SEQEND
  8
gg1
  0
POLYLINE
  8
gg1
 62
1
 40
0.000000
 41
0.000000
 66
  1
  0
VERTEX
  8
gg1
 10
0.315000
 20
0.377500
  0
VERTEX
  8
gg1
 10
0.315000
 20
0.392500
  0
SEQEND
  8
gg1
  0
POLYLINE
  8
gg1
 62
1
 40
0.000000
 41
0.000000
 66
  1
  0
VERTEX
  8
gg1
 10
0.542500
 20
0.145000
  0
VERTEX
  8
gg1
 10
0.557500
 20
0.145000
  0
SEQEND
  8
gg1
  0
POLYLINE
  8
gg1
 62
1
 40
0.000000
 41
0.000000
 66
  1
  0
VERTEX
  8
gg1
 10
0.550000
 20
0.137500
  0
VERTEX
  8
gg1
 10
0.550000
 20
0.152500
  0
SEQEND
  8
gg1
  0
POLYLINE
  8
gg1
 62
1
 40
0.000000
 41
0.000000
 66
  1
  0
VERTEX
  8
gg1
 10
0.142500
 20
0.080000
  0
VERTEX
  8
gg1
 10
0.157500
 20
0.080000
  0
SEQEND
  8
gg1
  0
POLYLINE
  8
gg1
 62
1
 40
0.000000
 41
0.000000
 66
  1
  0
VERTEX
  8
gg1
 10
0.150000
 20
0.072500
  0
VERTEX
  8
gg1
 10
0.150000
 20
0.087500
  0
SEQEND
  8
gg1
  0
POLYLINE
  8
gg1
 62
1
 40
0.000000
 41
0.000000
 66
  1
  0
VERTEX
  8
gg1
 10
0.242500
 20
0.620000
  0
VERTEX
  8
gg1
 10
0.257500
 20
0.620000
  0
SEQEND
  8
gg1
  0
POLYLINE
  8
gg1
 62
1
 40
0.000000
 41
0.000000
 66
  1
  0
VERTEX
  8
gg1
 10
0.250000
 20
0.612500
  0
VERTEX
  8
gg1
 10
0.250000
 20
0.627500
  0
SEQEND
  8
gg1
  0
POLYLINE
  8
gg1
 62
1
 40
0.000000
 41
0.000000
 66
  1
  0
VERTEX
  8
gg1
 10
0.542500
 20
0.620000
  0
VERTEX
  8
gg1
 10
0.557500
 20
0.620000
  0
SEQEND
  8
gg1
  0
POLYLINE
  8
gg1
 62
1
 40
0.000000
 41
0.000000
 66
  1
  0
VERTEX
  8
gg1
 10
0.550000
 20
0.612500
  0
VERTEX
  8
gg1
 10
0.550000
 20
0.627500
  0
SEQEND
  8
gg1
  0
POLYLINE
  8
gg1
 62
1
 40
0.000000
 41
0.000000
 66
  1
  0
VERTEX
  8
gg1
 10
0.619700
 20
0.390000
  0
VERTEX
  8
gg1
 10
0.634700
 20
0.390000
  0
SEQEND
  8
gg1
  0
POLYLINE
  8
gg1
 62
1
 40
0.000000
 41
0.000000
 66
  1
  0
VERTEX
  8
gg1
 10
0.627200
 20
0.382500
  0
VERTEX
  8
gg1
 10
0.627200
 20
0.397500
  0
SEQEND
  8
gg1
  0
ENDSEC
  0
EOF
