  0
SECTION
  2
HEADER
  9
$EXTMIN
 10
-0.127000
 20
-0.110000
  9
$EXTMAX
 10
1.352000
 20
0.602000
  9
$LIMMIN
 10
-0.127000
 20
-0.110000
  9
$LIMMAX
 10
1.352000
 20
0.602000
  9
$FILLMODE
 70
  1
  0
ENDSEC
  0
SECTION
  2
TABLES
  0
TABLE
  2
LTYPE
 70
  1
  0
LTYPE
  2
CONTINUOUS
 70
 64
  3
Solid line
 72
 65
 73
  0
 40
0.0
  0
ENDTAB
  0
TABLE
  2
LAYER
 70
 1
  0
LAYER
  2
0
 70
  0
 62
7
  6
CONTINUOUS
  0
LAYER
  2
gg1
 70
  0
 62
1
  6
CONTINUOUS
  0
ENDTAB
  0
TABLE
  2
STYLE
 70
  1
  0
STYLE
  2
STANDARD
 70
  0
 40
0.0
 41
1.0
 50
0.0
 71
  0
 42
0.2
  3
txt
  4

  0
ENDTAB
  0
ENDSEC
  0
SECTION
  2
BLOCKS
  0
BLOCK
  8
0
  2
D10
 70
64
 10
0.0
 20
0.0
  3
D10
  0
CIRCLE
  8
0
 10
0.000000
 20
0.000000
 40
0.002500
 0
ENDBLK
  8
0
  0
BLOCK
  8
0
  2
D11
 70
64
 10
0.0
 20
0.0
  3
D11
  0
CIRCLE
  8
0
 10
0.000000
 20
0.000000
 40
0.003000
 0
ENDBLK
  8
0
  0
BLOCK
  8
0
  2
D12
 70
64
 10
0.0
 20
0.0
  3
D12
  0
CIRCLE
  8
0
 10
0.000000
 20
0.000000
 40
0.001000
 0
ENDBLK
  8
0
  0
ENDSEC
  0
SECTION
  2
ENTITIES
  0
POLYLINE
  8
gg1
 62
1
 40
0.000000
 41
0.000000
 66
  1
  0
VERTEX
  8
gg1
 10
1.350000
 20
-0.081000
  0
VERTEX
  8
gg1
 10
1.350000
 20
-0.027500
  0
SEQEND
  8
gg1
  0
POLYLINE
  8
gg1
 62
1
 40
0.000000
 41
0.000000
 66
  1
  0
VERTEX
  8
gg1
 10
0.000000
 20
-0.081000
  0
VERTEX
  8
gg1
 10
0.000000
 20
-0.027500
  0
SEQEND
  8
gg1
  0
POLYLINE
  8
gg1
 62
1
 40
0.000000
 41
0.000000
 66
  1
  0
VERTEX
  8
gg1
 10
0.854900
 20
-0.071000
  0
VERTEX
  8
gg1
 10
1.350000
 20
-0.071000
  0
SEQEND
  8
gg1
  0
POLYLINE
  8
gg1
 62
1
 40
0.000000
 41
0.000000
 66
  1
  0
VERTEX
  8
gg1
 10
0.000000
 20
-0.071000
  0
VERTEX
  8
gg1
 10
0.463100
 20
-0.071000
  0
SEQEND
  8
gg1
  0
POLYLINE
  8
gg1
 62
1
 40
0.000000
 41
0.000000
 66
  1
  0
VERTEX
  8
gg1
 10
1.290000
 20
-0.051000
  0
VERTEX
  8
gg1
 10
1.350000
 20
-0.071000
  0
SEQEND
  8
gg1
  0
POLYLINE
  8
gg1
 62
1
 40
0.000000
 41
0.000000
 66
  1
  0
VERTEX
  8
gg1
 10
1.290000
 20
-0.091000
  0
VERTEX
  8
gg1
 10
1.350000
 20
-0.071000
  0
SEQEND
  8
gg1
  0
POLYLINE
  8
gg1
 62
1
 40
0.000000
 41
0.000000
 66
  1
  0
VERTEX
  8
gg1
 10
0.000000
 20
-0.071000
  0
VERTEX
  8
gg1
 10
0.060000
 20
-0.091000
  0
SEQEND
  8
gg1
  0
POLYLINE
  8
gg1
 62
1
 40
0.000000
 41
0.000000
 66
  1
  0
VERTEX
  8
gg1
 10
0.000000
 20
-0.071000
  0
VERTEX
  8
gg1
 10
0.060000
 20
-0.051000
  0
SEQEND
  8
gg1
  0
POLYLINE
  8
gg1
 62
1
 40
0.000000
 41
0.000000
 66
  1
  0
VERTEX
  8
gg1
 10
-0.110000
 20
0.000000
  0
VERTEX
  8
gg1
 10
-0.027500
 20
0.000000
  0
SEQEND
  8
gg1
  0
POLYLINE
  8
gg1
 62
1
 40
0.000000
 41
0.000000
 66
  1
  0
VERTEX
  8
gg1
 10
-0.110000
 20
0.600000
  0
VERTEX
  8
gg1
 10
-0.027500
 20
0.600000
  0
SEQEND
  8
gg1
  0
POLYLINE
  8
gg1
 62
1
 40
0.000000
 41
0.000000
 66
  1
  0
VERTEX
  8
gg1
 10
-0.100000
 20
0.000000
  0
VERTEX
  8
gg1
 10
-0.100000
 20
0.113000
  0
SEQEND
  8
gg1
  0
POLYLINE
  8
gg1
 62
1
 40
0.000000
 41
0.000000
 66
  1
  0
VERTEX
  8
gg1
 10
-0.100000
 20
0.455000
  0
VERTEX
  8
gg1
 10
-0.100000
 20
0.600000
  0
SEQEND
  8
gg1
  0
POLYLINE
  8
gg1
 62
1
 40
0.000000
 41
0.000000
 66
  1
  0
VERTEX
  8
gg1
 10
-0.100000
 20
0.000000
  0
VERTEX
  8
gg1
 10
-0.080000
 20
0.060000
  0
SEQEND
  8
gg1
  0
POLYLINE
  8
gg1
 62
1
 40
0.000000
 41
0.000000
 66
  1
  0
VERTEX
  8
gg1
 10
-0.120000
 20
0.060000
  0
VERTEX
  8
gg1
 10
-0.100000
 20
0.000000
  0
SEQEND
  8
gg1
  0
POLYLINE
  8
gg1
 62
1
 40
0.000000
 41
0.000000
 66
  1
  0
VERTEX
  8
gg1
 10
-0.120000
 20
0.540000
  0
VERTEX
  8
gg1
 10
-0.100000
 20
0.600000
  0
VERTEX
  8
gg1
 10
-0.080000
 20
0.540000
  0
SEQEND
  8
gg1
  0
POLYLINE
  8
gg1
 62
1
 40
0.000000
 41
0.000000
 66
  1
  0
VERTEX
  8
gg1
 10
0.000000
 20
0.000000
  0
VERTEX
  8
gg1
 10
1.350000
 20
0.000000
  0
VERTEX
  8
gg1
 10
1.350000
 20
0.600000
  0
SEQEND
  8
gg1
  0
POLYLINE
  8
gg1
 62
1
 40
0.000000
 41
0.000000
 66
  1
  0
VERTEX
  8
gg1
 10
0.000000
 20
0.600000
  0
VERTEX
  8
gg1
 10
1.350000
 20
0.600000
  0
SEQEND
  8
gg1
  0
POLYLINE
  8
gg1
 62
1
 40
0.000000
 41
0.000000
 66
  1
  0
VERTEX
  8
gg1
 10
0.000000
 20
0.000000
  0
VERTEX
  8
gg1
 10
0.000000
 20
0.600000
  0
SEQEND
  8
gg1
  0
POLYLINE
  8
gg1
 62
1
 40
0.000000
 41
0.000000
 66
  1
  0
VERTEX
  8
gg1
 10
0.479100
 20
-0.107000
  0
VERTEX
  8
gg1
 10
0.499100
 20
-0.107000
  0
VERTEX
  8
gg1
 10
0.489100
 20
-0.107000
  0
VERTEX
  8
gg1
 10
0.489100
 20
-0.047000
  0
VERTEX
  8
gg1
 10
0.479100
 20
-0.057000
  0
SEQEND
  8
gg1
  0
POLYLINE
  8
gg1
 62
1
 40
0.000000
 41
0.000000
 66
  1
  0
VERTEX
  8
gg1
 10
0.529000
 20
-0.057000
  0
VERTEX
  8
gg1
 10
0.539000
 20
-0.047000
  0
VERTEX
  8
gg1
 10
0.559000
 20
-0.047000
  0
VERTEX
  8
gg1
 10
0.569000
 20
-0.057000
  0
VERTEX
  8
gg1
 10
0.569000
 20
-0.067000
  0
VERTEX
  8
gg1
 10
0.559000
 20
-0.077000
  0
VERTEX
  8
gg1
 10
0.549000
 20
-0.077000
  0
VERTEX
  8
gg1
 10
0.559000
 20
-0.077000
  0
VERTEX
  8
gg1
 10
0.569000
 20
-0.087000
  0
VERTEX
  8
gg1
 10
0.569000
 20
-0.097000
  0
VERTEX
  8
gg1
 10
0.559000
 20
-0.107000
  0
VERTEX
  8
gg1
 10
0.539000
 20
-0.107000
  0
VERTEX
  8
gg1
 10
0.529000
 20
-0.097000
  0
SEQEND
  8
gg1
  0
POLYLINE
  8
gg1
 62
1
 40
0.000000
 41
0.000000
 66
  1
  0
VERTEX
  8
gg1
 10
0.629000
 20
-0.047000
  0
VERTEX
  8
gg1
 10
0.589000
 20
-0.047000
  0
VERTEX
  8
gg1
 10
0.589000
 20
-0.077000
  0
VERTEX
  8
gg1
 10
0.609000
 20
-0.067000
  0
VERTEX
  8
gg1
 10
0.619000
 20
-0.067000
  0
VERTEX
  8
gg1
 10
0.629000
 20
-0.077000
  0
VERTEX
  8
gg1
 10
0.629000
 20
-0.097000
  0
VERTEX
  8
gg1
 10
0.619000
 20
-0.107000
  0
VERTEX
  8
gg1
 10
0.599000
 20
-0.107000
  0
VERTEX
  8
gg1
 10
0.589000
 20
-0.097000
  0
SEQEND
  8
gg1
  0
POLYLINE
  8
gg1
 62
1
 40
0.000000
 41
0.000000
 66
  1
  0
VERTEX
  8
gg1
 10
0.649000
 20
-0.057000
  0
VERTEX
  8
gg1
 10
0.659000
 20
-0.047000
  0
VERTEX
  8
gg1
 10
0.679000
 20
-0.047000
  0
VERTEX
  8
gg1
 10
0.689000
 20
-0.057000
  0
VERTEX
  8
gg1
 10
0.689000
 20
-0.097000
  0
VERTEX
  8
gg1
 10
0.679000
 20
-0.107000
  0
VERTEX
  8
gg1
 10
0.659000
 20
-0.107000
  0
VERTEX
  8
gg1
 10
0.649000
 20
-0.097000
  0
VERTEX
  8
gg1
 10
0.649000
 20
-0.057000
  0
SEQEND
  8
gg1
  0
POLYLINE
  8
gg1
 62
1
 40
0.000000
 41
0.000000
 66
  1
  0
VERTEX
  8
gg1
 10
0.709000
 20
-0.107000
  0
VERTEX
  8
gg1
 10
0.709000
 20
-0.067000
  0
VERTEX
  8
gg1
 10
0.719000
 20
-0.067000
  0
VERTEX
  8
gg1
 10
0.729000
 20
-0.077000
  0
VERTEX
  8
gg1
 10
0.729000
 20
-0.107000
  0
VERTEX
  8
gg1
 10
0.729000
 20
-0.077000
  0
VERTEX
  8
gg1
 10
0.739000
 20
-0.067000
  0
VERTEX
  8
gg1
 10
0.749000
 20
-0.077000
  0
VERTEX
  8
gg1
 10
0.749000
 20
-0.107000
  0
SEQEND
  8
gg1
  0
POLYLINE
  8
gg1
 62
1
 40
0.000000
 41
0.000000
 66
  1
  0
VERTEX
  8
gg1
 10
0.769000
 20
-0.107000
  0
VERTEX
  8
gg1
 10
0.789000
 20
-0.107000
  0
VERTEX
  8
gg1
 10
0.779000
 20
-0.107000
  0
VERTEX
  8
gg1
 10
0.779000
 20
-0.067000
  0
VERTEX
  8
gg1
 10
0.769000
 20
-0.067000
  0
SEQEND
  8
gg1
  0
POLYLINE
  8
gg1
 62
1
 40
0.000000
 41
0.000000
 66
  1
  0
VERTEX
  8
gg1
 10
0.818900
 20
-0.107000
  0
VERTEX
  8
gg1
 10
0.838900
 20
-0.107000
  0
VERTEX
  8
gg1
 10
0.828900
 20
-0.107000
  0
VERTEX
  8
gg1
 10
0.828900
 20
-0.047000
  0
VERTEX
  8
gg1
 10
0.818900
 20
-0.047000
  0
SEQEND
  8
gg1
  0
POLYLINE
  8
gg1
 62
1
 40
0.000000
 41
0.000000
 66
  1
  0
VERTEX
  8
gg1
 10
-0.124000
 20
0.169000
  0
VERTEX
  8
gg1
 10
-0.114000
 20
0.149000
  0
VERTEX
  8
gg1
 10
-0.094000
 20
0.129100
  0
VERTEX
  8
gg1
 10
-0.074000
 20
0.129100
  0
VERTEX
  8
gg1
 10
-0.064000
 20
0.139000
  0
VERTEX
  8
gg1
 10
-0.064000
 20
0.159000
  0
VERTEX
  8
gg1
 10
-0.074000
 20
0.169000
  0
VERTEX
  8
gg1
 10
-0.084000
 20
0.169000
  0
VERTEX
  8
gg1
 10
-0.094000
 20
0.159000
  0
VERTEX
  8
gg1
 10
-0.094000
 20
0.129100
  0
SEQEND
  8
gg1
  0
POLYLINE
  8
gg1
 62
1
 40
0.000000
 41
0.000000
 66
  1
  0
VERTEX
  8
gg1
 10
-0.114000
 20
0.189000
  0
VERTEX
  8
gg1
 10
-0.124000
 20
0.199000
  0
VERTEX
  8
gg1
 10
-0.124000
 20
0.219000
  0
VERTEX
  8
gg1
 10
-0.114000
 20
0.229000
  0
VERTEX
  8
gg1
 10
-0.074000
 20
0.229000
  0
VERTEX
  8
gg1
 10
-0.064000
 20
0.219000
  0
VERTEX
  8
gg1
 10
-0.064000
 20
0.199000
  0
VERTEX
  8
gg1
 10
-0.074000
 20
0.189000
  0
VERTEX
  8
gg1
 10
-0.114000
 20
0.189000
  0
SEQEND
  8
gg1
  0
POLYLINE
  8
gg1
 62
1
 40
0.000000
 41
0.000000
 66
  1
  0
VERTEX
  8
gg1
 10
-0.114000
 20
0.249000
  0
VERTEX
  8
gg1
 10
-0.124000
 20
0.259000
  0
VERTEX
  8
gg1
 10
-0.124000
 20
0.279000
  0
VERTEX
  8
gg1
 10
-0.114000
 20
0.289000
  0
VERTEX
  8
gg1
 10
-0.074000
 20
0.289000
  0
VERTEX
  8
gg1
 10
-0.064000
 20
0.279000
  0
VERTEX
  8
gg1
 10
-0.064000
 20
0.259000
  0
VERTEX
  8
gg1
 10
-0.074000
 20
0.249000
  0
VERTEX
  8
gg1
 10
-0.114000
 20
0.249000
  0
SEQEND
  8
gg1
  0
POLYLINE
  8
gg1
 62
1
 40
0.000000
 41
0.000000
 66
  1
  0
VERTEX
  8
gg1
 10
-0.064000
 20
0.309000
  0
VERTEX
  8
gg1
 10
-0.104000
 20
0.309000
  0
VERTEX
  8
gg1
 10
-0.104000
 20
0.319000
  0
VERTEX
  8
gg1
 10
-0.094000
 20
0.329000
  0
VERTEX
  8
gg1
 10
-0.064000
 20
0.329000
  0
VERTEX
  8
gg1
 10
-0.094000
 20
0.329000
  0
VERTEX
  8
gg1
 10
-0.104000
 20
0.339000
  0
VERTEX
  8
gg1
 10
-0.094000
 20
0.349000
  0
VERTEX
  8
gg1
 10
-0.064000
 20
0.349000
  0
SEQEND
  8
gg1
  0
POLYLINE
  8
gg1
 62
1
 40
0.000000
 41
0.000000
 66
  1
  0
VERTEX
  8
gg1
 10
-0.064000
 20
0.369000
  0
VERTEX
  8
gg1
 10
-0.064000
 20
0.389000
  0
VERTEX
  8
gg1
 10
-0.064000
 20
0.379000
  0
VERTEX
  8
gg1
 10
-0.104000
 20
0.379000
  0
VERTEX
  8
gg1
 10
-0.104000
 20
0.369000
  0
SEQEND
  8
gg1
  0
POLYLINE
  8
gg1
 62
1
 40
0.000000
 41
0.000000
 66
  1
  0
VERTEX
  8
gg1
 10
-0.064000
 20
0.419000
  0
VERTEX
  8
gg1
 10
-0.064000
 20
0.439000
  0
VERTEX
  8
gg1
 10
-0.064000
 20
0.429000
  0
VERTEX
  8
gg1
 10
-0.124000
 20
0.429000
  0
VERTEX
  8
gg1
 10
-0.124000
 20
0.419000
  0
SEQEND
  8
gg1
  0
POLYLINE
  8
gg1
 62
1
 40
0.000000
 41
0.000000
 66
  1
  0
VERTEX
  8
gg1
 10
0.042900
 20
0.162200
  0
VERTEX
  8
gg1
 10
0.064500
 20
0.162200
  0
SEQEND
  8
gg1
  0
POLYLINE
  8
gg1
 62
1
 40
0.000000
 41
0.000000
 66
  1
  0
VERTEX
  8
gg1
 10
0.053700
 20
0.151400
  0
VERTEX
  8
gg1
 10
0.053700
 20
0.173000
  0
SEQEND
  8
gg1
  0
POLYLINE
  8
gg1
 62
1
 40
0.000000
 41
0.000000
 66
  1
  0
VERTEX
  8
gg1
 10
0.149200
 20
0.398400
  0
VERTEX
  8
gg1
 10
0.170800
 20
0.398400
  0
SEQEND
  8
gg1
  0
POLYLINE
  8
gg1
 62
1
 40
0.000000
 41
0.000000
 66
  1
  0
VERTEX
  8
gg1
 10
0.160000
 20
0.387600
  0
VERTEX
  8
gg1
 10
0.160000
 20
0.409300
  0
SEQEND
  8
gg1
  0
POLYLINE
  8
gg1
 62
1
 40
0.000000
 41
0.000000
 66
  1
  0
VERTEX
  8
gg1
 10
0.042900
 20
0.437800
  0
VERTEX
  8
gg1
 10
0.064500
 20
0.437800
  0
SEQEND
  8
gg1
  0
POLYLINE
  8
gg1
 62
1
 40
0.000000
 41
0.000000
 66
  1
  0
VERTEX
  8
gg1
 10
0.053700
 20
0.427000
  0
VERTEX
  8
gg1
 10
0.053700
 20
0.448600
  0
SEQEND
  8
gg1
  0
POLYLINE
  8
gg1
 62
1
 40
0.000000
 41
0.000000
 66
  1
  0
VERTEX
  8
gg1
 10
0.149200
 20
0.201600
  0
VERTEX
  8
gg1
 10
0.170800
 20
0.201600
  0
SEQEND
  8
gg1
  0
POLYLINE
  8
gg1
 62
1
 40
0.000000
 41
0.000000
 66
  1
  0
VERTEX
  8
gg1
 10
0.160000
 20
0.190700
  0
VERTEX
  8
gg1
 10
0.160000
 20
0.212400
  0
SEQEND
  8
gg1
  0
POLYLINE
  8
gg1
 62
1
 40
0.000000
 41
0.000000
 66
  1
  0
VERTEX
  8
gg1
 10
0.589000
 20
0.180000
  0
VERTEX
  8
gg1
 10
0.609000
 20
0.180000
  0
SEQEND
  8
gg1
  0
POLYLINE
  8
gg1
 62
1
 40
0.000000
 41
0.000000
 66
  1
  0
VERTEX
  8
gg1
 10
0.599000
 20
0.170000
  0
VERTEX
  8
gg1
 10
0.599000
 20
0.190000
  0
SEQEND
  8
gg1
  0
POLYLINE
  8
gg1
 62
1
 40
0.000000
 41
0.000000
 66
  1
  0
VERTEX
  8
gg1
 10
0.558000
 20
0.323000
  0
VERTEX
  8
gg1
 10
0.578000
 20
0.323000
  0
SEQEND
  8
gg1
  0
POLYLINE
  8
gg1
 62
1
 40
0.000000
 41
0.000000
 66
  1
  0
VERTEX
  8
gg1
 10
0.568000
 20
0.313000
  0
VERTEX
  8
gg1
 10
0.568000
 20
0.333000
  0
SEQEND
  8
gg1
  0
POLYLINE
  8
gg1
 62
1
 40
0.000000
 41
0.000000
 66
  1
  0
VERTEX
  8
gg1
 10
1.280000
 20
0.450000
  0
VERTEX
  8
gg1
 10
1.320000
 20
0.450000
  0
SEQEND
  8
gg1
  0
POLYLINE
  8
gg1
 62
1
 40
0.000000
 41
0.000000
 66
  1
  0
VERTEX
  8
gg1
 10
1.300000
 20
0.430000
  0
VERTEX
  8
gg1
 10
1.300000
 20
0.470000
  0
SEQEND
  8
gg1
  0
POLYLINE
  8
gg1
 62
1
 40
0.000000
 41
0.000000
 66
  1
  0
VERTEX
  8
gg1
 10
1.280000
 20
0.350000
  0
VERTEX
  8
gg1
 10
1.320000
 20
0.350000
  0
SEQEND
  8
gg1
  0
POLYLINE
  8
gg1
 62
1
 40
0.000000
 41
0.000000
 66
  1
  0
VERTEX
  8
gg1
 10
1.300000
 20
0.330000
  0
VERTEX
  8
gg1
 10
1.300000
 20
0.370000
  0
SEQEND
  8
gg1
  0
POLYLINE
  8
gg1
 62
1
 40
0.000000
 41
0.000000
 66
  1
  0
VERTEX
  8
gg1
 10
1.280000
 20
0.250000
  0
VERTEX
  8
gg1
 10
1.320000
 20
0.250000
  0
SEQEND
  8
gg1
  0
POLYLINE
  8
gg1
 62
1
 40
0.000000
 41
0.000000
 66
  1
  0
VERTEX
  8
gg1
 10
1.300000
 20
0.230000
  0
VERTEX
  8
gg1
 10
1.300000
 20
0.270000
  0
SEQEND
  8
gg1
  0
POLYLINE
  8
gg1
 62
1
 40
0.000000
 41
0.000000
 66
  1
  0
VERTEX
  8
gg1
 10
1.280000
 20
0.150000
  0
VERTEX
  8
gg1
 10
1.320000
 20
0.150000
  0
SEQEND
  8
gg1
  0
POLYLINE
  8
gg1
 62
1
 40
0.000000
 41
0.000000
 66
  1
  0
VERTEX
  8
gg1
 10
1.300000
 20
0.130000
  0
VERTEX
  8
gg1
 10
1.300000
 20
0.170000
  0
SEQEND
  8
gg1
  0
POLYLINE
  8
gg1
 62
1
 40
0.000000
 41
0.000000
 66
  1
  0
VERTEX
  8
gg1
 10
1.280000
 20
0.050000
  0
VERTEX
  8
gg1
 10
1.320000
 20
0.050000
  0
SEQEND
  8
gg1
  0
POLYLINE
  8
gg1
 62
1
 40
0.000000
 41
0.000000
 66
  1
  0
VERTEX
  8
gg1
 10
1.300000
 20
0.030000
  0
VERTEX
  8
gg1
 10
1.300000
 20
0.070000
  0
SEQEND
  8
gg1
  0
POLYLINE
  8
gg1
 62
1
 40
0.000000
 41
0.000000
 66
  1
  0
VERTEX
  8
gg1
 10
1.280000
 20
0.550000
  0
VERTEX
  8
gg1
 10
1.320000
 20
0.550000
  0
SEQEND
  8
gg1
  0
POLYLINE
  8
gg1
 62
1
 40
0.000000
 41
0.000000
 66
  1
  0
VERTEX
  8
gg1
 10
1.300000
 20
0.530000
  0
VERTEX
  8
gg1
 10
1.300000
 20
0.570000
  0
SEQEND
  8
gg1
  0
POLYLINE
  8
gg1
 62
1
 40
0.000000
 41
0.000000
 66
  1
  0
VERTEX
  8
gg1
 10
1.005000
 20
0.400000
  0
VERTEX
  8
gg1
 10
1.045000
 20
0.400000
  0
SEQEND
  8
gg1
  0
POLYLINE
  8
gg1
 62
1
 40
0.000000
 41
0.000000
 66
  1
  0
VERTEX
  8
gg1
 10
1.025000
 20
0.380000
  0
VERTEX
  8
gg1
 10
1.025000
 20
0.420000
  0
SEQEND
  8
gg1
  0
POLYLINE
  8
gg1
 62
1
 40
0.000000
 41
0.000000
 66
  1
  0
VERTEX
  8
gg1
 10
1.105000
 20
0.400000
  0
VERTEX
  8
gg1
 10
1.145000
 20
0.400000
  0
SEQEND
  8
gg1
  0
POLYLINE
  8
gg1
 62
1
 40
0.000000
 41
0.000000
 66
  1
  0
VERTEX
  8
gg1
 10
1.125000
 20
0.380000
  0
VERTEX
  8
gg1
 10
1.125000
 20
0.420000
  0
SEQEND
  8
gg1
  0
POLYLINE
  8
gg1
 62
1
 40
0.000000
 41
0.000000
 66
  1
  0
VERTEX
  8
gg1
 10
1.005000
 20
0.300000
  0
VERTEX
  8
gg1
 10
1.045000
 20
0.300000
  0
SEQEND
  8
gg1
  0
POLYLINE
  8
gg1
 62
1
 40
0.000000
 41
0.000000
 66
  1
  0
VERTEX
  8
gg1
 10
1.025000
 20
0.280000
  0
VERTEX
  8
gg1
 10
1.025000
 20
0.320000
  0
SEQEND
  8
gg1
  0
POLYLINE
  8
gg1
 62
1
 40
0.000000
 41
0.000000
 66
  1
  0
VERTEX
  8
gg1
 10
1.105000
 20
0.200000
  0
VERTEX
  8
gg1
 10
1.145000
 20
0.200000
  0
SEQEND
  8
gg1
  0
POLYLINE
  8
gg1
 62
1
 40
0.000000
 41
0.000000
 66
  1
  0
VERTEX
  8
gg1
 10
1.125000
 20
0.180000
  0
VERTEX
  8
gg1
 10
1.125000
 20
0.220000
  0
SEQEND
  8
gg1
  0
POLYLINE
  8
gg1
 62
1
 40
0.000000
 41
0.000000
 66
  1
  0
VERTEX
  8
gg1
 10
1.005000
 20
0.200000
  0
VERTEX
  8
gg1
 10
1.045000
 20
0.200000
  0
SEQEND
  8
gg1
  0
POLYLINE
  8
gg1
 62
1
 40
0.000000
 41
0.000000
 66
  1
  0
VERTEX
  8
gg1
 10
1.025000
 20
0.180000
  0
VERTEX
  8
gg1
 10
1.025000
 20
0.220000
  0
SEQEND
  8
gg1
  0
POLYLINE
  8
gg1
 62
1
 40
0.000000
 41
0.000000
 66
  1
  0
VERTEX
  8
gg1
 10
1.105000
 20
0.300000
  0
VERTEX
  8
gg1
 10
1.145000
 20
0.300000
  0
SEQEND
  8
gg1
  0
POLYLINE
  8
gg1
 62
1
 40
0.000000
 41
0.000000
 66
  1
  0
VERTEX
  8
gg1
 10
1.125000
 20
0.280000
  0
VERTEX
  8
gg1
 10
1.125000
 20
0.320000
  0
SEQEND
  8
gg1
  0
POLYLINE
  8
gg1
 62
1
 40
0.000000
 41
0.000000
 66
  1
  0
VERTEX
  8
gg1
 10
0.150000
 20
0.043000
  0
VERTEX
  8
gg1
 10
0.170000
 20
0.043000
  0
SEQEND
  8
gg1
  0
POLYLINE
  8
gg1
 62
1
 40
0.000000
 41
0.000000
 66
  1
  0
VERTEX
  8
gg1
 10
0.160000
 20
0.033000
  0
VERTEX
  8
gg1
 10
0.160000
 20
0.053000
  0
SEQEND
  8
gg1
  0
POLYLINE
  8
gg1
 62
1
 40
0.000000
 41
0.000000
 66
  1
  0
VERTEX
  8
gg1
 10
0.920000
 20
0.125000
  0
VERTEX
  8
gg1
 10
0.940000
 20
0.125000
  0
SEQEND
  8
gg1
  0
POLYLINE
  8
gg1
 62
1
 40
0.000000
 41
0.000000
 66
  1
  0
VERTEX
  8
gg1
 10
0.930000
 20
0.115000
  0
VERTEX
  8
gg1
 10
0.930000
 20
0.135000
  0
SEQEND
  8
gg1
  0
POLYLINE
  8
gg1
 62
1
 40
0.000000
 41
0.000000
 66
  1
  0
VERTEX
  8
gg1
 10
0.030000
 20
0.550000
  0
VERTEX
  8
gg1
 10
0.070000
 20
0.550000
  0
SEQEND
  8
gg1
  0
POLYLINE
  8
gg1
 62
1
 40
0.000000
 41
0.000000
 66
  1
  0
VERTEX
  8
gg1
 10
0.050000
 20
0.530000
  0
VERTEX
  8
gg1
 10
0.050000
 20
0.570000
  0
SEQEND
  8
gg1
  0
POLYLINE
  8
gg1
 62
1
 40
0.000000
 41
0.000000
 66
  1
  0
VERTEX
  8
gg1
 10
0.742500
 20
0.475000
  0
VERTEX
  8
gg1
 10
0.757500
 20
0.475000
  0
SEQEND
  8
gg1
  0
POLYLINE
  8
gg1
 62
1
 40
0.000000
 41
0.000000
 66
  1
  0
VERTEX
  8
gg1
 10
0.750000
 20
0.467500
  0
VERTEX
  8
gg1
 10
0.750000
 20
0.482500
  0
SEQEND
  8
gg1
  0
POLYLINE
  8
gg1
 62
1
 40
0.000000
 41
0.000000
 66
  1
  0
VERTEX
  8
gg1
 10
0.582500
 20
0.560000
  0
VERTEX
  8
gg1
 10
0.597500
 20
0.560000
  0
SEQEND
  8
gg1
  0
POLYLINE
  8
gg1
 62
1
 40
0.000000
 41
0.000000
 66
  1
  0
VERTEX
  8
gg1
 10
0.590000
 20
0.552500
  0
VERTEX
  8
gg1
 10
0.590000
 20
0.567500
  0
SEQEND
  8
gg1
  0
POLYLINE
  8
gg1
 62
1
 40
0.000000
 41
0.000000
 66
  1
  0
VERTEX
  8
gg1
 10
0.602500
 20
0.320000
  0
VERTEX
  8
gg1
 10
0.617500
 20
0.320000
  0
SEQEND
  8
gg1
  0
POLYLINE
  8
gg1
 62
1
 40
0.000000
 41
0.000000
 66
  1
  0
VERTEX
  8
gg1
 10
0.610000
 20
0.312500
  0
VERTEX
  8
gg1
 10
0.610000
 20
0.327500
  0
SEQEND
  8
gg1
  0
POLYLINE
  8
gg1
 62
1
 40
0.000000
 41
0.000000
 66
  1
  0
VERTEX
  8
gg1
 10
0.631500
 20
0.196000
  0
VERTEX
  8
gg1
 10
0.646500
 20
0.196000
  0
SEQEND
  8
gg1
  0
POLYLINE
  8
gg1
 62
1
 40
0.000000
 41
0.000000
 66
  1
  0
VERTEX
  8
gg1
 10
0.639000
 20
0.188500
  0
VERTEX
  8
gg1
 10
0.639000
 20
0.203500
  0
SEQEND
  8
gg1
  0
POLYLINE
  8
gg1
 62
1
 40
0.000000
 41
0.000000
 66
  1
  0
VERTEX
  8
gg1
 10
0.750500
 20
0.150000
  0
VERTEX
  8
gg1
 10
0.765500
 20
0.150000
  0
SEQEND
  8
gg1
  0
POLYLINE
  8
gg1
 62
1
 40
0.000000
 41
0.000000
 66
  1
  0
VERTEX
  8
gg1
 10
0.758000
 20
0.142500
  0
VERTEX
  8
gg1
 10
0.758000
 20
0.157500
  0
SEQEND
  8
gg1
  0
POLYLINE
  8
gg1
 62
1
 40
0.000000
 41
0.000000
 66
  1
  0
VERTEX
  8
gg1
 10
0.550500
 20
0.193000
  0
VERTEX
  8
gg1
 10
0.565500
 20
0.193000
  0
SEQEND
  8
gg1
  0
POLYLINE
  8
gg1
 62
1
 40
0.000000
 41
0.000000
 66
  1
  0
VERTEX
  8
gg1
 10
0.558000
 20
0.185500
  0
VERTEX
  8
gg1
 10
0.558000
 20
0.200500
  0
SEQEND
  8
gg1
  0
POLYLINE
  8
gg1
 62
1
 40
0.000000
 41
0.000000
 66
  1
  0
VERTEX
  8
gg1
 10
0.747500
 20
0.222000
  0
VERTEX
  8
gg1
 10
0.762500
 20
0.222000
  0
SEQEND
  8
gg1
  0
POLYLINE
  8
gg1
 62
1
 40
0.000000
 41
0.000000
 66
  1
  0
VERTEX
  8
gg1
 10
0.755000
 20
0.214500
  0
VERTEX
  8
gg1
 10
0.755000
 20
0.229500
  0
SEQEND
  8
gg1
  0
POLYLINE
  8
gg1
 62
1
 40
0.000000
 41
0.000000
 66
  1
  0
VERTEX
  8
gg1
 10
0.747500
 20
0.283000
  0
VERTEX
  8
gg1
 10
0.762500
 20
0.283000
  0
SEQEND
  8
gg1
  0
POLYLINE
  8
gg1
 62
1
 40
0.000000
 41
0.000000
 66
  1
  0
VERTEX
  8
gg1
 10
0.755000
 20
0.275500
  0
VERTEX
  8
gg1
 10
0.755000
 20
0.290500
  0
SEQEND
  8
gg1
  0
POLYLINE
  8
gg1
 62
1
 40
0.000000
 41
0.000000
 66
  1
  0
VERTEX
  8
gg1
 10
0.518500
 20
0.170000
  0
VERTEX
  8
gg1
 10
0.533500
 20
0.170000
  0
SEQEND
  8
gg1
  0
POLYLINE
  8
gg1
 62
1
 40
0.000000
 41
0.000000
 66
  1
  0
VERTEX
  8
gg1
 10
0.526000
 20
0.162500
  0
VERTEX
  8
gg1
 10
0.526000
 20
0.177500
  0
SEQEND
  8
gg1
  0
POLYLINE
  8
gg1
 62
1
 40
0.000000
 41
0.000000
 66
  1
  0
VERTEX
  8
gg1
 10
0.475500
 20
0.129000
  0
VERTEX
  8
gg1
 10
0.490500
 20
0.129000
  0
SEQEND
  8
gg1
  0
POLYLINE
  8
gg1
 62
1
 40
0.000000
 41
0.000000
 66
  1
  0
VERTEX
  8
gg1
 10
0.483000
 20
0.121500
  0
VERTEX
  8
gg1
 10
0.483000
 20
0.136500
  0
SEQEND
  8
gg1
  0
POLYLINE
  8
gg1
 62
1
 40
0.000000
 41
0.000000
 66
  1
  0
VERTEX
  8
gg1
 10
0.437500
 20
0.120000
  0
VERTEX
  8
gg1
 10
0.452500
 20
0.120000
  0
SEQEND
  8
gg1
  0
POLYLINE
  8
gg1
 62
1
 40
0.000000
 41
0.000000
 66
  1
  0
VERTEX
  8
gg1
 10
0.445000
 20
0.112500
  0
VERTEX
  8
gg1
 10
0.445000
 20
0.127500
  0
SEQEND
  8
gg1
  0
POLYLINE
  8
gg1
 62
1
 40
0.000000
 41
0.000000
 66
  1
  0
VERTEX
  8
gg1
 10
0.737500
 20
0.370800
  0
VERTEX
  8
gg1
 10
0.752500
 20
0.370800
  0
SEQEND
  8
gg1
  0
POLYLINE
  8
gg1
 62
1
 40
0.000000
 41
0.000000
 66
  1
  0
VERTEX
  8
gg1
 10
0.745000
 20
0.363300
  0
VERTEX
  8
gg1
 10
0.745000
 20
0.378300
  0
SEQEND
  8
gg1
  0
POLYLINE
  8
gg1
 62
1
 40
0.000000
 41
0.000000
 66
  1
  0
VERTEX
  8
gg1
 10
0.687500
 20
0.455000
  0
VERTEX
  8
gg1
 10
0.702500
 20
0.455000
  0
SEQEND
  8
gg1
  0
POLYLINE
  8
gg1
 62
1
 40
0.000000
 41
0.000000
 66
  1
  0
VERTEX
  8
gg1
 10
0.695000
 20
0.447500
  0
VERTEX
  8
gg1
 10
0.695000
 20
0.462500
  0
SEQEND
  8
gg1
  0
POLYLINE
  8
gg1
 62
1
 40
0.000000
 41
0.000000
 66
  1
  0
VERTEX
  8
gg1
 10
0.497500
 20
0.403000
  0
VERTEX
  8
gg1
 10
0.512500
 20
0.403000
  0
SEQEND
  8
gg1
  0
POLYLINE
  8
gg1
 62
1
 40
0.000000
 41
0.000000
 66
  1
  0
VERTEX
  8
gg1
 10
0.505000
 20
0.395500
  0
VERTEX
  8
gg1
 10
0.505000
 20
0.410500
  0
SEQEND
  8
gg1
  0
POLYLINE
  8
gg1
 62
1
 40
0.000000
 41
0.000000
 66
  1
  0
VERTEX
  8
gg1
 10
0.697800
 20
0.375800
  0
VERTEX
  8
gg1
 10
0.712800
 20
0.375800
  0
SEQEND
  8
gg1
  0
POLYLINE
  8
gg1
 62
1
 40
0.000000
 41
0.000000
 66
  1
  0
VERTEX
  8
gg1
 10
0.705300
 20
0.368300
  0
VERTEX
  8
gg1
 10
0.705300
 20
0.383300
  0
SEQEND
  8
gg1
  0
POLYLINE
  8
gg1
 62
1
 40
0.000000
 41
0.000000
 66
  1
  0
VERTEX
  8
gg1
 10
0.238500
 20
0.112500
  0
VERTEX
  8
gg1
 10
0.253500
 20
0.112500
  0
SEQEND
  8
gg1
  0
POLYLINE
  8
gg1
 62
1
 40
0.000000
 41
0.000000
 66
  1
  0
VERTEX
  8
gg1
 10
0.246000
 20
0.105000
  0
VERTEX
  8
gg1
 10
0.246000
 20
0.120000
  0
SEQEND
  8
gg1
  0
POLYLINE
  8
gg1
 62
1
 40
0.000000
 41
0.000000
 66
  1
  0
VERTEX
  8
gg1
 10
0.227500
 20
0.454000
  0
VERTEX
  8
gg1
 10
0.242500
 20
0.454000
  0
SEQEND
  8
gg1
  0
POLYLINE
  8
gg1
 62
1
 40
0.000000
 41
0.000000
 66
  1
  0
VERTEX
  8
gg1
 10
0.235000
 20
0.446500
  0
VERTEX
  8
gg1
 10
0.235000
 20
0.461500
  0
SEQEND
  8
gg1
  0
POLYLINE
  8
gg1
 62
1
 40
0.000000
 41
0.000000
 66
  1
  0
VERTEX
  8
gg1
 10
1.167500
 20
0.250000
  0
VERTEX
  8
gg1
 10
1.182500
 20
0.250000
  0
SEQEND
  8
gg1
  0
POLYLINE
  8
gg1
 62
1
 40
0.000000
 41
0.000000
 66
  1
  0
VERTEX
  8
gg1
 10
1.175000
 20
0.242500
  0
VERTEX
  8
gg1
 10
1.175000
 20
0.257500
  0
SEQEND
  8
gg1
  0
POLYLINE
  8
gg1
 62
1
 40
0.000000
 41
0.000000
 66
  1
  0
VERTEX
  8
gg1
 10
0.377500
 20
0.065000
  0
VERTEX
  8
gg1
 10
0.392500
 20
0.065000
  0
SEQEND
  8
gg1
  0
POLYLINE
  8
gg1
 62
1
 40
0.000000
 41
0.000000
 66
  1
  0
VERTEX
  8
gg1
 10
0.385000
 20
0.057500
  0
VERTEX
  8
gg1
 10
0.385000
 20
0.072500
  0
SEQEND
  8
gg1
  0
POLYLINE
  8
gg1
 62
1
 40
0.000000
 41
0.000000
 66
  1
  0
VERTEX
  8
gg1
 10
0.407500
 20
0.095000
  0
VERTEX
  8
gg1
 10
0.422500
 20
0.095000
  0
SEQEND
  8
gg1
  0
POLYLINE
  8
gg1
 62
1
 40
0.000000
 41
0.000000
 66
  1
  0
VERTEX
  8
gg1
 10
0.415000
 20
0.087500
  0
VERTEX
  8
gg1
 10
0.415000
 20
0.102500
  0
SEQEND
  8
gg1
  0
POLYLINE
  8
gg1
 62
1
 40
0.000000
 41
0.000000
 66
  1
  0
VERTEX
  8
gg1
 10
0.465500
 20
0.040000
  0
VERTEX
  8
gg1
 10
0.480500
 20
0.040000
  0
SEQEND
  8
gg1
  0
POLYLINE
  8
gg1
 62
1
 40
0.000000
 41
0.000000
 66
  1
  0
VERTEX
  8
gg1
 10
0.473000
 20
0.032500
  0
VERTEX
  8
gg1
 10
0.473000
 20
0.047500
  0
SEQEND
  8
gg1
  0
POLYLINE
  8
gg1
 62
1
 40
0.000000
 41
0.000000
 66
  1
  0
VERTEX
  8
gg1
 10
0.392500
 20
0.340000
  0
VERTEX
  8
gg1
 10
0.407500
 20
0.340000
  0
SEQEND
  8
gg1
  0
POLYLINE
  8
gg1
 62
1
 40
0.000000
 41
0.000000
 66
  1
  0
VERTEX
  8
gg1
 10
0.400000
 20
0.332500
  0
VERTEX
  8
gg1
 10
0.400000
 20
0.347500
  0
SEQEND
  8
gg1
  0
POLYLINE
  8
gg1
 62
1
 40
0.000000
 41
0.000000
 66
  1
  0
VERTEX
  8
gg1
 10
0.392500
 20
0.295000
  0
VERTEX
  8
gg1
 10
0.407500
 20
0.295000
  0
SEQEND
  8
gg1
  0
POLYLINE
  8
gg1
 62
1
 40
0.000000
 41
0.000000
 66
  1
  0
VERTEX
  8
gg1
 10
0.400000
 20
0.287500
  0
VERTEX
  8
gg1
 10
0.400000
 20
0.302500
  0
SEQEND
  8
gg1
  0
POLYLINE
  8
gg1
 62
1
 40
0.000000
 41
0.000000
 66
  1
  0
VERTEX
  8
gg1
 10
0.172500
 20
0.115000
  0
VERTEX
  8
gg1
 10
0.187500
 20
0.115000
  0
SEQEND
  8
gg1
  0
POLYLINE
  8
gg1
 62
1
 40
0.000000
 41
0.000000
 66
  1
  0
VERTEX
  8
gg1
 10
0.180000
 20
0.107500
  0
VERTEX
  8
gg1
 10
0.180000
 20
0.122500
  0
SEQEND
  8
gg1
  0
POLYLINE
  8
gg1
 62
1
 40
0.000000
 41
0.000000
 66
  1
  0
VERTEX
  8
gg1
 10
0.952500
 20
0.200000
  0
VERTEX
  8
gg1
 10
0.967500
 20
0.200000
  0
SEQEND
  8
gg1
  0
POLYLINE
  8
gg1
 62
1
 40
0.000000
 41
0.000000
 66
  1
  0
VERTEX
  8
gg1
 10
0.960000
 20
0.192500
  0
VERTEX
  8
gg1
 10
0.960000
 20
0.207500
  0
SEQEND
  8
gg1
  0
POLYLINE
  8
gg1
 62
1
 40
0.000000
 41
0.000000
 66
  1
  0
VERTEX
  8
gg1
 10
1.167500
 20
0.450000
  0
VERTEX
  8
gg1
 10
1.182500
 20
0.450000
  0
SEQEND
  8
gg1
  0
POLYLINE
  8
gg1
 62
1
 40
0.000000
 41
0.000000
 66
  1
  0
VERTEX
  8
gg1
 10
1.175000
 20
0.442500
  0
VERTEX
  8
gg1
 10
1.175000
 20
0.457500
  0
SEQEND
  8
gg1
  0
POLYLINE
  8
gg1
 62
1
 40
0.000000
 41
0.000000
 66
  1
  0
VERTEX
  8
gg1
 10
1.122500
 20
0.500000
  0
VERTEX
  8
gg1
 10
1.137500
 20
0.500000
  0
SEQEND
  8
gg1
  0
POLYLINE
  8
gg1
 62
1
 40
0.000000
 41
0.000000
 66
  1
  0
VERTEX
  8
gg1
 10
1.130000
 20
0.492500
  0
VERTEX
  8
gg1
 10
1.130000
 20
0.507500
  0
SEQEND
  8
gg1
  0
POLYLINE
  8
gg1
 62
1
 40
0.000000
 41
0.000000
 66
  1
  0
VERTEX
  8
gg1
 10
0.987500
 20
0.110000
  0
VERTEX
  8
gg1
 10
1.002500
 20
0.110000
  0
SEQEND
  8
gg1
  0
POLYLINE
  8
gg1
 62
1
 40
0.000000
 41
0.000000
 66
  1
  0
VERTEX
  8
gg1
 10
0.995000
 20
0.102500
  0
VERTEX
  8
gg1
 10
0.995000
 20
0.117500
  0
SEQEND
  8
gg1
  0
POLYLINE
  8
gg1
 62
1
 40
0.000000
 41
0.000000
 66
  1
  0
VERTEX
  8
gg1
 10
0.912500
 20
0.420000
  0
VERTEX
  8
gg1
 10
0.927500
 20
0.420000
  0
SEQEND
  8
gg1
  0
POLYLINE
  8
gg1
 62
1
 40
0.000000
 41
0.000000
 66
  1
  0
VERTEX
  8
gg1
 10
0.920000
 20
0.412500
  0
VERTEX
  8
gg1
 10
0.920000
 20
0.427500
  0
SEQEND
  8
gg1
  0
POLYLINE
  8
gg1
 62
1
 40
0.000000
 41
0.000000
 66
  1
  0
VERTEX
  8
gg1
 10
0.892500
 20
0.253000
  0
VERTEX
  8
gg1
 10
0.907500
 20
0.253000
  0
SEQEND
  8
gg1
  0
POLYLINE
  8
gg1
 62
1
 40
0.000000
 41
0.000000
 66
  1
  0
VERTEX
  8
gg1
 10
0.900000
 20
0.245500
  0
VERTEX
  8
gg1
 10
0.900000
 20
0.260500
  0
SEQEND
  8
gg1
  0
POLYLINE
  8
gg1
 62
1
 40
0.000000
 41
0.000000
 66
  1
  0
VERTEX
  8
gg1
 10
0.907500
 20
0.525000
  0
VERTEX
  8
gg1
 10
0.922500
 20
0.525000
  0
SEQEND
  8
gg1
  0
POLYLINE
  8
gg1
 62
1
 40
0.000000
 41
0.000000
 66
  1
  0
VERTEX
  8
gg1
 10
0.915000
 20
0.517500
  0
VERTEX
  8
gg1
 10
0.915000
 20
0.532500
  0
SEQEND
  8
gg1
  0
POLYLINE
  8
gg1
 62
1
 40
0.000000
 41
0.000000
 66
  1
  0
VERTEX
  8
gg1
 10
0.317500
 20
0.560000
  0
VERTEX
  8
gg1
 10
0.332500
 20
0.560000
  0
SEQEND
  8
gg1
  0
POLYLINE
  8
gg1
 62
1
 40
0.000000
 41
0.000000
 66
  1
  0
VERTEX
  8
gg1
 10
0.325000
 20
0.552500
  0
VERTEX
  8
gg1
 10
0.325000
 20
0.567500
  0
SEQEND
  8
gg1
  0
POLYLINE
  8
gg1
 62
1
 40
0.000000
 41
0.000000
 66
  1
  0
VERTEX
  8
gg1
 10
0.147500
 20
0.085000
  0
VERTEX
  8
gg1
 10
0.162500
 20
0.085000
  0
SEQEND
  8
gg1
  0
POLYLINE
  8
gg1
 62
1
 40
0.000000
 41
0.000000
 66
  1
  0
VERTEX
  8
gg1
 10
0.155000
 20
0.077500
  0
VERTEX
  8
gg1
 10
0.155000
 20
0.092500
  0
SEQEND
  8
gg1
  0
POLYLINE
  8
gg1
 62
1
 40
0.000000
 41
0.000000
 66
  1
  0
VERTEX
  8
gg1
 10
0.282500
 20
0.180000
  0
VERTEX
  8
gg1
 10
0.297500
 20
0.180000
  0
SEQEND
  8
gg1
  0
POLYLINE
  8
gg1
 62
1
 40
0.000000
 41
0.000000
 66
  1
  0
VERTEX
  8
gg1
 10
0.290000
 20
0.172500
  0
VERTEX
  8
gg1
 10
0.290000
 20
0.187500
  0
SEQEND
  8
gg1
  0
POLYLINE
  8
gg1
 62
1
 40
0.000000
 41
0.000000
 66
  1
  0
VERTEX
  8
gg1
 10
0.112500
 20
0.490000
  0
VERTEX
  8
gg1
 10
0.127500
 20
0.490000
  0
SEQEND
  8
gg1
  0
POLYLINE
  8
gg1
 62
1
 40
0.000000
 41
0.000000
 66
  1
  0
VERTEX
  8
gg1
 10
0.120000
 20
0.482500
  0
VERTEX
  8
gg1
 10
0.120000
 20
0.497500
  0
SEQEND
  8
gg1
  0
POLYLINE
  8
gg1
 62
1
 40
0.000000
 41
0.000000
 66
  1
  0
VERTEX
  8
gg1
 10
0.317500
 20
0.520000
  0
VERTEX
  8
gg1
 10
0.332500
 20
0.520000
  0
SEQEND
  8
gg1
  0
POLYLINE
  8
gg1
 62
1
 40
0.000000
 41
0.000000
 66
  1
  0
VERTEX
  8
gg1
 10
0.325000
 20
0.512500
  0
VERTEX
  8
gg1
 10
0.325000
 20
0.527500
  0
SEQEND
  8
gg1
  0
POLYLINE
  8
gg1
 62
1
 40
0.000000
 41
0.000000
 66
  1
  0
VERTEX
  8
gg1
 10
0.957500
 20
0.525000
  0
VERTEX
  8
gg1
 10
0.972500
 20
0.525000
  0
SEQEND
  8
gg1
  0
POLYLINE
  8
gg1
 62
1
 40
0.000000
 41
0.000000
 66
  1
  0
VERTEX
  8
gg1
 10
0.965000
 20
0.517500
  0
VERTEX
  8
gg1
 10
0.965000
 20
0.532500
  0
SEQEND
  8
gg1
  0
POLYLINE
  8
gg1
 62
1
 40
0.000000
 41
0.000000
 66
  1
  0
VERTEX
  8
gg1
 10
0.322500
 20
0.480000
  0
VERTEX
  8
gg1
 10
0.337500
 20
0.480000
  0
SEQEND
  8
gg1
  0
POLYLINE
  8
gg1
 62
1
 40
0.000000
 41
0.000000
 66
  1
  0
VERTEX
  8
gg1
 10
0.330000
 20
0.472500
  0
VERTEX
  8
gg1
 10
0.330000
 20
0.487500
  0
SEQEND
  8
gg1
  0
POLYLINE
  8
gg1
 62
1
 40
0.000000
 41
0.000000
 66
  1
  0
VERTEX
  8
gg1
 10
0.282500
 20
0.400000
  0
VERTEX
  8
gg1
 10
0.297500
 20
0.400000
  0
SEQEND
  8
gg1
  0
POLYLINE
  8
gg1
 62
1
 40
0.000000
 41
0.000000
 66
  1
  0
VERTEX
  8
gg1
 10
0.290000
 20
0.392500
  0
VERTEX
  8
gg1
 10
0.290000
 20
0.407500
  0
SEQEND
  8
gg1
  0
POLYLINE
  8
gg1
 62
1
 40
0.000000
 41
0.000000
 66
  1
  0
VERTEX
  8
gg1
 10
0.239000
 20
0.205000
  0
VERTEX
  8
gg1
 10
0.254000
 20
0.205000
  0
SEQEND
  8
gg1
  0
POLYLINE
  8
gg1
 62
1
 40
0.000000
 41
0.000000
 66
  1
  0
VERTEX
  8
gg1
 10
0.246500
 20
0.197500
  0
VERTEX
  8
gg1
 10
0.246500
 20
0.212500
  0
SEQEND
  8
gg1
  0
POLYLINE
  8
gg1
 62
1
 40
0.000000
 41
0.000000
 66
  1
  0
VERTEX
  8
gg1
 10
0.223500
 20
0.370000
  0
VERTEX
  8
gg1
 10
0.238500
 20
0.370000
  0
SEQEND
  8
gg1
  0
POLYLINE
  8
gg1
 62
1
 40
0.000000
 41
0.000000
 66
  1
  0
VERTEX
  8
gg1
 10
0.231000
 20
0.362500
  0
VERTEX
  8
gg1
 10
0.231000
 20
0.377500
  0
SEQEND
  8
gg1
  0
POLYLINE
  8
gg1
 62
1
 40
0.000000
 41
0.000000
 66
  1
  0
VERTEX
  8
gg1
 10
0.220500
 20
0.330000
  0
VERTEX
  8
gg1
 10
0.235500
 20
0.330000
  0
SEQEND
  8
gg1
  0
POLYLINE
  8
gg1
 62
1
 40
0.000000
 41
0.000000
 66
  1
  0
VERTEX
  8
gg1
 10
0.228000
 20
0.322500
  0
VERTEX
  8
gg1
 10
0.228000
 20
0.337500
  0
SEQEND
  8
gg1
  0
POLYLINE
  8
gg1
 62
1
 40
0.000000
 41
0.000000
 66
  1
  0
VERTEX
  8
gg1
 10
0.240500
 20
0.295000
  0
VERTEX
  8
gg1
 10
0.255500
 20
0.295000
  0
SEQEND
  8
gg1
  0
POLYLINE
  8
gg1
 62
1
 40
0.000000
 41
0.000000
 66
  1
  0
VERTEX
  8
gg1
 10
0.248000
 20
0.287500
  0
VERTEX
  8
gg1
 10
0.248000
 20
0.302500
  0
SEQEND
  8
gg1
  0
POLYLINE
  8
gg1
 62
1
 40
0.000000
 41
0.000000
 66
  1
  0
VERTEX
  8
gg1
 10
0.742500
 20
0.560000
  0
VERTEX
  8
gg1
 10
0.757500
 20
0.560000
  0
SEQEND
  8
gg1
  0
POLYLINE
  8
gg1
 62
1
 40
0.000000
 41
0.000000
 66
  1
  0
VERTEX
  8
gg1
 10
0.750000
 20
0.552500
  0
VERTEX
  8
gg1
 10
0.750000
 20
0.567500
  0
SEQEND
  8
gg1
  0
POLYLINE
  8
gg1
 62
1
 40
0.000000
 41
0.000000
 66
  1
  0
VERTEX
  8
gg1
 10
0.497500
 20
0.442000
  0
VERTEX
  8
gg1
 10
0.512500
 20
0.442000
  0
SEQEND
  8
gg1
  0
POLYLINE
  8
gg1
 62
1
 40
0.000000
 41
0.000000
 66
  1
  0
VERTEX
  8
gg1
 10
0.505000
 20
0.434500
  0
VERTEX
  8
gg1
 10
0.505000
 20
0.449500
  0
SEQEND
  8
gg1
  0
ENDSEC
  0
EOF
