  0
SECTION
  2
HEADER
  9
$EXTMIN
 10
-0.147000
 20
-0.137000
  9
$EXTMAX
 10
0.505000
 20
0.605000
  9
$LIMMIN
 10
-0.147000
 20
-0.137000
  9
$LIMMAX
 10
0.505000
 20
0.605000
  9
$FILLMODE
 70
  1
  0
ENDSEC
  0
SECTION
  2
TABLES
  0
TABLE
  2
LTYPE
 70
  1
  0
LTYPE
  2
CONTINUOUS
 70
 64
  3
Solid line
 72
 65
 73
  0
 40
0.0
  0
ENDTAB
  0
TABLE
  2
LAYER
 70
 1
  0
LAYER
  2
0
 70
  0
 62
7
  6
CONTINUOUS
  0
LAYER
  2
gg1
 70
  0
 62
1
  6
CONTINUOUS
  0
ENDTAB
  0
TABLE
  2
STYLE
 70
  1
  0
STYLE
  2
STANDARD
 70
  0
 40
0.0
 41
1.0
 50
0.0
 71
  0
 42
0.2
  3
txt
  4

  0
ENDTAB
  0
ENDSEC
  0
SECTION
  2
BLOCKS
  0
BLOCK
  8
0
  2
D10
 70
64
 10
0.0
 20
0.0
  3
D10
  0
CIRCLE
  8
0
 10
0.000000
 20
0.000000
 40
0.005000
 0
ENDBLK
  8
0
  0
BLOCK
  8
0
  2
D11
 70
64
 10
0.0
 20
0.0
  3
D11
  0
CIRCLE
  8
0
 10
0.000000
 20
0.000000
 40
0.002500
 0
ENDBLK
  8
0
  0
BLOCK
  8
0
  2
D12
 70
64
 10
0.0
 20
0.0
  3
D12
  0
CIRCLE
  8
0
 10
0.000000
 20
0.000000
 40
0.003000
 0
ENDBLK
  8
0
  0
BLOCK
  8
0
  2
D13
 70
64
 10
0.0
 20
0.0
  3
D13
  0
CIRCLE
  8
0
 10
0.000000
 20
0.000000
 40
0.001000
 0
ENDBLK
  8
0
  0
ENDSEC
  0
SECTION
  2
ENTITIES
  0
POLYLINE
  8
gg1
 62
1
 40
0.000000
 41
0.000000
 66
  1
  0
VERTEX
  8
gg1
 10
-0.130000
 20
0.600000
  0
VERTEX
  8
gg1
 10
-0.010000
 20
0.600000
  0
SEQEND
  8
gg1
  0
POLYLINE
  8
gg1
 62
1
 40
0.000000
 41
0.000000
 66
  1
  0
VERTEX
  8
gg1
 10
-0.130000
 20
0.000000
  0
VERTEX
  8
gg1
 10
-0.010000
 20
0.000000
  0
SEQEND
  8
gg1
  0
POLYLINE
  8
gg1
 62
1
 40
0.000000
 41
0.000000
 66
  1
  0
VERTEX
  8
gg1
 10
-0.120000
 20
0.455000
  0
VERTEX
  8
gg1
 10
-0.120000
 20
0.600000
  0
SEQEND
  8
gg1
  0
POLYLINE
  8
gg1
 62
1
 40
0.000000
 41
0.000000
 66
  1
  0
VERTEX
  8
gg1
 10
-0.120000
 20
0.000000
  0
VERTEX
  8
gg1
 10
-0.120000
 20
0.113000
  0
SEQEND
  8
gg1
  0
POLYLINE
  8
gg1
 62
1
 40
0.000000
 41
0.000000
 66
  1
  0
VERTEX
  8
gg1
 10
-0.140000
 20
0.540000
  0
VERTEX
  8
gg1
 10
-0.120000
 20
0.600000
  0
VERTEX
  8
gg1
 10
-0.100000
 20
0.540000
  0
SEQEND
  8
gg1
  0
POLYLINE
  8
gg1
 62
1
 40
0.000000
 41
0.000000
 66
  1
  0
VERTEX
  8
gg1
 10
-0.120000
 20
0.000000
  0
VERTEX
  8
gg1
 10
-0.100000
 20
0.060000
  0
SEQEND
  8
gg1
  0
POLYLINE
  8
gg1
 62
1
 40
0.000000
 41
0.000000
 66
  1
  0
VERTEX
  8
gg1
 10
-0.140000
 20
0.060000
  0
VERTEX
  8
gg1
 10
-0.120000
 20
0.000000
  0
SEQEND
  8
gg1
  0
POLYLINE
  8
gg1
 62
1
 40
0.000000
 41
0.000000
 66
  1
  0
VERTEX
  8
gg1
 10
0.500000
 20
-0.108000
  0
VERTEX
  8
gg1
 10
0.500000
 20
-0.010000
  0
SEQEND
  8
gg1
  0
POLYLINE
  8
gg1
 62
1
 40
0.000000
 41
0.000000
 66
  1
  0
VERTEX
  8
gg1
 10
0.000000
 20
-0.108000
  0
VERTEX
  8
gg1
 10
0.000000
 20
-0.010000
  0
SEQEND
  8
gg1
  0
POLYLINE
  8
gg1
 62
1
 40
0.000000
 41
0.000000
 66
  1
  0
VERTEX
  8
gg1
 10
0.404900
 20
-0.098000
  0
VERTEX
  8
gg1
 10
0.500000
 20
-0.098000
  0
SEQEND
  8
gg1
  0
POLYLINE
  8
gg1
 62
1
 40
0.000000
 41
0.000000
 66
  1
  0
VERTEX
  8
gg1
 10
0.000000
 20
-0.098000
  0
VERTEX
  8
gg1
 10
0.063100
 20
-0.098000
  0
SEQEND
  8
gg1
  0
POLYLINE
  8
gg1
 62
1
 40
0.000000
 41
0.000000
 66
  1
  0
VERTEX
  8
gg1
 10
0.440000
 20
-0.078000
  0
VERTEX
  8
gg1
 10
0.500000
 20
-0.098000
  0
SEQEND
  8
gg1
  0
POLYLINE
  8
gg1
 62
1
 40
0.000000
 41
0.000000
 66
  1
  0
VERTEX
  8
gg1
 10
0.440000
 20
-0.118000
  0
VERTEX
  8
gg1
 10
0.500000
 20
-0.098000
  0
SEQEND
  8
gg1
  0
POLYLINE
  8
gg1
 62
1
 40
0.000000
 41
0.000000
 66
  1
  0
VERTEX
  8
gg1
 10
0.000000
 20
-0.098000
  0
VERTEX
  8
gg1
 10
0.060000
 20
-0.118000
  0
SEQEND
  8
gg1
  0
POLYLINE
  8
gg1
 62
1
 40
0.000000
 41
0.000000
 66
  1
  0
VERTEX
  8
gg1
 10
0.000000
 20
-0.098000
  0
VERTEX
  8
gg1
 10
0.060000
 20
-0.078000
  0
SEQEND
  8
gg1
  0
POLYLINE
  8
gg1
 62
1
 40
0.000000
 41
0.000000
 66
  1
  0
VERTEX
  8
gg1
 10
0.000000
 20
0.000000
  0
VERTEX
  8
gg1
 10
0.000000
 20
0.600000
  0
VERTEX
  8
gg1
 10
0.500000
 20
0.600000
  0
SEQEND
  8
gg1
  0
POLYLINE
  8
gg1
 62
1
 40
0.000000
 41
0.000000
 66
  1
  0
VERTEX
  8
gg1
 10
0.500000
 20
0.000000
  0
VERTEX
  8
gg1
 10
0.500000
 20
0.600000
  0
SEQEND
  8
gg1
  0
POLYLINE
  8
gg1
 62
1
 40
0.000000
 41
0.000000
 66
  1
  0
VERTEX
  8
gg1
 10
0.000000
 20
0.000000
  0
VERTEX
  8
gg1
 10
0.500000
 20
0.000000
  0
SEQEND
  8
gg1
  0
POLYLINE
  8
gg1
 62
1
 40
0.000000
 41
0.000000
 66
  1
  0
VERTEX
  8
gg1
 10
-0.144000
 20
0.169000
  0
VERTEX
  8
gg1
 10
-0.134000
 20
0.149000
  0
VERTEX
  8
gg1
 10
-0.114000
 20
0.129100
  0
VERTEX
  8
gg1
 10
-0.094000
 20
0.129100
  0
VERTEX
  8
gg1
 10
-0.084000
 20
0.139000
  0
VERTEX
  8
gg1
 10
-0.084000
 20
0.159000
  0
VERTEX
  8
gg1
 10
-0.094000
 20
0.169000
  0
VERTEX
  8
gg1
 10
-0.104000
 20
0.169000
  0
VERTEX
  8
gg1
 10
-0.114000
 20
0.159000
  0
VERTEX
  8
gg1
 10
-0.114000
 20
0.129100
  0
SEQEND
  8
gg1
  0
POLYLINE
  8
gg1
 62
1
 40
0.000000
 41
0.000000
 66
  1
  0
VERTEX
  8
gg1
 10
-0.134000
 20
0.189000
  0
VERTEX
  8
gg1
 10
-0.144000
 20
0.199000
  0
VERTEX
  8
gg1
 10
-0.144000
 20
0.219000
  0
VERTEX
  8
gg1
 10
-0.134000
 20
0.229000
  0
VERTEX
  8
gg1
 10
-0.094000
 20
0.229000
  0
VERTEX
  8
gg1
 10
-0.084000
 20
0.219000
  0
VERTEX
  8
gg1
 10
-0.084000
 20
0.199000
  0
VERTEX
  8
gg1
 10
-0.094000
 20
0.189000
  0
VERTEX
  8
gg1
 10
-0.134000
 20
0.189000
  0
SEQEND
  8
gg1
  0
POLYLINE
  8
gg1
 62
1
 40
0.000000
 41
0.000000
 66
  1
  0
VERTEX
  8
gg1
 10
-0.134000
 20
0.249000
  0
VERTEX
  8
gg1
 10
-0.144000
 20
0.259000
  0
VERTEX
  8
gg1
 10
-0.144000
 20
0.279000
  0
VERTEX
  8
gg1
 10
-0.134000
 20
0.289000
  0
VERTEX
  8
gg1
 10
-0.094000
 20
0.289000
  0
VERTEX
  8
gg1
 10
-0.084000
 20
0.279000
  0
VERTEX
  8
gg1
 10
-0.084000
 20
0.259000
  0
VERTEX
  8
gg1
 10
-0.094000
 20
0.249000
  0
VERTEX
  8
gg1
 10
-0.134000
 20
0.249000
  0
SEQEND
  8
gg1
  0
POLYLINE
  8
gg1
 62
1
 40
0.000000
 41
0.000000
 66
  1
  0
VERTEX
  8
gg1
 10
-0.084000
 20
0.309000
  0
VERTEX
  8
gg1
 10
-0.124000
 20
0.309000
  0
VERTEX
  8
gg1
 10
-0.124000
 20
0.319000
  0
VERTEX
  8
gg1
 10
-0.114000
 20
0.329000
  0
VERTEX
  8
gg1
 10
-0.084000
 20
0.329000
  0
VERTEX
  8
gg1
 10
-0.114000
 20
0.329000
  0
VERTEX
  8
gg1
 10
-0.124000
 20
0.339000
  0
VERTEX
  8
gg1
 10
-0.114000
 20
0.349000
  0
VERTEX
  8
gg1
 10
-0.084000
 20
0.349000
  0
SEQEND
  8
gg1
  0
POLYLINE
  8
gg1
 62
1
 40
0.000000
 41
0.000000
 66
  1
  0
VERTEX
  8
gg1
 10
-0.084000
 20
0.369000
  0
VERTEX
  8
gg1
 10
-0.084000
 20
0.389000
  0
VERTEX
  8
gg1
 10
-0.084000
 20
0.379000
  0
VERTEX
  8
gg1
 10
-0.124000
 20
0.379000
  0
VERTEX
  8
gg1
 10
-0.124000
 20
0.369000
  0
SEQEND
  8
gg1
  0
POLYLINE
  8
gg1
 62
1
 40
0.000000
 41
0.000000
 66
  1
  0
VERTEX
  8
gg1
 10
-0.084000
 20
0.419000
  0
VERTEX
  8
gg1
 10
-0.084000
 20
0.439000
  0
VERTEX
  8
gg1
 10
-0.084000
 20
0.429000
  0
VERTEX
  8
gg1
 10
-0.144000
 20
0.429000
  0
VERTEX
  8
gg1
 10
-0.144000
 20
0.419000
  0
SEQEND
  8
gg1
  0
POLYLINE
  8
gg1
 62
1
 40
0.000000
 41
0.000000
 66
  1
  0
VERTEX
  8
gg1
 10
0.119000
 20
-0.074000
  0
VERTEX
  8
gg1
 10
0.079000
 20
-0.074000
  0
VERTEX
  8
gg1
 10
0.079000
 20
-0.104000
  0
VERTEX
  8
gg1
 10
0.099000
 20
-0.094000
  0
VERTEX
  8
gg1
 10
0.109000
 20
-0.094000
  0
VERTEX
  8
gg1
 10
0.119000
 20
-0.104000
  0
VERTEX
  8
gg1
 10
0.119000
 20
-0.124000
  0
VERTEX
  8
gg1
 10
0.109000
 20
-0.134000
  0
VERTEX
  8
gg1
 10
0.089000
 20
-0.134000
  0
VERTEX
  8
gg1
 10
0.079000
 20
-0.124000
  0
SEQEND
  8
gg1
  0
POLYLINE
  8
gg1
 62
1
 40
0.000000
 41
0.000000
 66
  1
  0
VERTEX
  8
gg1
 10
0.139000
 20
-0.084000
  0
VERTEX
  8
gg1
 10
0.149000
 20
-0.074000
  0
VERTEX
  8
gg1
 10
0.169000
 20
-0.074000
  0
VERTEX
  8
gg1
 10
0.179000
 20
-0.084000
  0
VERTEX
  8
gg1
 10
0.179000
 20
-0.124000
  0
VERTEX
  8
gg1
 10
0.169000
 20
-0.134000
  0
VERTEX
  8
gg1
 10
0.149000
 20
-0.134000
  0
VERTEX
  8
gg1
 10
0.139000
 20
-0.124000
  0
VERTEX
  8
gg1
 10
0.139000
 20
-0.084000
  0
SEQEND
  8
gg1
  0
POLYLINE
  8
gg1
 62
1
 40
0.000000
 41
0.000000
 66
  1
  0
VERTEX
  8
gg1
 10
0.199000
 20
-0.084000
  0
VERTEX
  8
gg1
 10
0.209000
 20
-0.074000
  0
VERTEX
  8
gg1
 10
0.229000
 20
-0.074000
  0
VERTEX
  8
gg1
 10
0.239000
 20
-0.084000
  0
VERTEX
  8
gg1
 10
0.239000
 20
-0.124000
  0
VERTEX
  8
gg1
 10
0.229000
 20
-0.134000
  0
VERTEX
  8
gg1
 10
0.209000
 20
-0.134000
  0
VERTEX
  8
gg1
 10
0.199000
 20
-0.124000
  0
VERTEX
  8
gg1
 10
0.199000
 20
-0.084000
  0
SEQEND
  8
gg1
  0
POLYLINE
  8
gg1
 62
1
 40
0.000000
 41
0.000000
 66
  1
  0
VERTEX
  8
gg1
 10
0.259000
 20
-0.134000
  0
VERTEX
  8
gg1
 10
0.259000
 20
-0.094000
  0
VERTEX
  8
gg1
 10
0.269000
 20
-0.094000
  0
VERTEX
  8
gg1
 10
0.279000
 20
-0.104000
  0
VERTEX
  8
gg1
 10
0.279000
 20
-0.134000
  0
VERTEX
  8
gg1
 10
0.279000
 20
-0.104000
  0
VERTEX
  8
gg1
 10
0.289000
 20
-0.094000
  0
VERTEX
  8
gg1
 10
0.299000
 20
-0.104000
  0
VERTEX
  8
gg1
 10
0.299000
 20
-0.134000
  0
SEQEND
  8
gg1
  0
POLYLINE
  8
gg1
 62
1
 40
0.000000
 41
0.000000
 66
  1
  0
VERTEX
  8
gg1
 10
0.319000
 20
-0.134000
  0
VERTEX
  8
gg1
 10
0.339000
 20
-0.134000
  0
VERTEX
  8
gg1
 10
0.329000
 20
-0.134000
  0
VERTEX
  8
gg1
 10
0.329000
 20
-0.094000
  0
VERTEX
  8
gg1
 10
0.319000
 20
-0.094000
  0
SEQEND
  8
gg1
  0
POLYLINE
  8
gg1
 62
1
 40
0.000000
 41
0.000000
 66
  1
  0
VERTEX
  8
gg1
 10
0.369000
 20
-0.134000
  0
VERTEX
  8
gg1
 10
0.388900
 20
-0.134000
  0
VERTEX
  8
gg1
 10
0.379000
 20
-0.134000
  0
VERTEX
  8
gg1
 10
0.379000
 20
-0.074000
  0
VERTEX
  8
gg1
 10
0.369000
 20
-0.074000
  0
SEQEND
  8
gg1
  0
POLYLINE
  8
gg1
 62
1
 40
0.000000
 41
0.000000
 66
  1
  0
VERTEX
  8
gg1
 10
0.230000
 20
0.050000
  0
VERTEX
  8
gg1
 10
0.270000
 20
0.050000
  0
SEQEND
  8
gg1
  0
POLYLINE
  8
gg1
 62
1
 40
0.000000
 41
0.000000
 66
  1
  0
VERTEX
  8
gg1
 10
0.250000
 20
0.030000
  0
VERTEX
  8
gg1
 10
0.250000
 20
0.070000
  0
SEQEND
  8
gg1
  0
POLYLINE
  8
gg1
 62
1
 40
0.000000
 41
0.000000
 66
  1
  0
VERTEX
  8
gg1
 10
0.330000
 20
0.050000
  0
VERTEX
  8
gg1
 10
0.370000
 20
0.050000
  0
SEQEND
  8
gg1
  0
POLYLINE
  8
gg1
 62
1
 40
0.000000
 41
0.000000
 66
  1
  0
VERTEX
  8
gg1
 10
0.350000
 20
0.030000
  0
VERTEX
  8
gg1
 10
0.350000
 20
0.070000
  0
SEQEND
  8
gg1
  0
POLYLINE
  8
gg1
 62
1
 40
0.000000
 41
0.000000
 66
  1
  0
VERTEX
  8
gg1
 10
0.430000
 20
0.050000
  0
VERTEX
  8
gg1
 10
0.470000
 20
0.050000
  0
SEQEND
  8
gg1
  0
POLYLINE
  8
gg1
 62
1
 40
0.000000
 41
0.000000
 66
  1
  0
VERTEX
  8
gg1
 10
0.450000
 20
0.030000
  0
VERTEX
  8
gg1
 10
0.450000
 20
0.070000
  0
SEQEND
  8
gg1
  0
POLYLINE
  8
gg1
 62
1
 40
0.000000
 41
0.000000
 66
  1
  0
VERTEX
  8
gg1
 10
0.030000
 20
0.050000
  0
VERTEX
  8
gg1
 10
0.070000
 20
0.050000
  0
SEQEND
  8
gg1
  0
POLYLINE
  8
gg1
 62
1
 40
0.000000
 41
0.000000
 66
  1
  0
VERTEX
  8
gg1
 10
0.050000
 20
0.030000
  0
VERTEX
  8
gg1
 10
0.050000
 20
0.070000
  0
SEQEND
  8
gg1
  0
POLYLINE
  8
gg1
 62
1
 40
0.000000
 41
0.000000
 66
  1
  0
VERTEX
  8
gg1
 10
0.030000
 20
0.280000
  0
VERTEX
  8
gg1
 10
0.050000
 20
0.280000
  0
SEQEND
  8
gg1
  0
POLYLINE
  8
gg1
 62
1
 40
0.000000
 41
0.000000
 66
  1
  0
VERTEX
  8
gg1
 10
0.040000
 20
0.270000
  0
VERTEX
  8
gg1
 10
0.040000
 20
0.290000
  0
SEQEND
  8
gg1
  0
POLYLINE
  8
gg1
 62
1
 40
0.000000
 41
0.000000
 66
  1
  0
VERTEX
  8
gg1
 10
0.130000
 20
0.050000
  0
VERTEX
  8
gg1
 10
0.170000
 20
0.050000
  0
SEQEND
  8
gg1
  0
POLYLINE
  8
gg1
 62
1
 40
0.000000
 41
0.000000
 66
  1
  0
VERTEX
  8
gg1
 10
0.150000
 20
0.030000
  0
VERTEX
  8
gg1
 10
0.150000
 20
0.070000
  0
SEQEND
  8
gg1
  0
POLYLINE
  8
gg1
 62
1
 40
0.000000
 41
0.000000
 66
  1
  0
VERTEX
  8
gg1
 10
0.030000
 20
0.150000
  0
VERTEX
  8
gg1
 10
0.070000
 20
0.150000
  0
SEQEND
  8
gg1
  0
POLYLINE
  8
gg1
 62
1
 40
0.000000
 41
0.000000
 66
  1
  0
VERTEX
  8
gg1
 10
0.050000
 20
0.130000
  0
VERTEX
  8
gg1
 10
0.050000
 20
0.170000
  0
SEQEND
  8
gg1
  0
POLYLINE
  8
gg1
 62
1
 40
0.000000
 41
0.000000
 66
  1
  0
VERTEX
  8
gg1
 10
0.250500
 20
0.320000
  0
VERTEX
  8
gg1
 10
0.265500
 20
0.320000
  0
SEQEND
  8
gg1
  0
POLYLINE
  8
gg1
 62
1
 40
0.000000
 41
0.000000
 66
  1
  0
VERTEX
  8
gg1
 10
0.258000
 20
0.312500
  0
VERTEX
  8
gg1
 10
0.258000
 20
0.327500
  0
SEQEND
  8
gg1
  0
POLYLINE
  8
gg1
 62
1
 40
0.000000
 41
0.000000
 66
  1
  0
VERTEX
  8
gg1
 10
0.126500
 20
0.445000
  0
VERTEX
  8
gg1
 10
0.141500
 20
0.445000
  0
SEQEND
  8
gg1
  0
POLYLINE
  8
gg1
 62
1
 40
0.000000
 41
0.000000
 66
  1
  0
VERTEX
  8
gg1
 10
0.134000
 20
0.437500
  0
VERTEX
  8
gg1
 10
0.134000
 20
0.452500
  0
SEQEND
  8
gg1
  0
POLYLINE
  8
gg1
 62
1
 40
0.000000
 41
0.000000
 66
  1
  0
VERTEX
  8
gg1
 10
0.164500
 20
0.454000
  0
VERTEX
  8
gg1
 10
0.179500
 20
0.454000
  0
SEQEND
  8
gg1
  0
POLYLINE
  8
gg1
 62
1
 40
0.000000
 41
0.000000
 66
  1
  0
VERTEX
  8
gg1
 10
0.172000
 20
0.446500
  0
VERTEX
  8
gg1
 10
0.172000
 20
0.461500
  0
SEQEND
  8
gg1
  0
POLYLINE
  8
gg1
 62
1
 40
0.000000
 41
0.000000
 66
  1
  0
VERTEX
  8
gg1
 10
0.074500
 20
0.520000
  0
VERTEX
  8
gg1
 10
0.089500
 20
0.520000
  0
SEQEND
  8
gg1
  0
POLYLINE
  8
gg1
 62
1
 40
0.000000
 41
0.000000
 66
  1
  0
VERTEX
  8
gg1
 10
0.082000
 20
0.512500
  0
VERTEX
  8
gg1
 10
0.082000
 20
0.527500
  0
SEQEND
  8
gg1
  0
POLYLINE
  8
gg1
 62
1
 40
0.000000
 41
0.000000
 66
  1
  0
VERTEX
  8
gg1
 10
0.087500
 20
0.441000
  0
VERTEX
  8
gg1
 10
0.102500
 20
0.441000
  0
SEQEND
  8
gg1
  0
POLYLINE
  8
gg1
 62
1
 40
0.000000
 41
0.000000
 66
  1
  0
VERTEX
  8
gg1
 10
0.095000
 20
0.433500
  0
VERTEX
  8
gg1
 10
0.095000
 20
0.448500
  0
SEQEND
  8
gg1
  0
POLYLINE
  8
gg1
 62
1
 40
0.000000
 41
0.000000
 66
  1
  0
VERTEX
  8
gg1
 10
0.203500
 20
0.454000
  0
VERTEX
  8
gg1
 10
0.218500
 20
0.454000
  0
SEQEND
  8
gg1
  0
POLYLINE
  8
gg1
 62
1
 40
0.000000
 41
0.000000
 66
  1
  0
VERTEX
  8
gg1
 10
0.211000
 20
0.446500
  0
VERTEX
  8
gg1
 10
0.211000
 20
0.461500
  0
SEQEND
  8
gg1
  0
POLYLINE
  8
gg1
 62
1
 40
0.000000
 41
0.000000
 66
  1
  0
VERTEX
  8
gg1
 10
0.452500
 20
0.225000
  0
VERTEX
  8
gg1
 10
0.467500
 20
0.225000
  0
SEQEND
  8
gg1
  0
POLYLINE
  8
gg1
 62
1
 40
0.000000
 41
0.000000
 66
  1
  0
VERTEX
  8
gg1
 10
0.460000
 20
0.217500
  0
VERTEX
  8
gg1
 10
0.460000
 20
0.232500
  0
SEQEND
  8
gg1
  0
POLYLINE
  8
gg1
 62
1
 40
0.000000
 41
0.000000
 66
  1
  0
VERTEX
  8
gg1
 10
0.422500
 20
0.135000
  0
VERTEX
  8
gg1
 10
0.437500
 20
0.135000
  0
SEQEND
  8
gg1
  0
POLYLINE
  8
gg1
 62
1
 40
0.000000
 41
0.000000
 66
  1
  0
VERTEX
  8
gg1
 10
0.430000
 20
0.127500
  0
VERTEX
  8
gg1
 10
0.430000
 20
0.142500
  0
SEQEND
  8
gg1
  0
POLYLINE
  8
gg1
 62
1
 40
0.000000
 41
0.000000
 66
  1
  0
VERTEX
  8
gg1
 10
0.452500
 20
0.196000
  0
VERTEX
  8
gg1
 10
0.467500
 20
0.196000
  0
SEQEND
  8
gg1
  0
POLYLINE
  8
gg1
 62
1
 40
0.000000
 41
0.000000
 66
  1
  0
VERTEX
  8
gg1
 10
0.460000
 20
0.188500
  0
VERTEX
  8
gg1
 10
0.460000
 20
0.203500
  0
SEQEND
  8
gg1
  0
POLYLINE
  8
gg1
 62
1
 40
0.000000
 41
0.000000
 66
  1
  0
VERTEX
  8
gg1
 10
0.314500
 20
0.320000
  0
VERTEX
  8
gg1
 10
0.329500
 20
0.320000
  0
SEQEND
  8
gg1
  0
POLYLINE
  8
gg1
 62
1
 40
0.000000
 41
0.000000
 66
  1
  0
VERTEX
  8
gg1
 10
0.322000
 20
0.312500
  0
VERTEX
  8
gg1
 10
0.322000
 20
0.327500
  0
SEQEND
  8
gg1
  0
POLYLINE
  8
gg1
 62
1
 40
0.000000
 41
0.000000
 66
  1
  0
VERTEX
  8
gg1
 10
0.221500
 20
0.325000
  0
VERTEX
  8
gg1
 10
0.236500
 20
0.325000
  0
SEQEND
  8
gg1
  0
POLYLINE
  8
gg1
 62
1
 40
0.000000
 41
0.000000
 66
  1
  0
VERTEX
  8
gg1
 10
0.229000
 20
0.317500
  0
VERTEX
  8
gg1
 10
0.229000
 20
0.332500
  0
SEQEND
  8
gg1
  0
POLYLINE
  8
gg1
 62
1
 40
0.000000
 41
0.000000
 66
  1
  0
VERTEX
  8
gg1
 10
0.372500
 20
0.325000
  0
VERTEX
  8
gg1
 10
0.387500
 20
0.325000
  0
SEQEND
  8
gg1
  0
POLYLINE
  8
gg1
 62
1
 40
0.000000
 41
0.000000
 66
  1
  0
VERTEX
  8
gg1
 10
0.380000
 20
0.317500
  0
VERTEX
  8
gg1
 10
0.380000
 20
0.332500
  0
SEQEND
  8
gg1
  0
POLYLINE
  8
gg1
 62
1
 40
0.000000
 41
0.000000
 66
  1
  0
VERTEX
  8
gg1
 10
0.343500
 20
0.325000
  0
VERTEX
  8
gg1
 10
0.358500
 20
0.325000
  0
SEQEND
  8
gg1
  0
POLYLINE
  8
gg1
 62
1
 40
0.000000
 41
0.000000
 66
  1
  0
VERTEX
  8
gg1
 10
0.351000
 20
0.317500
  0
VERTEX
  8
gg1
 10
0.351000
 20
0.332500
  0
SEQEND
  8
gg1
  0
POLYLINE
  8
gg1
 62
1
 40
0.000000
 41
0.000000
 66
  1
  0
VERTEX
  8
gg1
 10
0.249500
 20
0.515000
  0
VERTEX
  8
gg1
 10
0.264500
 20
0.515000
  0
SEQEND
  8
gg1
  0
POLYLINE
  8
gg1
 62
1
 40
0.000000
 41
0.000000
 66
  1
  0
VERTEX
  8
gg1
 10
0.257000
 20
0.507500
  0
VERTEX
  8
gg1
 10
0.257000
 20
0.522500
  0
SEQEND
  8
gg1
  0
POLYLINE
  8
gg1
 62
1
 40
0.000000
 41
0.000000
 66
  1
  0
VERTEX
  8
gg1
 10
0.417500
 20
0.490000
  0
VERTEX
  8
gg1
 10
0.432500
 20
0.490000
  0
SEQEND
  8
gg1
  0
POLYLINE
  8
gg1
 62
1
 40
0.000000
 41
0.000000
 66
  1
  0
VERTEX
  8
gg1
 10
0.425000
 20
0.482500
  0
VERTEX
  8
gg1
 10
0.425000
 20
0.497500
  0
SEQEND
  8
gg1
  0
POLYLINE
  8
gg1
 62
1
 40
0.000000
 41
0.000000
 66
  1
  0
VERTEX
  8
gg1
 10
0.322500
 20
0.460000
  0
VERTEX
  8
gg1
 10
0.337500
 20
0.460000
  0
SEQEND
  8
gg1
  0
POLYLINE
  8
gg1
 62
1
 40
0.000000
 41
0.000000
 66
  1
  0
VERTEX
  8
gg1
 10
0.330000
 20
0.452500
  0
VERTEX
  8
gg1
 10
0.330000
 20
0.467500
  0
SEQEND
  8
gg1
  0
POLYLINE
  8
gg1
 62
1
 40
0.000000
 41
0.000000
 66
  1
  0
VERTEX
  8
gg1
 10
0.192500
 20
0.324000
  0
VERTEX
  8
gg1
 10
0.207500
 20
0.324000
  0
SEQEND
  8
gg1
  0
POLYLINE
  8
gg1
 62
1
 40
0.000000
 41
0.000000
 66
  1
  0
VERTEX
  8
gg1
 10
0.200000
 20
0.316500
  0
VERTEX
  8
gg1
 10
0.200000
 20
0.331500
  0
SEQEND
  8
gg1
  0
POLYLINE
  8
gg1
 62
1
 40
0.000000
 41
0.000000
 66
  1
  0
VERTEX
  8
gg1
 10
0.252500
 20
0.559700
  0
VERTEX
  8
gg1
 10
0.267500
 20
0.559700
  0
SEQEND
  8
gg1
  0
POLYLINE
  8
gg1
 62
1
 40
0.000000
 41
0.000000
 66
  1
  0
VERTEX
  8
gg1
 10
0.260000
 20
0.552200
  0
VERTEX
  8
gg1
 10
0.260000
 20
0.567200
  0
SEQEND
  8
gg1
  0
POLYLINE
  8
gg1
 62
1
 40
0.000000
 41
0.000000
 66
  1
  0
VERTEX
  8
gg1
 10
0.347500
 20
0.105000
  0
VERTEX
  8
gg1
 10
0.362500
 20
0.105000
  0
SEQEND
  8
gg1
  0
POLYLINE
  8
gg1
 62
1
 40
0.000000
 41
0.000000
 66
  1
  0
VERTEX
  8
gg1
 10
0.355000
 20
0.097500
  0
VERTEX
  8
gg1
 10
0.355000
 20
0.112500
  0
SEQEND
  8
gg1
  0
POLYLINE
  8
gg1
 62
1
 40
0.000000
 41
0.000000
 66
  1
  0
VERTEX
  8
gg1
 10
0.212500
 20
0.105000
  0
VERTEX
  8
gg1
 10
0.227500
 20
0.105000
  0
SEQEND
  8
gg1
  0
POLYLINE
  8
gg1
 62
1
 40
0.000000
 41
0.000000
 66
  1
  0
VERTEX
  8
gg1
 10
0.220000
 20
0.097500
  0
VERTEX
  8
gg1
 10
0.220000
 20
0.112500
  0
SEQEND
  8
gg1
  0
POLYLINE
  8
gg1
 62
1
 40
0.000000
 41
0.000000
 66
  1
  0
VERTEX
  8
gg1
 10
0.102500
 20
0.130000
  0
VERTEX
  8
gg1
 10
0.117500
 20
0.130000
  0
SEQEND
  8
gg1
  0
POLYLINE
  8
gg1
 62
1
 40
0.000000
 41
0.000000
 66
  1
  0
VERTEX
  8
gg1
 10
0.110000
 20
0.122500
  0
VERTEX
  8
gg1
 10
0.110000
 20
0.137500
  0
SEQEND
  8
gg1
  0
POLYLINE
  8
gg1
 62
1
 40
0.000000
 41
0.000000
 66
  1
  0
VERTEX
  8
gg1
 10
0.181500
 20
0.133000
  0
VERTEX
  8
gg1
 10
0.196500
 20
0.133000
  0
SEQEND
  8
gg1
  0
POLYLINE
  8
gg1
 62
1
 40
0.000000
 41
0.000000
 66
  1
  0
VERTEX
  8
gg1
 10
0.189000
 20
0.125500
  0
VERTEX
  8
gg1
 10
0.189000
 20
0.140500
  0
SEQEND
  8
gg1
  0
ENDSEC
  0
EOF
