  0
SECTION
  2
HEADER
  9
$EXTMIN
 10
-0.127000
 20
-0.139000
  9
$EXTMAX
 10
2.561000
 20
2.207000
  9
$LIMMIN
 10
-0.127000
 20
-0.139000
  9
$LIMMAX
 10
2.561000
 20
2.207000
  9
$FILLMODE
 70
  1
  0
ENDSEC
  0
SECTION
  2
TABLES
  0
TABLE
  2
LTYPE
 70
  1
  0
LTYPE
  2
CONTINUOUS
 70
 64
  3
Solid line
 72
 65
 73
  0
 40
0.0
  0
ENDTAB
  0
TABLE
  2
LAYER
 70
 1
  0
LAYER
  2
0
 70
  0
 62
7
  6
CONTINUOUS
  0
LAYER
  2
gg1
 70
  0
 62
1
  6
CONTINUOUS
  0
ENDTAB
  0
TABLE
  2
STYLE
 70
  1
  0
STYLE
  2
STANDARD
 70
  0
 40
0.0
 41
1.0
 50
0.0
 71
  0
 42
0.2
  3
txt
  4

  0
ENDTAB
  0
ENDSEC
  0
SECTION
  2
BLOCKS
  0
BLOCK
  8
0
  2
D10
 70
64
 10
0.0
 20
0.0
  3
D10
  0
CIRCLE
  8
0
 10
0.000000
 20
0.000000
 40
0.002500
 0
ENDBLK
  8
0
  0
BLOCK
  8
0
  2
D11
 70
64
 10
0.0
 20
0.0
  3
D11
  0
CIRCLE
  8
0
 10
0.000000
 20
0.000000
 40
0.003000
 0
ENDBLK
  8
0
  0
BLOCK
  8
0
  2
D12
 70
64
 10
0.0
 20
0.0
  3
D12
  0
CIRCLE
  8
0
 10
0.000000
 20
0.000000
 40
0.001000
 0
ENDBLK
  8
0
  0
ENDSEC
  0
SECTION
  2
ENTITIES
  0
POLYLINE
  8
gg1
 62
1
 40
0.000000
 41
0.000000
 66
  1
  0
VERTEX
  8
gg1
 10
1.732300
 20
0.157500
  0
VERTEX
  8
gg1
 10
1.732300
 20
0.157500
  0
VERTEX
  8
gg1
 10
1.732300
 20
0.157500
 42
1.000000
  0
VERTEX
  8
gg1
 10
1.811000
 20
0.157500
  0
VERTEX
  8
gg1
 10
1.811000
 20
0.157500
  0
SEQEND
  8
gg1
  0
POLYLINE
  8
gg1
 62
1
 40
0.000000
 41
0.000000
 66
  1
  0
VERTEX
  8
gg1
 10
1.811000
 20
0.748000
  0
VERTEX
  8
gg1
 10
1.811000
 20
0.748000
  0
VERTEX
  8
gg1
 10
1.811000
 20
0.748000
 42
1.000000
  0
VERTEX
  8
gg1
 10
1.732300
 20
0.748000
  0
VERTEX
  8
gg1
 10
1.732300
 20
0.748000
  0
SEQEND
  8
gg1
  0
POLYLINE
  8
gg1
 62
1
 40
0.000000
 41
0.000000
 66
  1
  0
VERTEX
  8
gg1
 10
0.000000
 20
1.476400
  0
VERTEX
  8
gg1
 10
0.000000
 20
1.476400
  0
VERTEX
  8
gg1
 10
0.000000
 20
1.476400
 42
0.414214
  0
VERTEX
  8
gg1
 10
0.039400
 20
1.437000
  0
VERTEX
  8
gg1
 10
0.039400
 20
1.437000
  0
SEQEND
  8
gg1
  0
POLYLINE
  8
gg1
 62
1
 40
0.000000
 41
0.000000
 66
  1
  0
VERTEX
  8
gg1
 10
0.196900
 20
1.397600
  0
VERTEX
  8
gg1
 10
0.196900
 20
1.397600
  0
VERTEX
  8
gg1
 10
0.196900
 20
1.397600
 42
0.414214
  0
VERTEX
  8
gg1
 10
0.157500
 20
1.437000
  0
VERTEX
  8
gg1
 10
0.157500
 20
1.437000
  0
SEQEND
  8
gg1
  0
POLYLINE
  8
gg1
 62
1
 40
0.000000
 41
0.000000
 66
  1
  0
VERTEX
  8
gg1
 10
0.157500
 20
0.767700
  0
VERTEX
  8
gg1
 10
0.157500
 20
0.767700
  0
VERTEX
  8
gg1
 10
0.157500
 20
0.767700
 42
0.414214
  0
VERTEX
  8
gg1
 10
0.196900
 20
0.807100
  0
VERTEX
  8
gg1
 10
0.196900
 20
0.807100
  0
SEQEND
  8
gg1
  0
POLYLINE
  8
gg1
 62
1
 40
0.000000
 41
0.000000
 66
  1
  0
VERTEX
  8
gg1
 10
0.039400
 20
0.767700
  0
VERTEX
  8
gg1
 10
0.039400
 20
0.767700
  0
VERTEX
  8
gg1
 10
0.039400
 20
0.767700
 42
0.414214
  0
VERTEX
  8
gg1
 10
0.000000
 20
0.728300
  0
VERTEX
  8
gg1
 10
0.000000
 20
0.728300
  0
SEQEND
  8
gg1
  0
POLYLINE
  8
gg1
 62
1
 40
0.000000
 41
0.000000
 66
  1
  0
VERTEX
  8
gg1
 10
2.559100
 20
2.086600
  0
VERTEX
  8
gg1
 10
2.559100
 20
2.086600
  0
VERTEX
  8
gg1
 10
2.559100
 20
2.086600
 42
0.414461
  0
VERTEX
  8
gg1
 10
2.440900
 20
2.204700
  0
VERTEX
  8
gg1
 10
2.440900
 20
2.204700
  0
SEQEND
  8
gg1
  0
POLYLINE
  8
gg1
 62
1
 40
0.000000
 41
0.000000
 66
  1
  0
VERTEX
  8
gg1
 10
0.118100
 20
2.204700
  0
VERTEX
  8
gg1
 10
0.118100
 20
2.204700
  0
VERTEX
  8
gg1
 10
0.118100
 20
2.204700
 42
0.414214
  0
VERTEX
  8
gg1
 10
0.000000
 20
2.086600
  0
VERTEX
  8
gg1
 10
0.000000
 20
2.086600
  0
SEQEND
  8
gg1
  0
POLYLINE
  8
gg1
 62
1
 40
0.000000
 41
0.000000
 66
  1
  0
VERTEX
  8
gg1
 10
2.440900
 20
0.000000
  0
VERTEX
  8
gg1
 10
2.440900
 20
0.000000
  0
VERTEX
  8
gg1
 10
2.440900
 20
0.000000
 42
0.413615
  0
VERTEX
  8
gg1
 10
2.559100
 20
0.118100
  0
VERTEX
  8
gg1
 10
2.559100
 20
0.118100
  0
SEQEND
  8
gg1
  0
POLYLINE
  8
gg1
 62
1
 40
0.000000
 41
0.000000
 66
  1
  0
VERTEX
  8
gg1
 10
0.000000
 20
0.118100
  0
VERTEX
  8
gg1
 10
0.000000
 20
0.118100
  0
VERTEX
  8
gg1
 10
0.000000
 20
0.118100
 42
0.414214
  0
VERTEX
  8
gg1
 10
0.118100
 20
0.000000
  0
VERTEX
  8
gg1
 10
0.118100
 20
0.000000
  0
SEQEND
  8
gg1
  0
POLYLINE
  8
gg1
 62
1
 40
0.000000
 41
0.000000
 66
  1
  0
VERTEX
  8
gg1
 10
2.559100
 20
-0.110000
  0
VERTEX
  8
gg1
 10
2.559100
 20
0.040600
  0
SEQEND
  8
gg1
  0
POLYLINE
  8
gg1
 62
1
 40
0.000000
 41
0.000000
 66
  1
  0
VERTEX
  8
gg1
 10
0.000000
 20
-0.110000
  0
VERTEX
  8
gg1
 10
0.000000
 20
0.040600
  0
SEQEND
  8
gg1
  0
POLYLINE
  8
gg1
 62
1
 40
0.000000
 41
0.000000
 66
  1
  0
VERTEX
  8
gg1
 10
1.444500
 20
-0.100000
  0
VERTEX
  8
gg1
 10
2.559100
 20
-0.100000
  0
SEQEND
  8
gg1
  0
POLYLINE
  8
gg1
 62
1
 40
0.000000
 41
0.000000
 66
  1
  0
VERTEX
  8
gg1
 10
0.000000
 20
-0.100000
  0
VERTEX
  8
gg1
 10
1.082600
 20
-0.100000
  0
SEQEND
  8
gg1
  0
POLYLINE
  8
gg1
 62
1
 40
0.000000
 41
0.000000
 66
  1
  0
VERTEX
  8
gg1
 10
2.499100
 20
-0.080000
  0
VERTEX
  8
gg1
 10
2.559100
 20
-0.100000
  0
SEQEND
  8
gg1
  0
POLYLINE
  8
gg1
 62
1
 40
0.000000
 41
0.000000
 66
  1
  0
VERTEX
  8
gg1
 10
2.499100
 20
-0.120000
  0
VERTEX
  8
gg1
 10
2.559100
 20
-0.100000
  0
SEQEND
  8
gg1
  0
POLYLINE
  8
gg1
 62
1
 40
0.000000
 41
0.000000
 66
  1
  0
VERTEX
  8
gg1
 10
0.000000
 20
-0.100000
  0
VERTEX
  8
gg1
 10
0.060000
 20
-0.120000
  0
SEQEND
  8
gg1
  0
POLYLINE
  8
gg1
 62
1
 40
0.000000
 41
0.000000
 66
  1
  0
VERTEX
  8
gg1
 10
0.000000
 20
-0.100000
  0
VERTEX
  8
gg1
 10
0.060000
 20
-0.080000
  0
SEQEND
  8
gg1
  0
POLYLINE
  8
gg1
 62
1
 40
0.000000
 41
0.000000
 66
  1
  0
VERTEX
  8
gg1
 10
-0.110000
 20
2.204700
  0
VERTEX
  8
gg1
 10
0.043100
 20
2.204700
  0
SEQEND
  8
gg1
  0
POLYLINE
  8
gg1
 62
1
 40
0.000000
 41
0.000000
 66
  1
  0
VERTEX
  8
gg1
 10
-0.110000
 20
0.000000
  0
VERTEX
  8
gg1
 10
0.040600
 20
0.000000
  0
SEQEND
  8
gg1
  0
POLYLINE
  8
gg1
 62
1
 40
0.000000
 41
0.000000
 66
  1
  0
VERTEX
  8
gg1
 10
-0.100000
 20
1.267300
  0
VERTEX
  8
gg1
 10
-0.100000
 20
2.204700
  0
SEQEND
  8
gg1
  0
POLYLINE
  8
gg1
 62
1
 40
0.000000
 41
0.000000
 66
  1
  0
VERTEX
  8
gg1
 10
-0.100000
 20
0.000000
  0
VERTEX
  8
gg1
 10
-0.100000
 20
0.905400
  0
SEQEND
  8
gg1
  0
POLYLINE
  8
gg1
 62
1
 40
0.000000
 41
0.000000
 66
  1
  0
VERTEX
  8
gg1
 10
-0.120000
 20
2.144700
  0
VERTEX
  8
gg1
 10
-0.100000
 20
2.204700
  0
VERTEX
  8
gg1
 10
-0.080000
 20
2.144700
  0
SEQEND
  8
gg1
  0
POLYLINE
  8
gg1
 62
1
 40
0.000000
 41
0.000000
 66
  1
  0
VERTEX
  8
gg1
 10
-0.100000
 20
0.000000
  0
VERTEX
  8
gg1
 10
-0.080000
 20
0.060000
  0
SEQEND
  8
gg1
  0
POLYLINE
  8
gg1
 62
1
 40
0.000000
 41
0.000000
 66
  1
  0
VERTEX
  8
gg1
 10
-0.120000
 20
0.060000
  0
VERTEX
  8
gg1
 10
-0.100000
 20
0.000000
  0
SEQEND
  8
gg1
  0
POLYLINE
  8
gg1
 62
1
 40
0.000000
 41
0.000000
 66
  1
  0
VERTEX
  8
gg1
 10
1.732300
 20
0.155500
  0
VERTEX
  8
gg1
 10
1.732300
 20
0.748000
  0
SEQEND
  8
gg1
  0
POLYLINE
  8
gg1
 62
1
 40
0.000000
 41
0.000000
 66
  1
  0
VERTEX
  8
gg1
 10
1.811000
 20
0.157500
  0
VERTEX
  8
gg1
 10
1.811000
 20
0.748000
  0
SEQEND
  8
gg1
  0
POLYLINE
  8
gg1
 62
1
 40
0.000000
 41
0.000000
 66
  1
  0
VERTEX
  8
gg1
 10
0.000000
 20
0.118100
  0
VERTEX
  8
gg1
 10
0.000000
 20
0.728300
  0
SEQEND
  8
gg1
  0
POLYLINE
  8
gg1
 62
1
 40
0.000000
 41
0.000000
 66
  1
  0
VERTEX
  8
gg1
 10
0.039400
 20
0.767700
  0
VERTEX
  8
gg1
 10
0.157500
 20
0.767700
  0
SEQEND
  8
gg1
  0
POLYLINE
  8
gg1
 62
1
 40
0.000000
 41
0.000000
 66
  1
  0
VERTEX
  8
gg1
 10
0.196900
 20
0.807100
  0
VERTEX
  8
gg1
 10
0.196900
 20
1.397600
  0
SEQEND
  8
gg1
  0
POLYLINE
  8
gg1
 62
1
 40
0.000000
 41
0.000000
 66
  1
  0
VERTEX
  8
gg1
 10
0.039400
 20
1.437000
  0
VERTEX
  8
gg1
 10
0.157500
 20
1.437000
  0
SEQEND
  8
gg1
  0
POLYLINE
  8
gg1
 62
1
 40
0.000000
 41
0.000000
 66
  1
  0
VERTEX
  8
gg1
 10
0.000000
 20
1.476400
  0
VERTEX
  8
gg1
 10
0.000000
 20
2.086600
  0
SEQEND
  8
gg1
  0
POLYLINE
  8
gg1
 62
1
 40
0.000000
 41
0.000000
 66
  1
  0
VERTEX
  8
gg1
 10
0.118100
 20
2.204700
  0
VERTEX
  8
gg1
 10
2.440900
 20
2.204700
  0
SEQEND
  8
gg1
  0
POLYLINE
  8
gg1
 62
1
 40
0.000000
 41
0.000000
 66
  1
  0
VERTEX
  8
gg1
 10
0.118100
 20
0.000000
  0
VERTEX
  8
gg1
 10
2.440900
 20
0.000000
  0
SEQEND
  8
gg1
  0
POLYLINE
  8
gg1
 62
1
 40
0.000000
 41
0.000000
 66
  1
  0
VERTEX
  8
gg1
 10
2.559100
 20
0.118100
  0
VERTEX
  8
gg1
 10
2.559100
 20
2.086600
  0
SEQEND
  8
gg1
  0
POLYLINE
  8
gg1
 62
1
 40
0.000000
 41
0.000000
 66
  1
  0
VERTEX
  8
gg1
 10
1.138600
 20
-0.076000
  0
VERTEX
  8
gg1
 10
1.118600
 20
-0.086000
  0
VERTEX
  8
gg1
 10
1.098600
 20
-0.106000
  0
VERTEX
  8
gg1
 10
1.098600
 20
-0.126000
  0
VERTEX
  8
gg1
 10
1.108600
 20
-0.136000
  0
VERTEX
  8
gg1
 10
1.128600
 20
-0.136000
  0
VERTEX
  8
gg1
 10
1.138600
 20
-0.126000
  0
VERTEX
  8
gg1
 10
1.138600
 20
-0.116000
  0
VERTEX
  8
gg1
 10
1.128600
 20
-0.106000
  0
VERTEX
  8
gg1
 10
1.098600
 20
-0.106000
  0
SEQEND
  8
gg1
  0
POLYLINE
  8
gg1
 62
1
 40
0.000000
 41
0.000000
 66
  1
  0
VERTEX
  8
gg1
 10
1.198500
 20
-0.076000
  0
VERTEX
  8
gg1
 10
1.158600
 20
-0.076000
  0
VERTEX
  8
gg1
 10
1.158600
 20
-0.106000
  0
VERTEX
  8
gg1
 10
1.178600
 20
-0.096000
  0
VERTEX
  8
gg1
 10
1.188600
 20
-0.096000
  0
VERTEX
  8
gg1
 10
1.198500
 20
-0.106000
  0
VERTEX
  8
gg1
 10
1.198500
 20
-0.126000
  0
VERTEX
  8
gg1
 10
1.188600
 20
-0.136000
  0
VERTEX
  8
gg1
 10
1.168600
 20
-0.136000
  0
VERTEX
  8
gg1
 10
1.158600
 20
-0.126000
  0
SEQEND
  8
gg1
  0
POLYLINE
  8
gg1
 62
1
 40
0.000000
 41
0.000000
 66
  1
  0
VERTEX
  8
gg1
 10
1.218500
 20
-0.136000
  0
VERTEX
  8
gg1
 10
1.218500
 20
-0.126000
  0
VERTEX
  8
gg1
 10
1.228500
 20
-0.126000
  0
VERTEX
  8
gg1
 10
1.228500
 20
-0.136000
  0
VERTEX
  8
gg1
 10
1.218500
 20
-0.136000
  0
SEQEND
  8
gg1
  0
POLYLINE
  8
gg1
 62
1
 40
0.000000
 41
0.000000
 66
  1
  0
VERTEX
  8
gg1
 10
1.268500
 20
-0.086000
  0
VERTEX
  8
gg1
 10
1.278500
 20
-0.076000
  0
VERTEX
  8
gg1
 10
1.298500
 20
-0.076000
  0
VERTEX
  8
gg1
 10
1.308500
 20
-0.086000
  0
VERTEX
  8
gg1
 10
1.308500
 20
-0.126000
  0
VERTEX
  8
gg1
 10
1.298500
 20
-0.136000
  0
VERTEX
  8
gg1
 10
1.278500
 20
-0.136000
  0
VERTEX
  8
gg1
 10
1.268500
 20
-0.126000
  0
VERTEX
  8
gg1
 10
1.268500
 20
-0.086000
  0
SEQEND
  8
gg1
  0
POLYLINE
  8
gg1
 62
1
 40
0.000000
 41
0.000000
 66
  1
  0
VERTEX
  8
gg1
 10
1.328500
 20
-0.136000
  0
VERTEX
  8
gg1
 10
1.328500
 20
-0.096000
  0
VERTEX
  8
gg1
 10
1.338500
 20
-0.096000
  0
VERTEX
  8
gg1
 10
1.348500
 20
-0.106000
  0
VERTEX
  8
gg1
 10
1.348500
 20
-0.136000
  0
VERTEX
  8
gg1
 10
1.348500
 20
-0.106000
  0
VERTEX
  8
gg1
 10
1.358500
 20
-0.096000
  0
VERTEX
  8
gg1
 10
1.368500
 20
-0.106000
  0
VERTEX
  8
gg1
 10
1.368500
 20
-0.136000
  0
SEQEND
  8
gg1
  0
POLYLINE
  8
gg1
 62
1
 40
0.000000
 41
0.000000
 66
  1
  0
VERTEX
  8
gg1
 10
1.388500
 20
-0.136000
  0
VERTEX
  8
gg1
 10
1.388500
 20
-0.096000
  0
VERTEX
  8
gg1
 10
1.398500
 20
-0.096000
  0
VERTEX
  8
gg1
 10
1.408500
 20
-0.106000
  0
VERTEX
  8
gg1
 10
1.408500
 20
-0.136000
  0
VERTEX
  8
gg1
 10
1.408500
 20
-0.106000
  0
VERTEX
  8
gg1
 10
1.418500
 20
-0.096000
  0
VERTEX
  8
gg1
 10
1.428500
 20
-0.106000
  0
VERTEX
  8
gg1
 10
1.428500
 20
-0.136000
  0
SEQEND
  8
gg1
  0
POLYLINE
  8
gg1
 62
1
 40
0.000000
 41
0.000000
 66
  1
  0
VERTEX
  8
gg1
 10
-0.124000
 20
0.961400
  0
VERTEX
  8
gg1
 10
-0.124000
 20
0.921400
  0
VERTEX
  8
gg1
 10
-0.094000
 20
0.921400
  0
VERTEX
  8
gg1
 10
-0.104000
 20
0.941400
  0
VERTEX
  8
gg1
 10
-0.104000
 20
0.951400
  0
VERTEX
  8
gg1
 10
-0.094000
 20
0.961400
  0
VERTEX
  8
gg1
 10
-0.074000
 20
0.961400
  0
VERTEX
  8
gg1
 10
-0.064000
 20
0.951400
  0
VERTEX
  8
gg1
 10
-0.064000
 20
0.931400
  0
VERTEX
  8
gg1
 10
-0.074000
 20
0.921400
  0
SEQEND
  8
gg1
  0
POLYLINE
  8
gg1
 62
1
 40
0.000000
 41
0.000000
 66
  1
  0
VERTEX
  8
gg1
 10
-0.124000
 20
1.021400
  0
VERTEX
  8
gg1
 10
-0.114000
 20
1.001400
  0
VERTEX
  8
gg1
 10
-0.094000
 20
0.981400
  0
VERTEX
  8
gg1
 10
-0.074000
 20
0.981400
  0
VERTEX
  8
gg1
 10
-0.064000
 20
0.991400
  0
VERTEX
  8
gg1
 10
-0.064000
 20
1.011400
  0
VERTEX
  8
gg1
 10
-0.074000
 20
1.021400
  0
VERTEX
  8
gg1
 10
-0.084000
 20
1.021400
  0
VERTEX
  8
gg1
 10
-0.094000
 20
1.011400
  0
VERTEX
  8
gg1
 10
-0.094000
 20
0.981400
  0
SEQEND
  8
gg1
  0
POLYLINE
  8
gg1
 62
1
 40
0.000000
 41
0.000000
 66
  1
  0
VERTEX
  8
gg1
 10
-0.064000
 20
1.041400
  0
VERTEX
  8
gg1
 10
-0.074000
 20
1.041400
  0
VERTEX
  8
gg1
 10
-0.074000
 20
1.051400
  0
VERTEX
  8
gg1
 10
-0.064000
 20
1.051400
  0
VERTEX
  8
gg1
 10
-0.064000
 20
1.041400
  0
SEQEND
  8
gg1
  0
POLYLINE
  8
gg1
 62
1
 40
0.000000
 41
0.000000
 66
  1
  0
VERTEX
  8
gg1
 10
-0.114000
 20
1.091400
  0
VERTEX
  8
gg1
 10
-0.124000
 20
1.101400
  0
VERTEX
  8
gg1
 10
-0.124000
 20
1.121400
  0
VERTEX
  8
gg1
 10
-0.114000
 20
1.131300
  0
VERTEX
  8
gg1
 10
-0.074000
 20
1.131300
  0
VERTEX
  8
gg1
 10
-0.064000
 20
1.121400
  0
VERTEX
  8
gg1
 10
-0.064000
 20
1.101400
  0
VERTEX
  8
gg1
 10
-0.074000
 20
1.091400
  0
VERTEX
  8
gg1
 10
-0.114000
 20
1.091400
  0
SEQEND
  8
gg1
  0
POLYLINE
  8
gg1
 62
1
 40
0.000000
 41
0.000000
 66
  1
  0
VERTEX
  8
gg1
 10
-0.064000
 20
1.151300
  0
VERTEX
  8
gg1
 10
-0.104000
 20
1.151300
  0
VERTEX
  8
gg1
 10
-0.104000
 20
1.161300
  0
VERTEX
  8
gg1
 10
-0.094000
 20
1.171300
  0
VERTEX
  8
gg1
 10
-0.064000
 20
1.171300
  0
VERTEX
  8
gg1
 10
-0.094000
 20
1.171300
  0
VERTEX
  8
gg1
 10
-0.104000
 20
1.181300
  0
VERTEX
  8
gg1
 10
-0.094000
 20
1.191300
  0
VERTEX
  8
gg1
 10
-0.064000
 20
1.191300
  0
SEQEND
  8
gg1
  0
POLYLINE
  8
gg1
 62
1
 40
0.000000
 41
0.000000
 66
  1
  0
VERTEX
  8
gg1
 10
-0.064000
 20
1.211300
  0
VERTEX
  8
gg1
 10
-0.104000
 20
1.211300
  0
VERTEX
  8
gg1
 10
-0.104000
 20
1.221300
  0
VERTEX
  8
gg1
 10
-0.094000
 20
1.231300
  0
VERTEX
  8
gg1
 10
-0.064000
 20
1.231300
  0
VERTEX
  8
gg1
 10
-0.094000
 20
1.231300
  0
VERTEX
  8
gg1
 10
-0.104000
 20
1.241300
  0
VERTEX
  8
gg1
 10
-0.094000
 20
1.251300
  0
VERTEX
  8
gg1
 10
-0.064000
 20
1.251300
  0
SEQEND
  8
gg1
  0
POLYLINE
  8
gg1
 62
1
 40
0.000000
 41
0.000000
 66
  1
  0
VERTEX
  8
gg1
 10
1.160000
 20
1.870000
  0
VERTEX
  8
gg1
 10
1.200000
 20
1.870000
  0
SEQEND
  8
gg1
  0
POLYLINE
  8
gg1
 62
1
 40
0.000000
 41
0.000000
 66
  1
  0
VERTEX
  8
gg1
 10
1.180000
 20
1.850000
  0
VERTEX
  8
gg1
 10
1.180000
 20
1.890000
  0
SEQEND
  8
gg1
  0
POLYLINE
  8
gg1
 62
1
 40
0.000000
 41
0.000000
 66
  1
  0
VERTEX
  8
gg1
 10
1.060000
 20
1.870000
  0
VERTEX
  8
gg1
 10
1.100000
 20
1.870000
  0
SEQEND
  8
gg1
  0
POLYLINE
  8
gg1
 62
1
 40
0.000000
 41
0.000000
 66
  1
  0
VERTEX
  8
gg1
 10
1.080000
 20
1.850000
  0
VERTEX
  8
gg1
 10
1.080000
 20
1.890000
  0
SEQEND
  8
gg1
  0
POLYLINE
  8
gg1
 62
1
 40
0.000000
 41
0.000000
 66
  1
  0
VERTEX
  8
gg1
 10
0.960000
 20
1.870000
  0
VERTEX
  8
gg1
 10
1.000000
 20
1.870000
  0
SEQEND
  8
gg1
  0
POLYLINE
  8
gg1
 62
1
 40
0.000000
 41
0.000000
 66
  1
  0
VERTEX
  8
gg1
 10
0.980000
 20
1.850000
  0
VERTEX
  8
gg1
 10
0.980000
 20
1.890000
  0
SEQEND
  8
gg1
  0
POLYLINE
  8
gg1
 62
1
 40
0.000000
 41
0.000000
 66
  1
  0
VERTEX
  8
gg1
 10
0.460000
 20
1.870000
  0
VERTEX
  8
gg1
 10
0.500000
 20
1.870000
  0
SEQEND
  8
gg1
  0
POLYLINE
  8
gg1
 62
1
 40
0.000000
 41
0.000000
 66
  1
  0
VERTEX
  8
gg1
 10
0.480000
 20
1.850000
  0
VERTEX
  8
gg1
 10
0.480000
 20
1.890000
  0
SEQEND
  8
gg1
  0
POLYLINE
  8
gg1
 62
1
 40
0.000000
 41
0.000000
 66
  1
  0
VERTEX
  8
gg1
 10
0.360000
 20
1.870000
  0
VERTEX
  8
gg1
 10
0.400000
 20
1.870000
  0
SEQEND
  8
gg1
  0
POLYLINE
  8
gg1
 62
1
 40
0.000000
 41
0.000000
 66
  1
  0
VERTEX
  8
gg1
 10
0.380000
 20
1.850000
  0
VERTEX
  8
gg1
 10
0.380000
 20
1.890000
  0
SEQEND
  8
gg1
  0
POLYLINE
  8
gg1
 62
1
 40
0.000000
 41
0.000000
 66
  1
  0
VERTEX
  8
gg1
 10
0.260000
 20
1.870000
  0
VERTEX
  8
gg1
 10
0.300000
 20
1.870000
  0
SEQEND
  8
gg1
  0
POLYLINE
  8
gg1
 62
1
 40
0.000000
 41
0.000000
 66
  1
  0
VERTEX
  8
gg1
 10
0.280000
 20
1.850000
  0
VERTEX
  8
gg1
 10
0.280000
 20
1.890000
  0
SEQEND
  8
gg1
  0
POLYLINE
  8
gg1
 62
1
 40
0.000000
 41
0.000000
 66
  1
  0
VERTEX
  8
gg1
 10
0.160000
 20
1.870000
  0
VERTEX
  8
gg1
 10
0.200000
 20
1.870000
  0
SEQEND
  8
gg1
  0
POLYLINE
  8
gg1
 62
1
 40
0.000000
 41
0.000000
 66
  1
  0
VERTEX
  8
gg1
 10
0.180000
 20
1.850000
  0
VERTEX
  8
gg1
 10
0.180000
 20
1.890000
  0
SEQEND
  8
gg1
  0
POLYLINE
  8
gg1
 62
1
 40
0.000000
 41
0.000000
 66
  1
  0
VERTEX
  8
gg1
 10
0.060000
 20
1.870000
  0
VERTEX
  8
gg1
 10
0.100000
 20
1.870000
  0
SEQEND
  8
gg1
  0
POLYLINE
  8
gg1
 62
1
 40
0.000000
 41
0.000000
 66
  1
  0
VERTEX
  8
gg1
 10
0.080000
 20
1.850000
  0
VERTEX
  8
gg1
 10
0.080000
 20
1.890000
  0
SEQEND
  8
gg1
  0
POLYLINE
  8
gg1
 62
1
 40
0.000000
 41
0.000000
 66
  1
  0
VERTEX
  8
gg1
 10
0.560000
 20
1.870000
  0
VERTEX
  8
gg1
 10
0.600000
 20
1.870000
  0
SEQEND
  8
gg1
  0
POLYLINE
  8
gg1
 62
1
 40
0.000000
 41
0.000000
 66
  1
  0
VERTEX
  8
gg1
 10
0.580000
 20
1.850000
  0
VERTEX
  8
gg1
 10
0.580000
 20
1.890000
  0
SEQEND
  8
gg1
  0
POLYLINE
  8
gg1
 62
1
 40
0.000000
 41
0.000000
 66
  1
  0
VERTEX
  8
gg1
 10
0.660000
 20
1.870000
  0
VERTEX
  8
gg1
 10
0.700000
 20
1.870000
  0
SEQEND
  8
gg1
  0
POLYLINE
  8
gg1
 62
1
 40
0.000000
 41
0.000000
 66
  1
  0
VERTEX
  8
gg1
 10
0.680000
 20
1.850000
  0
VERTEX
  8
gg1
 10
0.680000
 20
1.890000
  0
SEQEND
  8
gg1
  0
POLYLINE
  8
gg1
 62
1
 40
0.000000
 41
0.000000
 66
  1
  0
VERTEX
  8
gg1
 10
0.760000
 20
1.870000
  0
VERTEX
  8
gg1
 10
0.800000
 20
1.870000
  0
SEQEND
  8
gg1
  0
POLYLINE
  8
gg1
 62
1
 40
0.000000
 41
0.000000
 66
  1
  0
VERTEX
  8
gg1
 10
0.780000
 20
1.850000
  0
VERTEX
  8
gg1
 10
0.780000
 20
1.890000
  0
SEQEND
  8
gg1
  0
POLYLINE
  8
gg1
 62
1
 40
0.000000
 41
0.000000
 66
  1
  0
VERTEX
  8
gg1
 10
0.860000
 20
1.870000
  0
VERTEX
  8
gg1
 10
0.900000
 20
1.870000
  0
SEQEND
  8
gg1
  0
POLYLINE
  8
gg1
 62
1
 40
0.000000
 41
0.000000
 66
  1
  0
VERTEX
  8
gg1
 10
0.880000
 20
1.850000
  0
VERTEX
  8
gg1
 10
0.880000
 20
1.890000
  0
SEQEND
  8
gg1
  0
POLYLINE
  8
gg1
 62
1
 40
0.000000
 41
0.000000
 66
  1
  0
VERTEX
  8
gg1
 10
1.260000
 20
1.870000
  0
VERTEX
  8
gg1
 10
1.300000
 20
1.870000
  0
SEQEND
  8
gg1
  0
POLYLINE
  8
gg1
 62
1
 40
0.000000
 41
0.000000
 66
  1
  0
VERTEX
  8
gg1
 10
1.280000
 20
1.850000
  0
VERTEX
  8
gg1
 10
1.280000
 20
1.890000
  0
SEQEND
  8
gg1
  0
POLYLINE
  8
gg1
 62
1
 40
0.000000
 41
0.000000
 66
  1
  0
VERTEX
  8
gg1
 10
1.360000
 20
1.870000
  0
VERTEX
  8
gg1
 10
1.400000
 20
1.870000
  0
SEQEND
  8
gg1
  0
POLYLINE
  8
gg1
 62
1
 40
0.000000
 41
0.000000
 66
  1
  0
VERTEX
  8
gg1
 10
1.380000
 20
1.850000
  0
VERTEX
  8
gg1
 10
1.380000
 20
1.890000
  0
SEQEND
  8
gg1
  0
POLYLINE
  8
gg1
 62
1
 40
0.000000
 41
0.000000
 66
  1
  0
VERTEX
  8
gg1
 10
1.460000
 20
1.870000
  0
VERTEX
  8
gg1
 10
1.500000
 20
1.870000
  0
SEQEND
  8
gg1
  0
POLYLINE
  8
gg1
 62
1
 40
0.000000
 41
0.000000
 66
  1
  0
VERTEX
  8
gg1
 10
1.480000
 20
1.850000
  0
VERTEX
  8
gg1
 10
1.480000
 20
1.890000
  0
SEQEND
  8
gg1
  0
POLYLINE
  8
gg1
 62
1
 40
0.000000
 41
0.000000
 66
  1
  0
VERTEX
  8
gg1
 10
1.560000
 20
1.870000
  0
VERTEX
  8
gg1
 10
1.600000
 20
1.870000
  0
SEQEND
  8
gg1
  0
POLYLINE
  8
gg1
 62
1
 40
0.000000
 41
0.000000
 66
  1
  0
VERTEX
  8
gg1
 10
1.580000
 20
1.850000
  0
VERTEX
  8
gg1
 10
1.580000
 20
1.890000
  0
SEQEND
  8
gg1
  0
POLYLINE
  8
gg1
 62
1
 40
0.000000
 41
0.000000
 66
  1
  0
VERTEX
  8
gg1
 10
1.660000
 20
1.870000
  0
VERTEX
  8
gg1
 10
1.700000
 20
1.870000
  0
SEQEND
  8
gg1
  0
POLYLINE
  8
gg1
 62
1
 40
0.000000
 41
0.000000
 66
  1
  0
VERTEX
  8
gg1
 10
1.680000
 20
1.850000
  0
VERTEX
  8
gg1
 10
1.680000
 20
1.890000
  0
SEQEND
  8
gg1
  0
POLYLINE
  8
gg1
 62
1
 40
0.000000
 41
0.000000
 66
  1
  0
VERTEX
  8
gg1
 10
1.760000
 20
1.870000
  0
VERTEX
  8
gg1
 10
1.800000
 20
1.870000
  0
SEQEND
  8
gg1
  0
POLYLINE
  8
gg1
 62
1
 40
0.000000
 41
0.000000
 66
  1
  0
VERTEX
  8
gg1
 10
1.780000
 20
1.850000
  0
VERTEX
  8
gg1
 10
1.780000
 20
1.890000
  0
SEQEND
  8
gg1
  0
POLYLINE
  8
gg1
 62
1
 40
0.000000
 41
0.000000
 66
  1
  0
VERTEX
  8
gg1
 10
1.860000
 20
1.870000
  0
VERTEX
  8
gg1
 10
1.900000
 20
1.870000
  0
SEQEND
  8
gg1
  0
POLYLINE
  8
gg1
 62
1
 40
0.000000
 41
0.000000
 66
  1
  0
VERTEX
  8
gg1
 10
1.880000
 20
1.850000
  0
VERTEX
  8
gg1
 10
1.880000
 20
1.890000
  0
SEQEND
  8
gg1
  0
POLYLINE
  8
gg1
 62
1
 40
0.000000
 41
0.000000
 66
  1
  0
VERTEX
  8
gg1
 10
1.960000
 20
1.870000
  0
VERTEX
  8
gg1
 10
2.000000
 20
1.870000
  0
SEQEND
  8
gg1
  0
POLYLINE
  8
gg1
 62
1
 40
0.000000
 41
0.000000
 66
  1
  0
VERTEX
  8
gg1
 10
1.980000
 20
1.850000
  0
VERTEX
  8
gg1
 10
1.980000
 20
1.890000
  0
SEQEND
  8
gg1
  0
POLYLINE
  8
gg1
 62
1
 40
0.000000
 41
0.000000
 66
  1
  0
VERTEX
  8
gg1
 10
2.460000
 20
1.870000
  0
VERTEX
  8
gg1
 10
2.500000
 20
1.870000
  0
SEQEND
  8
gg1
  0
POLYLINE
  8
gg1
 62
1
 40
0.000000
 41
0.000000
 66
  1
  0
VERTEX
  8
gg1
 10
2.480000
 20
1.850000
  0
VERTEX
  8
gg1
 10
2.480000
 20
1.890000
  0
SEQEND
  8
gg1
  0
POLYLINE
  8
gg1
 62
1
 40
0.000000
 41
0.000000
 66
  1
  0
VERTEX
  8
gg1
 10
2.360000
 20
1.870000
  0
VERTEX
  8
gg1
 10
2.400000
 20
1.870000
  0
SEQEND
  8
gg1
  0
POLYLINE
  8
gg1
 62
1
 40
0.000000
 41
0.000000
 66
  1
  0
VERTEX
  8
gg1
 10
2.380000
 20
1.850000
  0
VERTEX
  8
gg1
 10
2.380000
 20
1.890000
  0
SEQEND
  8
gg1
  0
POLYLINE
  8
gg1
 62
1
 40
0.000000
 41
0.000000
 66
  1
  0
VERTEX
  8
gg1
 10
2.260000
 20
1.870000
  0
VERTEX
  8
gg1
 10
2.300000
 20
1.870000
  0
SEQEND
  8
gg1
  0
POLYLINE
  8
gg1
 62
1
 40
0.000000
 41
0.000000
 66
  1
  0
VERTEX
  8
gg1
 10
2.280000
 20
1.850000
  0
VERTEX
  8
gg1
 10
2.280000
 20
1.890000
  0
SEQEND
  8
gg1
  0
POLYLINE
  8
gg1
 62
1
 40
0.000000
 41
0.000000
 66
  1
  0
VERTEX
  8
gg1
 10
2.160000
 20
1.870000
  0
VERTEX
  8
gg1
 10
2.200000
 20
1.870000
  0
SEQEND
  8
gg1
  0
POLYLINE
  8
gg1
 62
1
 40
0.000000
 41
0.000000
 66
  1
  0
VERTEX
  8
gg1
 10
2.180000
 20
1.850000
  0
VERTEX
  8
gg1
 10
2.180000
 20
1.890000
  0
SEQEND
  8
gg1
  0
POLYLINE
  8
gg1
 62
1
 40
0.000000
 41
0.000000
 66
  1
  0
VERTEX
  8
gg1
 10
2.060000
 20
1.870000
  0
VERTEX
  8
gg1
 10
2.100000
 20
1.870000
  0
SEQEND
  8
gg1
  0
POLYLINE
  8
gg1
 62
1
 40
0.000000
 41
0.000000
 66
  1
  0
VERTEX
  8
gg1
 10
2.080000
 20
1.850000
  0
VERTEX
  8
gg1
 10
2.080000
 20
1.890000
  0
SEQEND
  8
gg1
  0
POLYLINE
  8
gg1
 62
1
 40
0.000000
 41
0.000000
 66
  1
  0
VERTEX
  8
gg1
 10
2.209500
 20
2.116900
  0
VERTEX
  8
gg1
 10
2.249500
 20
2.116900
  0
SEQEND
  8
gg1
  0
POLYLINE
  8
gg1
 62
1
 40
0.000000
 41
0.000000
 66
  1
  0
VERTEX
  8
gg1
 10
2.229500
 20
2.096900
  0
VERTEX
  8
gg1
 10
2.229500
 20
2.136900
  0
SEQEND
  8
gg1
  0
POLYLINE
  8
gg1
 62
1
 40
0.000000
 41
0.000000
 66
  1
  0
VERTEX
  8
gg1
 10
2.209500
 20
2.016900
  0
VERTEX
  8
gg1
 10
2.249500
 20
2.016900
  0
SEQEND
  8
gg1
  0
POLYLINE
  8
gg1
 62
1
 40
0.000000
 41
0.000000
 66
  1
  0
VERTEX
  8
gg1
 10
2.229500
 20
1.996900
  0
VERTEX
  8
gg1
 10
2.229500
 20
2.036900
  0
SEQEND
  8
gg1
  0
POLYLINE
  8
gg1
 62
1
 40
0.000000
 41
0.000000
 66
  1
  0
VERTEX
  8
gg1
 10
2.109500
 20
2.116900
  0
VERTEX
  8
gg1
 10
2.149500
 20
2.116900
  0
SEQEND
  8
gg1
  0
POLYLINE
  8
gg1
 62
1
 40
0.000000
 41
0.000000
 66
  1
  0
VERTEX
  8
gg1
 10
2.129500
 20
2.096900
  0
VERTEX
  8
gg1
 10
2.129500
 20
2.136900
  0
SEQEND
  8
gg1
  0
POLYLINE
  8
gg1
 62
1
 40
0.000000
 41
0.000000
 66
  1
  0
VERTEX
  8
gg1
 10
2.109500
 20
2.016900
  0
VERTEX
  8
gg1
 10
2.149500
 20
2.016900
  0
SEQEND
  8
gg1
  0
POLYLINE
  8
gg1
 62
1
 40
0.000000
 41
0.000000
 66
  1
  0
VERTEX
  8
gg1
 10
2.129500
 20
1.996900
  0
VERTEX
  8
gg1
 10
2.129500
 20
2.036900
  0
SEQEND
  8
gg1
  0
POLYLINE
  8
gg1
 62
1
 40
0.000000
 41
0.000000
 66
  1
  0
VERTEX
  8
gg1
 10
2.009500
 20
2.116900
  0
VERTEX
  8
gg1
 10
2.049500
 20
2.116900
  0
SEQEND
  8
gg1
  0
POLYLINE
  8
gg1
 62
1
 40
0.000000
 41
0.000000
 66
  1
  0
VERTEX
  8
gg1
 10
2.029500
 20
2.096900
  0
VERTEX
  8
gg1
 10
2.029500
 20
2.136900
  0
SEQEND
  8
gg1
  0
POLYLINE
  8
gg1
 62
1
 40
0.000000
 41
0.000000
 66
  1
  0
VERTEX
  8
gg1
 10
2.009500
 20
2.016900
  0
VERTEX
  8
gg1
 10
2.049500
 20
2.016900
  0
SEQEND
  8
gg1
  0
POLYLINE
  8
gg1
 62
1
 40
0.000000
 41
0.000000
 66
  1
  0
VERTEX
  8
gg1
 10
2.029500
 20
1.996900
  0
VERTEX
  8
gg1
 10
2.029500
 20
2.036900
  0
SEQEND
  8
gg1
  0
POLYLINE
  8
gg1
 62
1
 40
0.000000
 41
0.000000
 66
  1
  0
VERTEX
  8
gg1
 10
1.909500
 20
2.116900
  0
VERTEX
  8
gg1
 10
1.949500
 20
2.116900
  0
SEQEND
  8
gg1
  0
POLYLINE
  8
gg1
 62
1
 40
0.000000
 41
0.000000
 66
  1
  0
VERTEX
  8
gg1
 10
1.929500
 20
2.096900
  0
VERTEX
  8
gg1
 10
1.929500
 20
2.136900
  0
SEQEND
  8
gg1
  0
POLYLINE
  8
gg1
 62
1
 40
0.000000
 41
0.000000
 66
  1
  0
VERTEX
  8
gg1
 10
1.909500
 20
2.016900
  0
VERTEX
  8
gg1
 10
1.949500
 20
2.016900
  0
SEQEND
  8
gg1
  0
POLYLINE
  8
gg1
 62
1
 40
0.000000
 41
0.000000
 66
  1
  0
VERTEX
  8
gg1
 10
1.929500
 20
1.996900
  0
VERTEX
  8
gg1
 10
1.929500
 20
2.036900
  0
SEQEND
  8
gg1
  0
POLYLINE
  8
gg1
 62
1
 40
0.000000
 41
0.000000
 66
  1
  0
VERTEX
  8
gg1
 10
1.809500
 20
2.116900
  0
VERTEX
  8
gg1
 10
1.849500
 20
2.116900
  0
SEQEND
  8
gg1
  0
POLYLINE
  8
gg1
 62
1
 40
0.000000
 41
0.000000
 66
  1
  0
VERTEX
  8
gg1
 10
1.829500
 20
2.096900
  0
VERTEX
  8
gg1
 10
1.829500
 20
2.136900
  0
SEQEND
  8
gg1
  0
POLYLINE
  8
gg1
 62
1
 40
0.000000
 41
0.000000
 66
  1
  0
VERTEX
  8
gg1
 10
1.809500
 20
2.016900
  0
VERTEX
  8
gg1
 10
1.849500
 20
2.016900
  0
SEQEND
  8
gg1
  0
POLYLINE
  8
gg1
 62
1
 40
0.000000
 41
0.000000
 66
  1
  0
VERTEX
  8
gg1
 10
1.829500
 20
1.996900
  0
VERTEX
  8
gg1
 10
1.829500
 20
2.036900
  0
SEQEND
  8
gg1
  0
POLYLINE
  8
gg1
 62
1
 40
0.000000
 41
0.000000
 66
  1
  0
VERTEX
  8
gg1
 10
1.709500
 20
2.116900
  0
VERTEX
  8
gg1
 10
1.749500
 20
2.116900
  0
SEQEND
  8
gg1
  0
POLYLINE
  8
gg1
 62
1
 40
0.000000
 41
0.000000
 66
  1
  0
VERTEX
  8
gg1
 10
1.729500
 20
2.096900
  0
VERTEX
  8
gg1
 10
1.729500
 20
2.136900
  0
SEQEND
  8
gg1
  0
POLYLINE
  8
gg1
 62
1
 40
0.000000
 41
0.000000
 66
  1
  0
VERTEX
  8
gg1
 10
1.709500
 20
2.016900
  0
VERTEX
  8
gg1
 10
1.749500
 20
2.016900
  0
SEQEND
  8
gg1
  0
POLYLINE
  8
gg1
 62
1
 40
0.000000
 41
0.000000
 66
  1
  0
VERTEX
  8
gg1
 10
1.729500
 20
1.996900
  0
VERTEX
  8
gg1
 10
1.729500
 20
2.036900
  0
SEQEND
  8
gg1
  0
POLYLINE
  8
gg1
 62
1
 40
0.000000
 41
0.000000
 66
  1
  0
VERTEX
  8
gg1
 10
1.609500
 20
2.116900
  0
VERTEX
  8
gg1
 10
1.649500
 20
2.116900
  0
SEQEND
  8
gg1
  0
POLYLINE
  8
gg1
 62
1
 40
0.000000
 41
0.000000
 66
  1
  0
VERTEX
  8
gg1
 10
1.629500
 20
2.096900
  0
VERTEX
  8
gg1
 10
1.629500
 20
2.136900
  0
SEQEND
  8
gg1
  0
POLYLINE
  8
gg1
 62
1
 40
0.000000
 41
0.000000
 66
  1
  0
VERTEX
  8
gg1
 10
1.609500
 20
2.016900
  0
VERTEX
  8
gg1
 10
1.649500
 20
2.016900
  0
SEQEND
  8
gg1
  0
POLYLINE
  8
gg1
 62
1
 40
0.000000
 41
0.000000
 66
  1
  0
VERTEX
  8
gg1
 10
1.629500
 20
1.996900
  0
VERTEX
  8
gg1
 10
1.629500
 20
2.036900
  0
SEQEND
  8
gg1
  0
POLYLINE
  8
gg1
 62
1
 40
0.000000
 41
0.000000
 66
  1
  0
VERTEX
  8
gg1
 10
1.509500
 20
2.116900
  0
VERTEX
  8
gg1
 10
1.549500
 20
2.116900
  0
SEQEND
  8
gg1
  0
POLYLINE
  8
gg1
 62
1
 40
0.000000
 41
0.000000
 66
  1
  0
VERTEX
  8
gg1
 10
1.529500
 20
2.096900
  0
VERTEX
  8
gg1
 10
1.529500
 20
2.136900
  0
SEQEND
  8
gg1
  0
POLYLINE
  8
gg1
 62
1
 40
0.000000
 41
0.000000
 66
  1
  0
VERTEX
  8
gg1
 10
1.509500
 20
2.016900
  0
VERTEX
  8
gg1
 10
1.549500
 20
2.016900
  0
SEQEND
  8
gg1
  0
POLYLINE
  8
gg1
 62
1
 40
0.000000
 41
0.000000
 66
  1
  0
VERTEX
  8
gg1
 10
1.529500
 20
1.996900
  0
VERTEX
  8
gg1
 10
1.529500
 20
2.036900
  0
SEQEND
  8
gg1
  0
POLYLINE
  8
gg1
 62
1
 40
0.000000
 41
0.000000
 66
  1
  0
VERTEX
  8
gg1
 10
1.409500
 20
2.116900
  0
VERTEX
  8
gg1
 10
1.449500
 20
2.116900
  0
SEQEND
  8
gg1
  0
POLYLINE
  8
gg1
 62
1
 40
0.000000
 41
0.000000
 66
  1
  0
VERTEX
  8
gg1
 10
1.429500
 20
2.096900
  0
VERTEX
  8
gg1
 10
1.429500
 20
2.136900
  0
SEQEND
  8
gg1
  0
POLYLINE
  8
gg1
 62
1
 40
0.000000
 41
0.000000
 66
  1
  0
VERTEX
  8
gg1
 10
1.409500
 20
2.016900
  0
VERTEX
  8
gg1
 10
1.449500
 20
2.016900
  0
SEQEND
  8
gg1
  0
POLYLINE
  8
gg1
 62
1
 40
0.000000
 41
0.000000
 66
  1
  0
VERTEX
  8
gg1
 10
1.429500
 20
1.996900
  0
VERTEX
  8
gg1
 10
1.429500
 20
2.036900
  0
SEQEND
  8
gg1
  0
POLYLINE
  8
gg1
 62
1
 40
0.000000
 41
0.000000
 66
  1
  0
VERTEX
  8
gg1
 10
1.309500
 20
2.116900
  0
VERTEX
  8
gg1
 10
1.349500
 20
2.116900
  0
SEQEND
  8
gg1
  0
POLYLINE
  8
gg1
 62
1
 40
0.000000
 41
0.000000
 66
  1
  0
VERTEX
  8
gg1
 10
1.329500
 20
2.096900
  0
VERTEX
  8
gg1
 10
1.329500
 20
2.136900
  0
SEQEND
  8
gg1
  0
POLYLINE
  8
gg1
 62
1
 40
0.000000
 41
0.000000
 66
  1
  0
VERTEX
  8
gg1
 10
1.309500
 20
2.016900
  0
VERTEX
  8
gg1
 10
1.349500
 20
2.016900
  0
SEQEND
  8
gg1
  0
POLYLINE
  8
gg1
 62
1
 40
0.000000
 41
0.000000
 66
  1
  0
VERTEX
  8
gg1
 10
1.329500
 20
1.996900
  0
VERTEX
  8
gg1
 10
1.329500
 20
2.036900
  0
SEQEND
  8
gg1
  0
POLYLINE
  8
gg1
 62
1
 40
0.000000
 41
0.000000
 66
  1
  0
VERTEX
  8
gg1
 10
1.209500
 20
2.116900
  0
VERTEX
  8
gg1
 10
1.249500
 20
2.116900
  0
SEQEND
  8
gg1
  0
POLYLINE
  8
gg1
 62
1
 40
0.000000
 41
0.000000
 66
  1
  0
VERTEX
  8
gg1
 10
1.229500
 20
2.096900
  0
VERTEX
  8
gg1
 10
1.229500
 20
2.136900
  0
SEQEND
  8
gg1
  0
POLYLINE
  8
gg1
 62
1
 40
0.000000
 41
0.000000
 66
  1
  0
VERTEX
  8
gg1
 10
1.209500
 20
2.016900
  0
VERTEX
  8
gg1
 10
1.249500
 20
2.016900
  0
SEQEND
  8
gg1
  0
POLYLINE
  8
gg1
 62
1
 40
0.000000
 41
0.000000
 66
  1
  0
VERTEX
  8
gg1
 10
1.229500
 20
1.996900
  0
VERTEX
  8
gg1
 10
1.229500
 20
2.036900
  0
SEQEND
  8
gg1
  0
POLYLINE
  8
gg1
 62
1
 40
0.000000
 41
0.000000
 66
  1
  0
VERTEX
  8
gg1
 10
1.109500
 20
2.116900
  0
VERTEX
  8
gg1
 10
1.149500
 20
2.116900
  0
SEQEND
  8
gg1
  0
POLYLINE
  8
gg1
 62
1
 40
0.000000
 41
0.000000
 66
  1
  0
VERTEX
  8
gg1
 10
1.129500
 20
2.096900
  0
VERTEX
  8
gg1
 10
1.129500
 20
2.136900
  0
SEQEND
  8
gg1
  0
POLYLINE
  8
gg1
 62
1
 40
0.000000
 41
0.000000
 66
  1
  0
VERTEX
  8
gg1
 10
1.109500
 20
2.016900
  0
VERTEX
  8
gg1
 10
1.149500
 20
2.016900
  0
SEQEND
  8
gg1
  0
POLYLINE
  8
gg1
 62
1
 40
0.000000
 41
0.000000
 66
  1
  0
VERTEX
  8
gg1
 10
1.129500
 20
1.996900
  0
VERTEX
  8
gg1
 10
1.129500
 20
2.036900
  0
SEQEND
  8
gg1
  0
POLYLINE
  8
gg1
 62
1
 40
0.000000
 41
0.000000
 66
  1
  0
VERTEX
  8
gg1
 10
1.009500
 20
2.116900
  0
VERTEX
  8
gg1
 10
1.049500
 20
2.116900
  0
SEQEND
  8
gg1
  0
POLYLINE
  8
gg1
 62
1
 40
0.000000
 41
0.000000
 66
  1
  0
VERTEX
  8
gg1
 10
1.029500
 20
2.096900
  0
VERTEX
  8
gg1
 10
1.029500
 20
2.136900
  0
SEQEND
  8
gg1
  0
POLYLINE
  8
gg1
 62
1
 40
0.000000
 41
0.000000
 66
  1
  0
VERTEX
  8
gg1
 10
1.009500
 20
2.016900
  0
VERTEX
  8
gg1
 10
1.049500
 20
2.016900
  0
SEQEND
  8
gg1
  0
POLYLINE
  8
gg1
 62
1
 40
0.000000
 41
0.000000
 66
  1
  0
VERTEX
  8
gg1
 10
1.029500
 20
1.996900
  0
VERTEX
  8
gg1
 10
1.029500
 20
2.036900
  0
SEQEND
  8
gg1
  0
POLYLINE
  8
gg1
 62
1
 40
0.000000
 41
0.000000
 66
  1
  0
VERTEX
  8
gg1
 10
0.909500
 20
2.116900
  0
VERTEX
  8
gg1
 10
0.949500
 20
2.116900
  0
SEQEND
  8
gg1
  0
POLYLINE
  8
gg1
 62
1
 40
0.000000
 41
0.000000
 66
  1
  0
VERTEX
  8
gg1
 10
0.929500
 20
2.096900
  0
VERTEX
  8
gg1
 10
0.929500
 20
2.136900
  0
SEQEND
  8
gg1
  0
POLYLINE
  8
gg1
 62
1
 40
0.000000
 41
0.000000
 66
  1
  0
VERTEX
  8
gg1
 10
0.909500
 20
2.016900
  0
VERTEX
  8
gg1
 10
0.949500
 20
2.016900
  0
SEQEND
  8
gg1
  0
POLYLINE
  8
gg1
 62
1
 40
0.000000
 41
0.000000
 66
  1
  0
VERTEX
  8
gg1
 10
0.929500
 20
1.996900
  0
VERTEX
  8
gg1
 10
0.929500
 20
2.036900
  0
SEQEND
  8
gg1
  0
POLYLINE
  8
gg1
 62
1
 40
0.000000
 41
0.000000
 66
  1
  0
VERTEX
  8
gg1
 10
0.809500
 20
2.116900
  0
VERTEX
  8
gg1
 10
0.849500
 20
2.116900
  0
SEQEND
  8
gg1
  0
POLYLINE
  8
gg1
 62
1
 40
0.000000
 41
0.000000
 66
  1
  0
VERTEX
  8
gg1
 10
0.829500
 20
2.096900
  0
VERTEX
  8
gg1
 10
0.829500
 20
2.136900
  0
SEQEND
  8
gg1
  0
POLYLINE
  8
gg1
 62
1
 40
0.000000
 41
0.000000
 66
  1
  0
VERTEX
  8
gg1
 10
0.809500
 20
2.016900
  0
VERTEX
  8
gg1
 10
0.849500
 20
2.016900
  0
SEQEND
  8
gg1
  0
POLYLINE
  8
gg1
 62
1
 40
0.000000
 41
0.000000
 66
  1
  0
VERTEX
  8
gg1
 10
0.829500
 20
1.996900
  0
VERTEX
  8
gg1
 10
0.829500
 20
2.036900
  0
SEQEND
  8
gg1
  0
POLYLINE
  8
gg1
 62
1
 40
0.000000
 41
0.000000
 66
  1
  0
VERTEX
  8
gg1
 10
0.709500
 20
2.116900
  0
VERTEX
  8
gg1
 10
0.749500
 20
2.116900
  0
SEQEND
  8
gg1
  0
POLYLINE
  8
gg1
 62
1
 40
0.000000
 41
0.000000
 66
  1
  0
VERTEX
  8
gg1
 10
0.729500
 20
2.096900
  0
VERTEX
  8
gg1
 10
0.729500
 20
2.136900
  0
SEQEND
  8
gg1
  0
POLYLINE
  8
gg1
 62
1
 40
0.000000
 41
0.000000
 66
  1
  0
VERTEX
  8
gg1
 10
0.709500
 20
2.016900
  0
VERTEX
  8
gg1
 10
0.749500
 20
2.016900
  0
SEQEND
  8
gg1
  0
POLYLINE
  8
gg1
 62
1
 40
0.000000
 41
0.000000
 66
  1
  0
VERTEX
  8
gg1
 10
0.729500
 20
1.996900
  0
VERTEX
  8
gg1
 10
0.729500
 20
2.036900
  0
SEQEND
  8
gg1
  0
POLYLINE
  8
gg1
 62
1
 40
0.000000
 41
0.000000
 66
  1
  0
VERTEX
  8
gg1
 10
0.609500
 20
2.116900
  0
VERTEX
  8
gg1
 10
0.649500
 20
2.116900
  0
SEQEND
  8
gg1
  0
POLYLINE
  8
gg1
 62
1
 40
0.000000
 41
0.000000
 66
  1
  0
VERTEX
  8
gg1
 10
0.629500
 20
2.096900
  0
VERTEX
  8
gg1
 10
0.629500
 20
2.136900
  0
SEQEND
  8
gg1
  0
POLYLINE
  8
gg1
 62
1
 40
0.000000
 41
0.000000
 66
  1
  0
VERTEX
  8
gg1
 10
0.609500
 20
2.016900
  0
VERTEX
  8
gg1
 10
0.649500
 20
2.016900
  0
SEQEND
  8
gg1
  0
POLYLINE
  8
gg1
 62
1
 40
0.000000
 41
0.000000
 66
  1
  0
VERTEX
  8
gg1
 10
0.629500
 20
1.996900
  0
VERTEX
  8
gg1
 10
0.629500
 20
2.036900
  0
SEQEND
  8
gg1
  0
POLYLINE
  8
gg1
 62
1
 40
0.000000
 41
0.000000
 66
  1
  0
VERTEX
  8
gg1
 10
0.509500
 20
2.116900
  0
VERTEX
  8
gg1
 10
0.549500
 20
2.116900
  0
SEQEND
  8
gg1
  0
POLYLINE
  8
gg1
 62
1
 40
0.000000
 41
0.000000
 66
  1
  0
VERTEX
  8
gg1
 10
0.529500
 20
2.096900
  0
VERTEX
  8
gg1
 10
0.529500
 20
2.136900
  0
SEQEND
  8
gg1
  0
POLYLINE
  8
gg1
 62
1
 40
0.000000
 41
0.000000
 66
  1
  0
VERTEX
  8
gg1
 10
0.509500
 20
2.016900
  0
VERTEX
  8
gg1
 10
0.549500
 20
2.016900
  0
SEQEND
  8
gg1
  0
POLYLINE
  8
gg1
 62
1
 40
0.000000
 41
0.000000
 66
  1
  0
VERTEX
  8
gg1
 10
0.529500
 20
1.996900
  0
VERTEX
  8
gg1
 10
0.529500
 20
2.036900
  0
SEQEND
  8
gg1
  0
POLYLINE
  8
gg1
 62
1
 40
0.000000
 41
0.000000
 66
  1
  0
VERTEX
  8
gg1
 10
0.409500
 20
2.116900
  0
VERTEX
  8
gg1
 10
0.449500
 20
2.116900
  0
SEQEND
  8
gg1
  0
POLYLINE
  8
gg1
 62
1
 40
0.000000
 41
0.000000
 66
  1
  0
VERTEX
  8
gg1
 10
0.429500
 20
2.096900
  0
VERTEX
  8
gg1
 10
0.429500
 20
2.136900
  0
SEQEND
  8
gg1
  0
POLYLINE
  8
gg1
 62
1
 40
0.000000
 41
0.000000
 66
  1
  0
VERTEX
  8
gg1
 10
0.409500
 20
2.016900
  0
VERTEX
  8
gg1
 10
0.449500
 20
2.016900
  0
SEQEND
  8
gg1
  0
POLYLINE
  8
gg1
 62
1
 40
0.000000
 41
0.000000
 66
  1
  0
VERTEX
  8
gg1
 10
0.429500
 20
1.996900
  0
VERTEX
  8
gg1
 10
0.429500
 20
2.036900
  0
SEQEND
  8
gg1
  0
POLYLINE
  8
gg1
 62
1
 40
0.000000
 41
0.000000
 66
  1
  0
VERTEX
  8
gg1
 10
0.309500
 20
2.116900
  0
VERTEX
  8
gg1
 10
0.349500
 20
2.116900
  0
SEQEND
  8
gg1
  0
POLYLINE
  8
gg1
 62
1
 40
0.000000
 41
0.000000
 66
  1
  0
VERTEX
  8
gg1
 10
0.329500
 20
2.096900
  0
VERTEX
  8
gg1
 10
0.329500
 20
2.136900
  0
SEQEND
  8
gg1
  0
POLYLINE
  8
gg1
 62
1
 40
0.000000
 41
0.000000
 66
  1
  0
VERTEX
  8
gg1
 10
0.309500
 20
2.016900
  0
VERTEX
  8
gg1
 10
0.349500
 20
2.016900
  0
SEQEND
  8
gg1
  0
POLYLINE
  8
gg1
 62
1
 40
0.000000
 41
0.000000
 66
  1
  0
VERTEX
  8
gg1
 10
0.329500
 20
1.996900
  0
VERTEX
  8
gg1
 10
0.329500
 20
2.036900
  0
SEQEND
  8
gg1
  0
POLYLINE
  8
gg1
 62
1
 40
0.000000
 41
0.000000
 66
  1
  0
VERTEX
  8
gg1
 10
2.297500
 20
0.600000
  0
VERTEX
  8
gg1
 10
2.342500
 20
0.600000
  0
SEQEND
  8
gg1
  0
POLYLINE
  8
gg1
 62
1
 40
0.000000
 41
0.000000
 66
  1
  0
VERTEX
  8
gg1
 10
2.320000
 20
0.577500
  0
VERTEX
  8
gg1
 10
2.320000
 20
0.622500
  0
SEQEND
  8
gg1
  0
POLYLINE
  8
gg1
 62
1
 40
0.000000
 41
0.000000
 66
  1
  0
VERTEX
  8
gg1
 10
2.002200
 20
0.600000
  0
VERTEX
  8
gg1
 10
2.047200
 20
0.600000
  0
SEQEND
  8
gg1
  0
POLYLINE
  8
gg1
 62
1
 40
0.000000
 41
0.000000
 66
  1
  0
VERTEX
  8
gg1
 10
2.024700
 20
0.577500
  0
VERTEX
  8
gg1
 10
2.024700
 20
0.622500
  0
SEQEND
  8
gg1
  0
POLYLINE
  8
gg1
 62
1
 40
0.000000
 41
0.000000
 66
  1
  0
VERTEX
  8
gg1
 10
2.070000
 20
1.200000
  0
VERTEX
  8
gg1
 10
2.090000
 20
1.200000
  0
SEQEND
  8
gg1
  0
POLYLINE
  8
gg1
 62
1
 40
0.000000
 41
0.000000
 66
  1
  0
VERTEX
  8
gg1
 10
2.080000
 20
1.190000
  0
VERTEX
  8
gg1
 10
2.080000
 20
1.210000
  0
SEQEND
  8
gg1
  0
POLYLINE
  8
gg1
 62
1
 40
0.000000
 41
0.000000
 66
  1
  0
VERTEX
  8
gg1
 10
2.130000
 20
1.270000
  0
VERTEX
  8
gg1
 10
2.150000
 20
1.270000
  0
SEQEND
  8
gg1
  0
POLYLINE
  8
gg1
 62
1
 40
0.000000
 41
0.000000
 66
  1
  0
VERTEX
  8
gg1
 10
2.140000
 20
1.260000
  0
VERTEX
  8
gg1
 10
2.140000
 20
1.280000
  0
SEQEND
  8
gg1
  0
POLYLINE
  8
gg1
 62
1
 40
0.000000
 41
0.000000
 66
  1
  0
VERTEX
  8
gg1
 10
2.185000
 20
1.105000
  0
VERTEX
  8
gg1
 10
2.205000
 20
1.105000
  0
SEQEND
  8
gg1
  0
POLYLINE
  8
gg1
 62
1
 40
0.000000
 41
0.000000
 66
  1
  0
VERTEX
  8
gg1
 10
2.195000
 20
1.095000
  0
VERTEX
  8
gg1
 10
2.195000
 20
1.115000
  0
SEQEND
  8
gg1
  0
POLYLINE
  8
gg1
 62
1
 40
0.000000
 41
0.000000
 66
  1
  0
VERTEX
  8
gg1
 10
1.460000
 20
1.690000
  0
VERTEX
  8
gg1
 10
1.480000
 20
1.690000
  0
SEQEND
  8
gg1
  0
POLYLINE
  8
gg1
 62
1
 40
0.000000
 41
0.000000
 66
  1
  0
VERTEX
  8
gg1
 10
1.470000
 20
1.680000
  0
VERTEX
  8
gg1
 10
1.470000
 20
1.700000
  0
SEQEND
  8
gg1
  0
POLYLINE
  8
gg1
 62
1
 40
0.000000
 41
0.000000
 66
  1
  0
VERTEX
  8
gg1
 10
1.565000
 20
1.680000
  0
VERTEX
  8
gg1
 10
1.585000
 20
1.680000
  0
SEQEND
  8
gg1
  0
POLYLINE
  8
gg1
 62
1
 40
0.000000
 41
0.000000
 66
  1
  0
VERTEX
  8
gg1
 10
1.575000
 20
1.670000
  0
VERTEX
  8
gg1
 10
1.575000
 20
1.690000
  0
SEQEND
  8
gg1
  0
POLYLINE
  8
gg1
 62
1
 40
0.000000
 41
0.000000
 66
  1
  0
VERTEX
  8
gg1
 10
1.530000
 20
1.530000
  0
VERTEX
  8
gg1
 10
1.550000
 20
1.530000
  0
SEQEND
  8
gg1
  0
POLYLINE
  8
gg1
 62
1
 40
0.000000
 41
0.000000
 66
  1
  0
VERTEX
  8
gg1
 10
1.540000
 20
1.520000
  0
VERTEX
  8
gg1
 10
1.540000
 20
1.540000
  0
SEQEND
  8
gg1
  0
POLYLINE
  8
gg1
 62
1
 40
0.000000
 41
0.000000
 66
  1
  0
VERTEX
  8
gg1
 10
1.460000
 20
1.590000
  0
VERTEX
  8
gg1
 10
1.480000
 20
1.590000
  0
SEQEND
  8
gg1
  0
POLYLINE
  8
gg1
 62
1
 40
0.000000
 41
0.000000
 66
  1
  0
VERTEX
  8
gg1
 10
1.470000
 20
1.580000
  0
VERTEX
  8
gg1
 10
1.470000
 20
1.600000
  0
SEQEND
  8
gg1
  0
POLYLINE
  8
gg1
 62
1
 40
0.000000
 41
0.000000
 66
  1
  0
VERTEX
  8
gg1
 10
1.760000
 20
1.770000
  0
VERTEX
  8
gg1
 10
1.800000
 20
1.770000
  0
SEQEND
  8
gg1
  0
POLYLINE
  8
gg1
 62
1
 40
0.000000
 41
0.000000
 66
  1
  0
VERTEX
  8
gg1
 10
1.780000
 20
1.750000
  0
VERTEX
  8
gg1
 10
1.780000
 20
1.790000
  0
SEQEND
  8
gg1
  0
POLYLINE
  8
gg1
 62
1
 40
0.000000
 41
0.000000
 66
  1
  0
VERTEX
  8
gg1
 10
1.960000
 20
1.770000
  0
VERTEX
  8
gg1
 10
2.000000
 20
1.770000
  0
SEQEND
  8
gg1
  0
POLYLINE
  8
gg1
 62
1
 40
0.000000
 41
0.000000
 66
  1
  0
VERTEX
  8
gg1
 10
1.980000
 20
1.750000
  0
VERTEX
  8
gg1
 10
1.980000
 20
1.790000
  0
SEQEND
  8
gg1
  0
POLYLINE
  8
gg1
 62
1
 40
0.000000
 41
0.000000
 66
  1
  0
VERTEX
  8
gg1
 10
2.060000
 20
1.770000
  0
VERTEX
  8
gg1
 10
2.100000
 20
1.770000
  0
SEQEND
  8
gg1
  0
POLYLINE
  8
gg1
 62
1
 40
0.000000
 41
0.000000
 66
  1
  0
VERTEX
  8
gg1
 10
2.080000
 20
1.750000
  0
VERTEX
  8
gg1
 10
2.080000
 20
1.790000
  0
SEQEND
  8
gg1
  0
POLYLINE
  8
gg1
 62
1
 40
0.000000
 41
0.000000
 66
  1
  0
VERTEX
  8
gg1
 10
1.860000
 20
1.770000
  0
VERTEX
  8
gg1
 10
1.900000
 20
1.770000
  0
SEQEND
  8
gg1
  0
POLYLINE
  8
gg1
 62
1
 40
0.000000
 41
0.000000
 66
  1
  0
VERTEX
  8
gg1
 10
1.880000
 20
1.750000
  0
VERTEX
  8
gg1
 10
1.880000
 20
1.790000
  0
SEQEND
  8
gg1
  0
POLYLINE
  8
gg1
 62
1
 40
0.000000
 41
0.000000
 66
  1
  0
VERTEX
  8
gg1
 10
1.060000
 20
1.770000
  0
VERTEX
  8
gg1
 10
1.100000
 20
1.770000
  0
SEQEND
  8
gg1
  0
POLYLINE
  8
gg1
 62
1
 40
0.000000
 41
0.000000
 66
  1
  0
VERTEX
  8
gg1
 10
1.080000
 20
1.750000
  0
VERTEX
  8
gg1
 10
1.080000
 20
1.790000
  0
SEQEND
  8
gg1
  0
POLYLINE
  8
gg1
 62
1
 40
0.000000
 41
0.000000
 66
  1
  0
VERTEX
  8
gg1
 10
1.160000
 20
1.770000
  0
VERTEX
  8
gg1
 10
1.200000
 20
1.770000
  0
SEQEND
  8
gg1
  0
POLYLINE
  8
gg1
 62
1
 40
0.000000
 41
0.000000
 66
  1
  0
VERTEX
  8
gg1
 10
1.180000
 20
1.750000
  0
VERTEX
  8
gg1
 10
1.180000
 20
1.790000
  0
SEQEND
  8
gg1
  0
POLYLINE
  8
gg1
 62
1
 40
0.000000
 41
0.000000
 66
  1
  0
VERTEX
  8
gg1
 10
0.860000
 20
1.770000
  0
VERTEX
  8
gg1
 10
0.900000
 20
1.770000
  0
SEQEND
  8
gg1
  0
POLYLINE
  8
gg1
 62
1
 40
0.000000
 41
0.000000
 66
  1
  0
VERTEX
  8
gg1
 10
0.880000
 20
1.750000
  0
VERTEX
  8
gg1
 10
0.880000
 20
1.790000
  0
SEQEND
  8
gg1
  0
POLYLINE
  8
gg1
 62
1
 40
0.000000
 41
0.000000
 66
  1
  0
VERTEX
  8
gg1
 10
0.295000
 20
1.350000
  0
VERTEX
  8
gg1
 10
0.335000
 20
1.350000
  0
SEQEND
  8
gg1
  0
POLYLINE
  8
gg1
 62
1
 40
0.000000
 41
0.000000
 66
  1
  0
VERTEX
  8
gg1
 10
0.315000
 20
1.330000
  0
VERTEX
  8
gg1
 10
0.315000
 20
1.370000
  0
SEQEND
  8
gg1
  0
POLYLINE
  8
gg1
 62
1
 40
0.000000
 41
0.000000
 66
  1
  0
VERTEX
  8
gg1
 10
0.295000
 20
1.250000
  0
VERTEX
  8
gg1
 10
0.335000
 20
1.250000
  0
SEQEND
  8
gg1
  0
POLYLINE
  8
gg1
 62
1
 40
0.000000
 41
0.000000
 66
  1
  0
VERTEX
  8
gg1
 10
0.315000
 20
1.230000
  0
VERTEX
  8
gg1
 10
0.315000
 20
1.270000
  0
SEQEND
  8
gg1
  0
POLYLINE
  8
gg1
 62
1
 40
0.000000
 41
0.000000
 66
  1
  0
VERTEX
  8
gg1
 10
0.295000
 20
1.150000
  0
VERTEX
  8
gg1
 10
0.335000
 20
1.150000
  0
SEQEND
  8
gg1
  0
POLYLINE
  8
gg1
 62
1
 40
0.000000
 41
0.000000
 66
  1
  0
VERTEX
  8
gg1
 10
0.315000
 20
1.130000
  0
VERTEX
  8
gg1
 10
0.315000
 20
1.170000
  0
SEQEND
  8
gg1
  0
POLYLINE
  8
gg1
 62
1
 40
0.000000
 41
0.000000
 66
  1
  0
VERTEX
  8
gg1
 10
0.960000
 20
1.770000
  0
VERTEX
  8
gg1
 10
1.000000
 20
1.770000
  0
SEQEND
  8
gg1
  0
POLYLINE
  8
gg1
 62
1
 40
0.000000
 41
0.000000
 66
  1
  0
VERTEX
  8
gg1
 10
0.980000
 20
1.750000
  0
VERTEX
  8
gg1
 10
0.980000
 20
1.790000
  0
SEQEND
  8
gg1
  0
POLYLINE
  8
gg1
 62
1
 40
0.000000
 41
0.000000
 66
  1
  0
VERTEX
  8
gg1
 10
0.280000
 20
1.565000
  0
VERTEX
  8
gg1
 10
0.320000
 20
1.565000
  0
SEQEND
  8
gg1
  0
POLYLINE
  8
gg1
 62
1
 40
0.000000
 41
0.000000
 66
  1
  0
VERTEX
  8
gg1
 10
0.300000
 20
1.545000
  0
VERTEX
  8
gg1
 10
0.300000
 20
1.585000
  0
SEQEND
  8
gg1
  0
POLYLINE
  8
gg1
 62
1
 40
0.000000
 41
0.000000
 66
  1
  0
VERTEX
  8
gg1
 10
0.280000
 20
1.665000
  0
VERTEX
  8
gg1
 10
0.320000
 20
1.665000
  0
SEQEND
  8
gg1
  0
POLYLINE
  8
gg1
 62
1
 40
0.000000
 41
0.000000
 66
  1
  0
VERTEX
  8
gg1
 10
0.300000
 20
1.645000
  0
VERTEX
  8
gg1
 10
0.300000
 20
1.685000
  0
SEQEND
  8
gg1
  0
POLYLINE
  8
gg1
 62
1
 40
0.000000
 41
0.000000
 66
  1
  0
VERTEX
  8
gg1
 10
2.367100
 20
2.066900
  0
VERTEX
  8
gg1
 10
2.475400
 20
2.066900
  0
SEQEND
  8
gg1
  0
POLYLINE
  8
gg1
 62
1
 40
0.000000
 41
0.000000
 66
  1
  0
VERTEX
  8
gg1
 10
2.421300
 20
2.012800
  0
VERTEX
  8
gg1
 10
2.421300
 20
2.121100
  0
SEQEND
  8
gg1
  0
POLYLINE
  8
gg1
 62
1
 40
0.000000
 41
0.000000
 66
  1
  0
VERTEX
  8
gg1
 10
0.140000
 20
0.705000
  0
VERTEX
  8
gg1
 10
0.180000
 20
0.705000
  0
SEQEND
  8
gg1
  0
POLYLINE
  8
gg1
 62
1
 40
0.000000
 41
0.000000
 66
  1
  0
VERTEX
  8
gg1
 10
0.160000
 20
0.685000
  0
VERTEX
  8
gg1
 10
0.160000
 20
0.725000
  0
SEQEND
  8
gg1
  0
POLYLINE
  8
gg1
 62
1
 40
0.000000
 41
0.000000
 66
  1
  0
VERTEX
  8
gg1
 10
2.460000
 20
1.770000
  0
VERTEX
  8
gg1
 10
2.500000
 20
1.770000
  0
SEQEND
  8
gg1
  0
POLYLINE
  8
gg1
 62
1
 40
0.000000
 41
0.000000
 66
  1
  0
VERTEX
  8
gg1
 10
2.480000
 20
1.750000
  0
VERTEX
  8
gg1
 10
2.480000
 20
1.790000
  0
SEQEND
  8
gg1
  0
POLYLINE
  8
gg1
 62
1
 40
0.000000
 41
0.000000
 66
  1
  0
VERTEX
  8
gg1
 10
1.210000
 20
0.105000
  0
VERTEX
  8
gg1
 10
1.250000
 20
0.105000
  0
SEQEND
  8
gg1
  0
POLYLINE
  8
gg1
 62
1
 40
0.000000
 41
0.000000
 66
  1
  0
VERTEX
  8
gg1
 10
1.230000
 20
0.085000
  0
VERTEX
  8
gg1
 10
1.230000
 20
0.125000
  0
SEQEND
  8
gg1
  0
POLYLINE
  8
gg1
 62
1
 40
0.000000
 41
0.000000
 66
  1
  0
VERTEX
  8
gg1
 10
1.110000
 20
0.105000
  0
VERTEX
  8
gg1
 10
1.150000
 20
0.105000
  0
SEQEND
  8
gg1
  0
POLYLINE
  8
gg1
 62
1
 40
0.000000
 41
0.000000
 66
  1
  0
VERTEX
  8
gg1
 10
1.130000
 20
0.085000
  0
VERTEX
  8
gg1
 10
1.130000
 20
0.125000
  0
SEQEND
  8
gg1
  0
POLYLINE
  8
gg1
 62
1
 40
0.000000
 41
0.000000
 66
  1
  0
VERTEX
  8
gg1
 10
1.010000
 20
0.105000
  0
VERTEX
  8
gg1
 10
1.050000
 20
0.105000
  0
SEQEND
  8
gg1
  0
POLYLINE
  8
gg1
 62
1
 40
0.000000
 41
0.000000
 66
  1
  0
VERTEX
  8
gg1
 10
1.030000
 20
0.085000
  0
VERTEX
  8
gg1
 10
1.030000
 20
0.125000
  0
SEQEND
  8
gg1
  0
POLYLINE
  8
gg1
 62
1
 40
0.000000
 41
0.000000
 66
  1
  0
VERTEX
  8
gg1
 10
0.910000
 20
0.105000
  0
VERTEX
  8
gg1
 10
0.950000
 20
0.105000
  0
SEQEND
  8
gg1
  0
POLYLINE
  8
gg1
 62
1
 40
0.000000
 41
0.000000
 66
  1
  0
VERTEX
  8
gg1
 10
0.930000
 20
0.085000
  0
VERTEX
  8
gg1
 10
0.930000
 20
0.125000
  0
SEQEND
  8
gg1
  0
POLYLINE
  8
gg1
 62
1
 40
0.000000
 41
0.000000
 66
  1
  0
VERTEX
  8
gg1
 10
0.410000
 20
0.105000
  0
VERTEX
  8
gg1
 10
0.450000
 20
0.105000
  0
SEQEND
  8
gg1
  0
POLYLINE
  8
gg1
 62
1
 40
0.000000
 41
0.000000
 66
  1
  0
VERTEX
  8
gg1
 10
0.430000
 20
0.085000
  0
VERTEX
  8
gg1
 10
0.430000
 20
0.125000
  0
SEQEND
  8
gg1
  0
POLYLINE
  8
gg1
 62
1
 40
0.000000
 41
0.000000
 66
  1
  0
VERTEX
  8
gg1
 10
0.510000
 20
0.105000
  0
VERTEX
  8
gg1
 10
0.550000
 20
0.105000
  0
SEQEND
  8
gg1
  0
POLYLINE
  8
gg1
 62
1
 40
0.000000
 41
0.000000
 66
  1
  0
VERTEX
  8
gg1
 10
0.530000
 20
0.085000
  0
VERTEX
  8
gg1
 10
0.530000
 20
0.125000
  0
SEQEND
  8
gg1
  0
POLYLINE
  8
gg1
 62
1
 40
0.000000
 41
0.000000
 66
  1
  0
VERTEX
  8
gg1
 10
0.610000
 20
0.105000
  0
VERTEX
  8
gg1
 10
0.650000
 20
0.105000
  0
SEQEND
  8
gg1
  0
POLYLINE
  8
gg1
 62
1
 40
0.000000
 41
0.000000
 66
  1
  0
VERTEX
  8
gg1
 10
0.630000
 20
0.085000
  0
VERTEX
  8
gg1
 10
0.630000
 20
0.125000
  0
SEQEND
  8
gg1
  0
POLYLINE
  8
gg1
 62
1
 40
0.000000
 41
0.000000
 66
  1
  0
VERTEX
  8
gg1
 10
0.710000
 20
0.105000
  0
VERTEX
  8
gg1
 10
0.750000
 20
0.105000
  0
SEQEND
  8
gg1
  0
POLYLINE
  8
gg1
 62
1
 40
0.000000
 41
0.000000
 66
  1
  0
VERTEX
  8
gg1
 10
0.730000
 20
0.085000
  0
VERTEX
  8
gg1
 10
0.730000
 20
0.125000
  0
SEQEND
  8
gg1
  0
POLYLINE
  8
gg1
 62
1
 40
0.000000
 41
0.000000
 66
  1
  0
VERTEX
  8
gg1
 10
0.810000
 20
0.105000
  0
VERTEX
  8
gg1
 10
0.850000
 20
0.105000
  0
SEQEND
  8
gg1
  0
POLYLINE
  8
gg1
 62
1
 40
0.000000
 41
0.000000
 66
  1
  0
VERTEX
  8
gg1
 10
0.830000
 20
0.085000
  0
VERTEX
  8
gg1
 10
0.830000
 20
0.125000
  0
SEQEND
  8
gg1
  0
POLYLINE
  8
gg1
 62
1
 40
0.000000
 41
0.000000
 66
  1
  0
VERTEX
  8
gg1
 10
1.310000
 20
0.105000
  0
VERTEX
  8
gg1
 10
1.350000
 20
0.105000
  0
SEQEND
  8
gg1
  0
POLYLINE
  8
gg1
 62
1
 40
0.000000
 41
0.000000
 66
  1
  0
VERTEX
  8
gg1
 10
1.330000
 20
0.085000
  0
VERTEX
  8
gg1
 10
1.330000
 20
0.125000
  0
SEQEND
  8
gg1
  0
POLYLINE
  8
gg1
 62
1
 40
0.000000
 41
0.000000
 66
  1
  0
VERTEX
  8
gg1
 10
1.410000
 20
0.105000
  0
VERTEX
  8
gg1
 10
1.450000
 20
0.105000
  0
SEQEND
  8
gg1
  0
POLYLINE
  8
gg1
 62
1
 40
0.000000
 41
0.000000
 66
  1
  0
VERTEX
  8
gg1
 10
1.430000
 20
0.085000
  0
VERTEX
  8
gg1
 10
1.430000
 20
0.125000
  0
SEQEND
  8
gg1
  0
POLYLINE
  8
gg1
 62
1
 40
0.000000
 41
0.000000
 66
  1
  0
VERTEX
  8
gg1
 10
1.510000
 20
0.105000
  0
VERTEX
  8
gg1
 10
1.550000
 20
0.105000
  0
SEQEND
  8
gg1
  0
POLYLINE
  8
gg1
 62
1
 40
0.000000
 41
0.000000
 66
  1
  0
VERTEX
  8
gg1
 10
1.530000
 20
0.085000
  0
VERTEX
  8
gg1
 10
1.530000
 20
0.125000
  0
SEQEND
  8
gg1
  0
POLYLINE
  8
gg1
 62
1
 40
0.000000
 41
0.000000
 66
  1
  0
VERTEX
  8
gg1
 10
1.875000
 20
1.415000
  0
VERTEX
  8
gg1
 10
1.895000
 20
1.415000
  0
SEQEND
  8
gg1
  0
POLYLINE
  8
gg1
 62
1
 40
0.000000
 41
0.000000
 66
  1
  0
VERTEX
  8
gg1
 10
1.885000
 20
1.405000
  0
VERTEX
  8
gg1
 10
1.885000
 20
1.425000
  0
SEQEND
  8
gg1
  0
POLYLINE
  8
gg1
 62
1
 40
0.000000
 41
0.000000
 66
  1
  0
VERTEX
  8
gg1
 10
0.249100
 20
0.375900
  0
VERTEX
  8
gg1
 10
0.269100
 20
0.375900
  0
SEQEND
  8
gg1
  0
POLYLINE
  8
gg1
 62
1
 40
0.000000
 41
0.000000
 66
  1
  0
VERTEX
  8
gg1
 10
0.259100
 20
0.365900
  0
VERTEX
  8
gg1
 10
0.259100
 20
0.385900
  0
SEQEND
  8
gg1
  0
POLYLINE
  8
gg1
 62
1
 40
0.000000
 41
0.000000
 66
  1
  0
VERTEX
  8
gg1
 10
2.065000
 20
1.370000
  0
VERTEX
  8
gg1
 10
2.085000
 20
1.370000
  0
SEQEND
  8
gg1
  0
POLYLINE
  8
gg1
 62
1
 40
0.000000
 41
0.000000
 66
  1
  0
VERTEX
  8
gg1
 10
2.075000
 20
1.360000
  0
VERTEX
  8
gg1
 10
2.075000
 20
1.380000
  0
SEQEND
  8
gg1
  0
POLYLINE
  8
gg1
 62
1
 40
0.000000
 41
0.000000
 66
  1
  0
VERTEX
  8
gg1
 10
2.460000
 20
1.370000
  0
VERTEX
  8
gg1
 10
2.500000
 20
1.370000
  0
SEQEND
  8
gg1
  0
POLYLINE
  8
gg1
 62
1
 40
0.000000
 41
0.000000
 66
  1
  0
VERTEX
  8
gg1
 10
2.480000
 20
1.350000
  0
VERTEX
  8
gg1
 10
2.480000
 20
1.390000
  0
SEQEND
  8
gg1
  0
POLYLINE
  8
gg1
 62
1
 40
0.000000
 41
0.000000
 66
  1
  0
VERTEX
  8
gg1
 10
2.360000
 20
1.370000
  0
VERTEX
  8
gg1
 10
2.400000
 20
1.370000
  0
SEQEND
  8
gg1
  0
POLYLINE
  8
gg1
 62
1
 40
0.000000
 41
0.000000
 66
  1
  0
VERTEX
  8
gg1
 10
2.380000
 20
1.350000
  0
VERTEX
  8
gg1
 10
2.380000
 20
1.390000
  0
SEQEND
  8
gg1
  0
POLYLINE
  8
gg1
 62
1
 40
0.000000
 41
0.000000
 66
  1
  0
VERTEX
  8
gg1
 10
2.460000
 20
1.270000
  0
VERTEX
  8
gg1
 10
2.500000
 20
1.270000
  0
SEQEND
  8
gg1
  0
POLYLINE
  8
gg1
 62
1
 40
0.000000
 41
0.000000
 66
  1
  0
VERTEX
  8
gg1
 10
2.480000
 20
1.250000
  0
VERTEX
  8
gg1
 10
2.480000
 20
1.290000
  0
SEQEND
  8
gg1
  0
POLYLINE
  8
gg1
 62
1
 40
0.000000
 41
0.000000
 66
  1
  0
VERTEX
  8
gg1
 10
2.360000
 20
1.270000
  0
VERTEX
  8
gg1
 10
2.400000
 20
1.270000
  0
SEQEND
  8
gg1
  0
POLYLINE
  8
gg1
 62
1
 40
0.000000
 41
0.000000
 66
  1
  0
VERTEX
  8
gg1
 10
2.380000
 20
1.250000
  0
VERTEX
  8
gg1
 10
2.380000
 20
1.290000
  0
SEQEND
  8
gg1
  0
POLYLINE
  8
gg1
 62
1
 40
0.000000
 41
0.000000
 66
  1
  0
VERTEX
  8
gg1
 10
2.460000
 20
1.170000
  0
VERTEX
  8
gg1
 10
2.500000
 20
1.170000
  0
SEQEND
  8
gg1
  0
POLYLINE
  8
gg1
 62
1
 40
0.000000
 41
0.000000
 66
  1
  0
VERTEX
  8
gg1
 10
2.480000
 20
1.150000
  0
VERTEX
  8
gg1
 10
2.480000
 20
1.190000
  0
SEQEND
  8
gg1
  0
POLYLINE
  8
gg1
 62
1
 40
0.000000
 41
0.000000
 66
  1
  0
VERTEX
  8
gg1
 10
2.360000
 20
1.170000
  0
VERTEX
  8
gg1
 10
2.400000
 20
1.170000
  0
SEQEND
  8
gg1
  0
POLYLINE
  8
gg1
 62
1
 40
0.000000
 41
0.000000
 66
  1
  0
VERTEX
  8
gg1
 10
2.380000
 20
1.150000
  0
VERTEX
  8
gg1
 10
2.380000
 20
1.190000
  0
SEQEND
  8
gg1
  0
POLYLINE
  8
gg1
 62
1
 40
0.000000
 41
0.000000
 66
  1
  0
VERTEX
  8
gg1
 10
1.232300
 20
0.175000
  0
VERTEX
  8
gg1
 10
1.318300
 20
0.175000
  0
SEQEND
  8
gg1
  0
POLYLINE
  8
gg1
 62
1
 40
0.000000
 41
0.000000
 66
  1
  0
VERTEX
  8
gg1
 10
1.275300
 20
0.132000
  0
VERTEX
  8
gg1
 10
1.275300
 20
0.218000
  0
SEQEND
  8
gg1
  0
POLYLINE
  8
gg1
 62
1
 40
0.000000
 41
0.000000
 66
  1
  0
VERTEX
  8
gg1
 10
1.429100
 20
0.175000
  0
VERTEX
  8
gg1
 10
1.515100
 20
0.175000
  0
SEQEND
  8
gg1
  0
POLYLINE
  8
gg1
 62
1
 40
0.000000
 41
0.000000
 66
  1
  0
VERTEX
  8
gg1
 10
1.472100
 20
0.132000
  0
VERTEX
  8
gg1
 10
1.472100
 20
0.218000
  0
SEQEND
  8
gg1
  0
POLYLINE
  8
gg1
 62
1
 40
0.000000
 41
0.000000
 66
  1
  0
VERTEX
  8
gg1
 10
0.838600
 20
0.175000
  0
VERTEX
  8
gg1
 10
0.924600
 20
0.175000
  0
SEQEND
  8
gg1
  0
POLYLINE
  8
gg1
 62
1
 40
0.000000
 41
0.000000
 66
  1
  0
VERTEX
  8
gg1
 10
0.881600
 20
0.132000
  0
VERTEX
  8
gg1
 10
0.881600
 20
0.218000
  0
SEQEND
  8
gg1
  0
POLYLINE
  8
gg1
 62
1
 40
0.000000
 41
0.000000
 66
  1
  0
VERTEX
  8
gg1
 10
1.035400
 20
0.175000
  0
VERTEX
  8
gg1
 10
1.121400
 20
0.175000
  0
SEQEND
  8
gg1
  0
POLYLINE
  8
gg1
 62
1
 40
0.000000
 41
0.000000
 66
  1
  0
VERTEX
  8
gg1
 10
1.078400
 20
0.132000
  0
VERTEX
  8
gg1
 10
1.078400
 20
0.218000
  0
SEQEND
  8
gg1
  0
POLYLINE
  8
gg1
 62
1
 40
0.000000
 41
0.000000
 66
  1
  0
VERTEX
  8
gg1
 10
0.444900
 20
0.175000
  0
VERTEX
  8
gg1
 10
0.530900
 20
0.175000
  0
SEQEND
  8
gg1
  0
POLYLINE
  8
gg1
 62
1
 40
0.000000
 41
0.000000
 66
  1
  0
VERTEX
  8
gg1
 10
0.487900
 20
0.132000
  0
VERTEX
  8
gg1
 10
0.487900
 20
0.218000
  0
SEQEND
  8
gg1
  0
POLYLINE
  8
gg1
 62
1
 40
0.000000
 41
0.000000
 66
  1
  0
VERTEX
  8
gg1
 10
0.641700
 20
0.175000
  0
VERTEX
  8
gg1
 10
0.727700
 20
0.175000
  0
SEQEND
  8
gg1
  0
POLYLINE
  8
gg1
 62
1
 40
0.000000
 41
0.000000
 66
  1
  0
VERTEX
  8
gg1
 10
0.684700
 20
0.132000
  0
VERTEX
  8
gg1
 10
0.684700
 20
0.218000
  0
SEQEND
  8
gg1
  0
POLYLINE
  8
gg1
 62
1
 40
0.000000
 41
0.000000
 66
  1
  0
VERTEX
  8
gg1
 10
1.903100
 20
0.065000
  0
VERTEX
  8
gg1
 10
1.943200
 20
0.065000
  0
SEQEND
  8
gg1
  0
POLYLINE
  8
gg1
 62
1
 40
0.000000
 41
0.000000
 66
  1
  0
VERTEX
  8
gg1
 10
1.923100
 20
0.045000
  0
VERTEX
  8
gg1
 10
1.923100
 20
0.085000
  0
SEQEND
  8
gg1
  0
POLYLINE
  8
gg1
 62
1
 40
0.000000
 41
0.000000
 66
  1
  0
VERTEX
  8
gg1
 10
2.100000
 20
0.065000
  0
VERTEX
  8
gg1
 10
2.140000
 20
0.065000
  0
SEQEND
  8
gg1
  0
POLYLINE
  8
gg1
 62
1
 40
0.000000
 41
0.000000
 66
  1
  0
VERTEX
  8
gg1
 10
2.120000
 20
0.045000
  0
VERTEX
  8
gg1
 10
2.120000
 20
0.085000
  0
SEQEND
  8
gg1
  0
POLYLINE
  8
gg1
 62
1
 40
0.000000
 41
0.000000
 66
  1
  0
VERTEX
  8
gg1
 10
0.083700
 20
2.066900
  0
VERTEX
  8
gg1
 10
0.191900
 20
2.066900
  0
SEQEND
  8
gg1
  0
POLYLINE
  8
gg1
 62
1
 40
0.000000
 41
0.000000
 66
  1
  0
VERTEX
  8
gg1
 10
0.137800
 20
2.012800
  0
VERTEX
  8
gg1
 10
0.137800
 20
2.121100
  0
SEQEND
  8
gg1
  0
POLYLINE
  8
gg1
 62
1
 40
0.000000
 41
0.000000
 66
  1
  0
VERTEX
  8
gg1
 10
2.367100
 20
0.137800
  0
VERTEX
  8
gg1
 10
2.475400
 20
0.137800
  0
SEQEND
  8
gg1
  0
POLYLINE
  8
gg1
 62
1
 40
0.000000
 41
0.000000
 66
  1
  0
VERTEX
  8
gg1
 10
2.421300
 20
0.083700
  0
VERTEX
  8
gg1
 10
2.421300
 20
0.191900
  0
SEQEND
  8
gg1
  0
POLYLINE
  8
gg1
 62
1
 40
0.000000
 41
0.000000
 66
  1
  0
VERTEX
  8
gg1
 10
0.083700
 20
0.137800
  0
VERTEX
  8
gg1
 10
0.191900
 20
0.137800
  0
SEQEND
  8
gg1
  0
POLYLINE
  8
gg1
 62
1
 40
0.000000
 41
0.000000
 66
  1
  0
VERTEX
  8
gg1
 10
0.137800
 20
0.083700
  0
VERTEX
  8
gg1
 10
0.137800
 20
0.191900
  0
SEQEND
  8
gg1
  0
POLYLINE
  8
gg1
 62
1
 40
0.000000
 41
0.000000
 66
  1
  0
VERTEX
  8
gg1
 10
0.040000
 20
0.705000
  0
VERTEX
  8
gg1
 10
0.080000
 20
0.705000
  0
SEQEND
  8
gg1
  0
POLYLINE
  8
gg1
 62
1
 40
0.000000
 41
0.000000
 66
  1
  0
VERTEX
  8
gg1
 10
0.060000
 20
0.685000
  0
VERTEX
  8
gg1
 10
0.060000
 20
0.725000
  0
SEQEND
  8
gg1
  0
POLYLINE
  8
gg1
 62
1
 40
0.000000
 41
0.000000
 66
  1
  0
VERTEX
  8
gg1
 10
2.165000
 20
1.495000
  0
VERTEX
  8
gg1
 10
2.185000
 20
1.495000
  0
SEQEND
  8
gg1
  0
POLYLINE
  8
gg1
 62
1
 40
0.000000
 41
0.000000
 66
  1
  0
VERTEX
  8
gg1
 10
2.175000
 20
1.485000
  0
VERTEX
  8
gg1
 10
2.175000
 20
1.505000
  0
SEQEND
  8
gg1
  0
POLYLINE
  8
gg1
 62
1
 40
0.000000
 41
0.000000
 66
  1
  0
VERTEX
  8
gg1
 10
0.132500
 20
0.475000
  0
VERTEX
  8
gg1
 10
0.147500
 20
0.475000
  0
SEQEND
  8
gg1
  0
POLYLINE
  8
gg1
 62
1
 40
0.000000
 41
0.000000
 66
  1
  0
VERTEX
  8
gg1
 10
0.140000
 20
0.467500
  0
VERTEX
  8
gg1
 10
0.140000
 20
0.482500
  0
SEQEND
  8
gg1
  0
POLYLINE
  8
gg1
 62
1
 40
0.000000
 41
0.000000
 66
  1
  0
VERTEX
  8
gg1
 10
0.062500
 20
0.475000
  0
VERTEX
  8
gg1
 10
0.077500
 20
0.475000
  0
SEQEND
  8
gg1
  0
POLYLINE
  8
gg1
 62
1
 40
0.000000
 41
0.000000
 66
  1
  0
VERTEX
  8
gg1
 10
0.070000
 20
0.467500
  0
VERTEX
  8
gg1
 10
0.070000
 20
0.482500
  0
SEQEND
  8
gg1
  0
POLYLINE
  8
gg1
 62
1
 40
0.000000
 41
0.000000
 66
  1
  0
VERTEX
  8
gg1
 10
0.062500
 20
0.515000
  0
VERTEX
  8
gg1
 10
0.077500
 20
0.515000
  0
SEQEND
  8
gg1
  0
POLYLINE
  8
gg1
 62
1
 40
0.000000
 41
0.000000
 66
  1
  0
VERTEX
  8
gg1
 10
0.070000
 20
0.507500
  0
VERTEX
  8
gg1
 10
0.070000
 20
0.522500
  0
SEQEND
  8
gg1
  0
POLYLINE
  8
gg1
 62
1
 40
0.000000
 41
0.000000
 66
  1
  0
VERTEX
  8
gg1
 10
0.132500
 20
0.515000
  0
VERTEX
  8
gg1
 10
0.147500
 20
0.515000
  0
SEQEND
  8
gg1
  0
POLYLINE
  8
gg1
 62
1
 40
0.000000
 41
0.000000
 66
  1
  0
VERTEX
  8
gg1
 10
0.140000
 20
0.507500
  0
VERTEX
  8
gg1
 10
0.140000
 20
0.522500
  0
SEQEND
  8
gg1
  0
POLYLINE
  8
gg1
 62
1
 40
0.000000
 41
0.000000
 66
  1
  0
VERTEX
  8
gg1
 10
0.062500
 20
0.555000
  0
VERTEX
  8
gg1
 10
0.077500
 20
0.555000
  0
SEQEND
  8
gg1
  0
POLYLINE
  8
gg1
 62
1
 40
0.000000
 41
0.000000
 66
  1
  0
VERTEX
  8
gg1
 10
0.070000
 20
0.547500
  0
VERTEX
  8
gg1
 10
0.070000
 20
0.562500
  0
SEQEND
  8
gg1
  0
POLYLINE
  8
gg1
 62
1
 40
0.000000
 41
0.000000
 66
  1
  0
VERTEX
  8
gg1
 10
0.132500
 20
0.555000
  0
VERTEX
  8
gg1
 10
0.147500
 20
0.555000
  0
SEQEND
  8
gg1
  0
POLYLINE
  8
gg1
 62
1
 40
0.000000
 41
0.000000
 66
  1
  0
VERTEX
  8
gg1
 10
0.140000
 20
0.547500
  0
VERTEX
  8
gg1
 10
0.140000
 20
0.562500
  0
SEQEND
  8
gg1
  0
POLYLINE
  8
gg1
 62
1
 40
0.000000
 41
0.000000
 66
  1
  0
VERTEX
  8
gg1
 10
0.167500
 20
0.535000
  0
VERTEX
  8
gg1
 10
0.182500
 20
0.535000
  0
SEQEND
  8
gg1
  0
POLYLINE
  8
gg1
 62
1
 40
0.000000
 41
0.000000
 66
  1
  0
VERTEX
  8
gg1
 10
0.175000
 20
0.527500
  0
VERTEX
  8
gg1
 10
0.175000
 20
0.542500
  0
SEQEND
  8
gg1
  0
POLYLINE
  8
gg1
 62
1
 40
0.000000
 41
0.000000
 66
  1
  0
VERTEX
  8
gg1
 10
0.167500
 20
0.495000
  0
VERTEX
  8
gg1
 10
0.182500
 20
0.495000
  0
SEQEND
  8
gg1
  0
POLYLINE
  8
gg1
 62
1
 40
0.000000
 41
0.000000
 66
  1
  0
VERTEX
  8
gg1
 10
0.175000
 20
0.487500
  0
VERTEX
  8
gg1
 10
0.175000
 20
0.502500
  0
SEQEND
  8
gg1
  0
POLYLINE
  8
gg1
 62
1
 40
0.000000
 41
0.000000
 66
  1
  0
VERTEX
  8
gg1
 10
0.097500
 20
0.495000
  0
VERTEX
  8
gg1
 10
0.112500
 20
0.495000
  0
SEQEND
  8
gg1
  0
POLYLINE
  8
gg1
 62
1
 40
0.000000
 41
0.000000
 66
  1
  0
VERTEX
  8
gg1
 10
0.105000
 20
0.487500
  0
VERTEX
  8
gg1
 10
0.105000
 20
0.502500
  0
SEQEND
  8
gg1
  0
POLYLINE
  8
gg1
 62
1
 40
0.000000
 41
0.000000
 66
  1
  0
VERTEX
  8
gg1
 10
0.097500
 20
0.535000
  0
VERTEX
  8
gg1
 10
0.112500
 20
0.535000
  0
SEQEND
  8
gg1
  0
POLYLINE
  8
gg1
 62
1
 40
0.000000
 41
0.000000
 66
  1
  0
VERTEX
  8
gg1
 10
0.105000
 20
0.527500
  0
VERTEX
  8
gg1
 10
0.105000
 20
0.542500
  0
SEQEND
  8
gg1
  0
POLYLINE
  8
gg1
 62
1
 40
0.000000
 41
0.000000
 66
  1
  0
VERTEX
  8
gg1
 10
0.097500
 20
0.455000
  0
VERTEX
  8
gg1
 10
0.112500
 20
0.455000
  0
SEQEND
  8
gg1
  0
POLYLINE
  8
gg1
 62
1
 40
0.000000
 41
0.000000
 66
  1
  0
VERTEX
  8
gg1
 10
0.105000
 20
0.447500
  0
VERTEX
  8
gg1
 10
0.105000
 20
0.462500
  0
SEQEND
  8
gg1
  0
POLYLINE
  8
gg1
 62
1
 40
0.000000
 41
0.000000
 66
  1
  0
VERTEX
  8
gg1
 10
0.167500
 20
0.455000
  0
VERTEX
  8
gg1
 10
0.182500
 20
0.455000
  0
SEQEND
  8
gg1
  0
POLYLINE
  8
gg1
 62
1
 40
0.000000
 41
0.000000
 66
  1
  0
VERTEX
  8
gg1
 10
0.175000
 20
0.447500
  0
VERTEX
  8
gg1
 10
0.175000
 20
0.462500
  0
SEQEND
  8
gg1
  0
POLYLINE
  8
gg1
 62
1
 40
0.000000
 41
0.000000
 66
  1
  0
VERTEX
  8
gg1
 10
2.300100
 20
0.045000
  0
VERTEX
  8
gg1
 10
2.315100
 20
0.045000
  0
SEQEND
  8
gg1
  0
POLYLINE
  8
gg1
 62
1
 40
0.000000
 41
0.000000
 66
  1
  0
VERTEX
  8
gg1
 10
2.307600
 20
0.037500
  0
VERTEX
  8
gg1
 10
2.307600
 20
0.052500
  0
SEQEND
  8
gg1
  0
POLYLINE
  8
gg1
 62
1
 40
0.000000
 41
0.000000
 66
  1
  0
VERTEX
  8
gg1
 10
2.147500
 20
1.385000
  0
VERTEX
  8
gg1
 10
2.162500
 20
1.385000
  0
SEQEND
  8
gg1
  0
POLYLINE
  8
gg1
 62
1
 40
0.000000
 41
0.000000
 66
  1
  0
VERTEX
  8
gg1
 10
2.155000
 20
1.377500
  0
VERTEX
  8
gg1
 10
2.155000
 20
1.392500
  0
SEQEND
  8
gg1
  0
POLYLINE
  8
gg1
 62
1
 40
0.000000
 41
0.000000
 66
  1
  0
VERTEX
  8
gg1
 10
1.962500
 20
1.540000
  0
VERTEX
  8
gg1
 10
1.977500
 20
1.540000
  0
SEQEND
  8
gg1
  0
POLYLINE
  8
gg1
 62
1
 40
0.000000
 41
0.000000
 66
  1
  0
VERTEX
  8
gg1
 10
1.970000
 20
1.532500
  0
VERTEX
  8
gg1
 10
1.970000
 20
1.547500
  0
SEQEND
  8
gg1
  0
POLYLINE
  8
gg1
 62
1
 40
0.000000
 41
0.000000
 66
  1
  0
VERTEX
  8
gg1
 10
1.852500
 20
1.595000
  0
VERTEX
  8
gg1
 10
1.867500
 20
1.595000
  0
SEQEND
  8
gg1
  0
POLYLINE
  8
gg1
 62
1
 40
0.000000
 41
0.000000
 66
  1
  0
VERTEX
  8
gg1
 10
1.860000
 20
1.587500
  0
VERTEX
  8
gg1
 10
1.860000
 20
1.602500
  0
SEQEND
  8
gg1
  0
POLYLINE
  8
gg1
 62
1
 40
0.000000
 41
0.000000
 66
  1
  0
VERTEX
  8
gg1
 10
1.822500
 20
1.620000
  0
VERTEX
  8
gg1
 10
1.837500
 20
1.620000
  0
SEQEND
  8
gg1
  0
POLYLINE
  8
gg1
 62
1
 40
0.000000
 41
0.000000
 66
  1
  0
VERTEX
  8
gg1
 10
1.830000
 20
1.612500
  0
VERTEX
  8
gg1
 10
1.830000
 20
1.627500
  0
SEQEND
  8
gg1
  0
POLYLINE
  8
gg1
 62
1
 40
0.000000
 41
0.000000
 66
  1
  0
VERTEX
  8
gg1
 10
1.912500
 20
1.580000
  0
VERTEX
  8
gg1
 10
1.927500
 20
1.580000
  0
SEQEND
  8
gg1
  0
POLYLINE
  8
gg1
 62
1
 40
0.000000
 41
0.000000
 66
  1
  0
VERTEX
  8
gg1
 10
1.920000
 20
1.572500
  0
VERTEX
  8
gg1
 10
1.920000
 20
1.587500
  0
SEQEND
  8
gg1
  0
POLYLINE
  8
gg1
 62
1
 40
0.000000
 41
0.000000
 66
  1
  0
VERTEX
  8
gg1
 10
1.922500
 20
1.420000
  0
VERTEX
  8
gg1
 10
1.937500
 20
1.420000
  0
SEQEND
  8
gg1
  0
POLYLINE
  8
gg1
 62
1
 40
0.000000
 41
0.000000
 66
  1
  0
VERTEX
  8
gg1
 10
1.930000
 20
1.412500
  0
VERTEX
  8
gg1
 10
1.930000
 20
1.427500
  0
SEQEND
  8
gg1
  0
POLYLINE
  8
gg1
 62
1
 40
0.000000
 41
0.000000
 66
  1
  0
VERTEX
  8
gg1
 10
1.742500
 20
1.510000
  0
VERTEX
  8
gg1
 10
1.757500
 20
1.510000
  0
SEQEND
  8
gg1
  0
POLYLINE
  8
gg1
 62
1
 40
0.000000
 41
0.000000
 66
  1
  0
VERTEX
  8
gg1
 10
1.750000
 20
1.502500
  0
VERTEX
  8
gg1
 10
1.750000
 20
1.517500
  0
SEQEND
  8
gg1
  0
POLYLINE
  8
gg1
 62
1
 40
0.000000
 41
0.000000
 66
  1
  0
VERTEX
  8
gg1
 10
2.117500
 20
1.415000
  0
VERTEX
  8
gg1
 10
2.132500
 20
1.415000
  0
SEQEND
  8
gg1
  0
POLYLINE
  8
gg1
 62
1
 40
0.000000
 41
0.000000
 66
  1
  0
VERTEX
  8
gg1
 10
2.125000
 20
1.407500
  0
VERTEX
  8
gg1
 10
2.125000
 20
1.422500
  0
SEQEND
  8
gg1
  0
POLYLINE
  8
gg1
 62
1
 40
0.000000
 41
0.000000
 66
  1
  0
VERTEX
  8
gg1
 10
2.002500
 20
1.520000
  0
VERTEX
  8
gg1
 10
2.017500
 20
1.520000
  0
SEQEND
  8
gg1
  0
POLYLINE
  8
gg1
 62
1
 40
0.000000
 41
0.000000
 66
  1
  0
VERTEX
  8
gg1
 10
2.010000
 20
1.512500
  0
VERTEX
  8
gg1
 10
2.010000
 20
1.527500
  0
SEQEND
  8
gg1
  0
POLYLINE
  8
gg1
 62
1
 40
0.000000
 41
0.000000
 66
  1
  0
VERTEX
  8
gg1
 10
1.767500
 20
1.615000
  0
VERTEX
  8
gg1
 10
1.782500
 20
1.615000
  0
SEQEND
  8
gg1
  0
POLYLINE
  8
gg1
 62
1
 40
0.000000
 41
0.000000
 66
  1
  0
VERTEX
  8
gg1
 10
1.775000
 20
1.607500
  0
VERTEX
  8
gg1
 10
1.775000
 20
1.622500
  0
SEQEND
  8
gg1
  0
POLYLINE
  8
gg1
 62
1
 40
0.000000
 41
0.000000
 66
  1
  0
VERTEX
  8
gg1
 10
2.292500
 20
1.215000
  0
VERTEX
  8
gg1
 10
2.307500
 20
1.215000
  0
SEQEND
  8
gg1
  0
POLYLINE
  8
gg1
 62
1
 40
0.000000
 41
0.000000
 66
  1
  0
VERTEX
  8
gg1
 10
2.300000
 20
1.207500
  0
VERTEX
  8
gg1
 10
2.300000
 20
1.222500
  0
SEQEND
  8
gg1
  0
POLYLINE
  8
gg1
 62
1
 40
0.000000
 41
0.000000
 66
  1
  0
VERTEX
  8
gg1
 10
2.182500
 20
1.150000
  0
VERTEX
  8
gg1
 10
2.197500
 20
1.150000
  0
SEQEND
  8
gg1
  0
POLYLINE
  8
gg1
 62
1
 40
0.000000
 41
0.000000
 66
  1
  0
VERTEX
  8
gg1
 10
2.190000
 20
1.142500
  0
VERTEX
  8
gg1
 10
2.190000
 20
1.157500
  0
SEQEND
  8
gg1
  0
POLYLINE
  8
gg1
 62
1
 40
0.000000
 41
0.000000
 66
  1
  0
VERTEX
  8
gg1
 10
1.707500
 20
1.490000
  0
VERTEX
  8
gg1
 10
1.722500
 20
1.490000
  0
SEQEND
  8
gg1
  0
POLYLINE
  8
gg1
 62
1
 40
0.000000
 41
0.000000
 66
  1
  0
VERTEX
  8
gg1
 10
1.715000
 20
1.482500
  0
VERTEX
  8
gg1
 10
1.715000
 20
1.497500
  0
SEQEND
  8
gg1
  0
POLYLINE
  8
gg1
 62
1
 40
0.000000
 41
0.000000
 66
  1
  0
VERTEX
  8
gg1
 10
2.022500
 20
1.390000
  0
VERTEX
  8
gg1
 10
2.037500
 20
1.390000
  0
SEQEND
  8
gg1
  0
POLYLINE
  8
gg1
 62
1
 40
0.000000
 41
0.000000
 66
  1
  0
VERTEX
  8
gg1
 10
2.030000
 20
1.382500
  0
VERTEX
  8
gg1
 10
2.030000
 20
1.397500
  0
SEQEND
  8
gg1
  0
POLYLINE
  8
gg1
 62
1
 40
0.000000
 41
0.000000
 66
  1
  0
VERTEX
  8
gg1
 10
2.082500
 20
1.245000
  0
VERTEX
  8
gg1
 10
2.097500
 20
1.245000
  0
SEQEND
  8
gg1
  0
POLYLINE
  8
gg1
 62
1
 40
0.000000
 41
0.000000
 66
  1
  0
VERTEX
  8
gg1
 10
2.090000
 20
1.237500
  0
VERTEX
  8
gg1
 10
2.090000
 20
1.252500
  0
SEQEND
  8
gg1
  0
POLYLINE
  8
gg1
 62
1
 40
0.000000
 41
0.000000
 66
  1
  0
VERTEX
  8
gg1
 10
1.822500
 20
1.085000
  0
VERTEX
  8
gg1
 10
1.837500
 20
1.085000
  0
SEQEND
  8
gg1
  0
POLYLINE
  8
gg1
 62
1
 40
0.000000
 41
0.000000
 66
  1
  0
VERTEX
  8
gg1
 10
1.830000
 20
1.077500
  0
VERTEX
  8
gg1
 10
1.830000
 20
1.092500
  0
SEQEND
  8
gg1
  0
POLYLINE
  8
gg1
 62
1
 40
0.000000
 41
0.000000
 66
  1
  0
VERTEX
  8
gg1
 10
1.632500
 20
1.322500
  0
VERTEX
  8
gg1
 10
1.647500
 20
1.322500
  0
SEQEND
  8
gg1
  0
POLYLINE
  8
gg1
 62
1
 40
0.000000
 41
0.000000
 66
  1
  0
VERTEX
  8
gg1
 10
1.640000
 20
1.315000
  0
VERTEX
  8
gg1
 10
1.640000
 20
1.330000
  0
SEQEND
  8
gg1
  0
POLYLINE
  8
gg1
 62
1
 40
0.000000
 41
0.000000
 66
  1
  0
VERTEX
  8
gg1
 10
1.652500
 20
1.280000
  0
VERTEX
  8
gg1
 10
1.667500
 20
1.280000
  0
SEQEND
  8
gg1
  0
POLYLINE
  8
gg1
 62
1
 40
0.000000
 41
0.000000
 66
  1
  0
VERTEX
  8
gg1
 10
1.660000
 20
1.272500
  0
VERTEX
  8
gg1
 10
1.660000
 20
1.287500
  0
SEQEND
  8
gg1
  0
POLYLINE
  8
gg1
 62
1
 40
0.000000
 41
0.000000
 66
  1
  0
VERTEX
  8
gg1
 10
1.597500
 20
1.090000
  0
VERTEX
  8
gg1
 10
1.612500
 20
1.090000
  0
SEQEND
  8
gg1
  0
POLYLINE
  8
gg1
 62
1
 40
0.000000
 41
0.000000
 66
  1
  0
VERTEX
  8
gg1
 10
1.605000
 20
1.082500
  0
VERTEX
  8
gg1
 10
1.605000
 20
1.097500
  0
SEQEND
  8
gg1
  0
POLYLINE
  8
gg1
 62
1
 40
0.000000
 41
0.000000
 66
  1
  0
VERTEX
  8
gg1
 10
1.632500
 20
1.070000
  0
VERTEX
  8
gg1
 10
1.647500
 20
1.070000
  0
SEQEND
  8
gg1
  0
POLYLINE
  8
gg1
 62
1
 40
0.000000
 41
0.000000
 66
  1
  0
VERTEX
  8
gg1
 10
1.640000
 20
1.062500
  0
VERTEX
  8
gg1
 10
1.640000
 20
1.077500
  0
SEQEND
  8
gg1
  0
POLYLINE
  8
gg1
 62
1
 40
0.000000
 41
0.000000
 66
  1
  0
VERTEX
  8
gg1
 10
1.552500
 20
1.150000
  0
VERTEX
  8
gg1
 10
1.567500
 20
1.150000
  0
SEQEND
  8
gg1
  0
POLYLINE
  8
gg1
 62
1
 40
0.000000
 41
0.000000
 66
  1
  0
VERTEX
  8
gg1
 10
1.560000
 20
1.142500
  0
VERTEX
  8
gg1
 10
1.560000
 20
1.157500
  0
SEQEND
  8
gg1
  0
POLYLINE
  8
gg1
 62
1
 40
0.000000
 41
0.000000
 66
  1
  0
VERTEX
  8
gg1
 10
1.682500
 20
1.250000
  0
VERTEX
  8
gg1
 10
1.697500
 20
1.250000
  0
SEQEND
  8
gg1
  0
POLYLINE
  8
gg1
 62
1
 40
0.000000
 41
0.000000
 66
  1
  0
VERTEX
  8
gg1
 10
1.690000
 20
1.242500
  0
VERTEX
  8
gg1
 10
1.690000
 20
1.257500
  0
SEQEND
  8
gg1
  0
POLYLINE
  8
gg1
 62
1
 40
0.000000
 41
0.000000
 66
  1
  0
VERTEX
  8
gg1
 10
1.647500
 20
1.230000
  0
VERTEX
  8
gg1
 10
1.662500
 20
1.230000
  0
SEQEND
  8
gg1
  0
POLYLINE
  8
gg1
 62
1
 40
0.000000
 41
0.000000
 66
  1
  0
VERTEX
  8
gg1
 10
1.655000
 20
1.222500
  0
VERTEX
  8
gg1
 10
1.655000
 20
1.237500
  0
SEQEND
  8
gg1
  0
POLYLINE
  8
gg1
 62
1
 40
0.000000
 41
0.000000
 66
  1
  0
VERTEX
  8
gg1
 10
1.622500
 20
1.200000
  0
VERTEX
  8
gg1
 10
1.637500
 20
1.200000
  0
SEQEND
  8
gg1
  0
POLYLINE
  8
gg1
 62
1
 40
0.000000
 41
0.000000
 66
  1
  0
VERTEX
  8
gg1
 10
1.630000
 20
1.192500
  0
VERTEX
  8
gg1
 10
1.630000
 20
1.207500
  0
SEQEND
  8
gg1
  0
POLYLINE
  8
gg1
 62
1
 40
0.000000
 41
0.000000
 66
  1
  0
VERTEX
  8
gg1
 10
1.670000
 20
1.585000
  0
VERTEX
  8
gg1
 10
1.685000
 20
1.585000
  0
SEQEND
  8
gg1
  0
POLYLINE
  8
gg1
 62
1
 40
0.000000
 41
0.000000
 66
  1
  0
VERTEX
  8
gg1
 10
1.677500
 20
1.577500
  0
VERTEX
  8
gg1
 10
1.677500
 20
1.592500
  0
SEQEND
  8
gg1
  0
POLYLINE
  8
gg1
 62
1
 40
0.000000
 41
0.000000
 66
  1
  0
VERTEX
  8
gg1
 10
2.077500
 20
1.305000
  0
VERTEX
  8
gg1
 10
2.092500
 20
1.305000
  0
SEQEND
  8
gg1
  0
POLYLINE
  8
gg1
 62
1
 40
0.000000
 41
0.000000
 66
  1
  0
VERTEX
  8
gg1
 10
2.085000
 20
1.297500
  0
VERTEX
  8
gg1
 10
2.085000
 20
1.312500
  0
SEQEND
  8
gg1
  0
POLYLINE
  8
gg1
 62
1
 40
0.000000
 41
0.000000
 66
  1
  0
VERTEX
  8
gg1
 10
2.027500
 20
1.065000
  0
VERTEX
  8
gg1
 10
2.042500
 20
1.065000
  0
SEQEND
  8
gg1
  0
POLYLINE
  8
gg1
 62
1
 40
0.000000
 41
0.000000
 66
  1
  0
VERTEX
  8
gg1
 10
2.035000
 20
1.057500
  0
VERTEX
  8
gg1
 10
2.035000
 20
1.072500
  0
SEQEND
  8
gg1
  0
POLYLINE
  8
gg1
 62
1
 40
0.000000
 41
0.000000
 66
  1
  0
VERTEX
  8
gg1
 10
2.237500
 20
1.320000
  0
VERTEX
  8
gg1
 10
2.252500
 20
1.320000
  0
SEQEND
  8
gg1
  0
POLYLINE
  8
gg1
 62
1
 40
0.000000
 41
0.000000
 66
  1
  0
VERTEX
  8
gg1
 10
2.245000
 20
1.312500
  0
VERTEX
  8
gg1
 10
2.245000
 20
1.327500
  0
SEQEND
  8
gg1
  0
POLYLINE
  8
gg1
 62
1
 40
0.000000
 41
0.000000
 66
  1
  0
VERTEX
  8
gg1
 10
1.542500
 20
1.720000
  0
VERTEX
  8
gg1
 10
1.557500
 20
1.720000
  0
SEQEND
  8
gg1
  0
POLYLINE
  8
gg1
 62
1
 40
0.000000
 41
0.000000
 66
  1
  0
VERTEX
  8
gg1
 10
1.550000
 20
1.712500
  0
VERTEX
  8
gg1
 10
1.550000
 20
1.727500
  0
SEQEND
  8
gg1
  0
POLYLINE
  8
gg1
 62
1
 40
0.000000
 41
0.000000
 66
  1
  0
VERTEX
  8
gg1
 10
1.647500
 20
1.705000
  0
VERTEX
  8
gg1
 10
1.662500
 20
1.705000
  0
SEQEND
  8
gg1
  0
POLYLINE
  8
gg1
 62
1
 40
0.000000
 41
0.000000
 66
  1
  0
VERTEX
  8
gg1
 10
1.655000
 20
1.697500
  0
VERTEX
  8
gg1
 10
1.655000
 20
1.712500
  0
SEQEND
  8
gg1
  0
POLYLINE
  8
gg1
 62
1
 40
0.000000
 41
0.000000
 66
  1
  0
VERTEX
  8
gg1
 10
1.622500
 20
1.735000
  0
VERTEX
  8
gg1
 10
1.637500
 20
1.735000
  0
SEQEND
  8
gg1
  0
POLYLINE
  8
gg1
 62
1
 40
0.000000
 41
0.000000
 66
  1
  0
VERTEX
  8
gg1
 10
1.630000
 20
1.727500
  0
VERTEX
  8
gg1
 10
1.630000
 20
1.742500
  0
SEQEND
  8
gg1
  0
POLYLINE
  8
gg1
 62
1
 40
0.000000
 41
0.000000
 66
  1
  0
VERTEX
  8
gg1
 10
1.912500
 20
1.640000
  0
VERTEX
  8
gg1
 10
1.927500
 20
1.640000
  0
SEQEND
  8
gg1
  0
POLYLINE
  8
gg1
 62
1
 40
0.000000
 41
0.000000
 66
  1
  0
VERTEX
  8
gg1
 10
1.920000
 20
1.632500
  0
VERTEX
  8
gg1
 10
1.920000
 20
1.647500
  0
SEQEND
  8
gg1
  0
POLYLINE
  8
gg1
 62
1
 40
0.000000
 41
0.000000
 66
  1
  0
VERTEX
  8
gg1
 10
1.162500
 20
1.405000
  0
VERTEX
  8
gg1
 10
1.177500
 20
1.405000
  0
SEQEND
  8
gg1
  0
POLYLINE
  8
gg1
 62
1
 40
0.000000
 41
0.000000
 66
  1
  0
VERTEX
  8
gg1
 10
1.170000
 20
1.397500
  0
VERTEX
  8
gg1
 10
1.170000
 20
1.412500
  0
SEQEND
  8
gg1
  0
POLYLINE
  8
gg1
 62
1
 40
0.000000
 41
0.000000
 66
  1
  0
VERTEX
  8
gg1
 10
1.122500
 20
1.405000
  0
VERTEX
  8
gg1
 10
1.137500
 20
1.405000
  0
SEQEND
  8
gg1
  0
POLYLINE
  8
gg1
 62
1
 40
0.000000
 41
0.000000
 66
  1
  0
VERTEX
  8
gg1
 10
1.130000
 20
1.397500
  0
VERTEX
  8
gg1
 10
1.130000
 20
1.412500
  0
SEQEND
  8
gg1
  0
POLYLINE
  8
gg1
 62
1
 40
0.000000
 41
0.000000
 66
  1
  0
VERTEX
  8
gg1
 10
1.082500
 20
1.405000
  0
VERTEX
  8
gg1
 10
1.097500
 20
1.405000
  0
SEQEND
  8
gg1
  0
POLYLINE
  8
gg1
 62
1
 40
0.000000
 41
0.000000
 66
  1
  0
VERTEX
  8
gg1
 10
1.090000
 20
1.397500
  0
VERTEX
  8
gg1
 10
1.090000
 20
1.412500
  0
SEQEND
  8
gg1
  0
POLYLINE
  8
gg1
 62
1
 40
0.000000
 41
0.000000
 66
  1
  0
VERTEX
  8
gg1
 10
1.282500
 20
1.665000
  0
VERTEX
  8
gg1
 10
1.297500
 20
1.665000
  0
SEQEND
  8
gg1
  0
POLYLINE
  8
gg1
 62
1
 40
0.000000
 41
0.000000
 66
  1
  0
VERTEX
  8
gg1
 10
1.290000
 20
1.657500
  0
VERTEX
  8
gg1
 10
1.290000
 20
1.672500
  0
SEQEND
  8
gg1
  0
POLYLINE
  8
gg1
 62
1
 40
0.000000
 41
0.000000
 66
  1
  0
VERTEX
  8
gg1
 10
1.232500
 20
1.665000
  0
VERTEX
  8
gg1
 10
1.247500
 20
1.665000
  0
SEQEND
  8
gg1
  0
POLYLINE
  8
gg1
 62
1
 40
0.000000
 41
0.000000
 66
  1
  0
VERTEX
  8
gg1
 10
1.240000
 20
1.657500
  0
VERTEX
  8
gg1
 10
1.240000
 20
1.672500
  0
SEQEND
  8
gg1
  0
POLYLINE
  8
gg1
 62
1
 40
0.000000
 41
0.000000
 66
  1
  0
VERTEX
  8
gg1
 10
1.187500
 20
1.650000
  0
VERTEX
  8
gg1
 10
1.202500
 20
1.650000
  0
SEQEND
  8
gg1
  0
POLYLINE
  8
gg1
 62
1
 40
0.000000
 41
0.000000
 66
  1
  0
VERTEX
  8
gg1
 10
1.195000
 20
1.642500
  0
VERTEX
  8
gg1
 10
1.195000
 20
1.657500
  0
SEQEND
  8
gg1
  0
POLYLINE
  8
gg1
 62
1
 40
0.000000
 41
0.000000
 66
  1
  0
VERTEX
  8
gg1
 10
1.172500
 20
1.505000
  0
VERTEX
  8
gg1
 10
1.187500
 20
1.505000
  0
SEQEND
  8
gg1
  0
POLYLINE
  8
gg1
 62
1
 40
0.000000
 41
0.000000
 66
  1
  0
VERTEX
  8
gg1
 10
1.180000
 20
1.497500
  0
VERTEX
  8
gg1
 10
1.180000
 20
1.512500
  0
SEQEND
  8
gg1
  0
POLYLINE
  8
gg1
 62
1
 40
0.000000
 41
0.000000
 66
  1
  0
VERTEX
  8
gg1
 10
1.387500
 20
1.740000
  0
VERTEX
  8
gg1
 10
1.402500
 20
1.740000
  0
SEQEND
  8
gg1
  0
POLYLINE
  8
gg1
 62
1
 40
0.000000
 41
0.000000
 66
  1
  0
VERTEX
  8
gg1
 10
1.395000
 20
1.732500
  0
VERTEX
  8
gg1
 10
1.395000
 20
1.747500
  0
SEQEND
  8
gg1
  0
POLYLINE
  8
gg1
 62
1
 40
0.000000
 41
0.000000
 66
  1
  0
VERTEX
  8
gg1
 10
1.412500
 20
1.695000
  0
VERTEX
  8
gg1
 10
1.427500
 20
1.695000
  0
SEQEND
  8
gg1
  0
POLYLINE
  8
gg1
 62
1
 40
0.000000
 41
0.000000
 66
  1
  0
VERTEX
  8
gg1
 10
1.420000
 20
1.687500
  0
VERTEX
  8
gg1
 10
1.420000
 20
1.702500
  0
SEQEND
  8
gg1
  0
POLYLINE
  8
gg1
 62
1
 40
0.000000
 41
0.000000
 66
  1
  0
VERTEX
  8
gg1
 10
1.347500
 20
1.690000
  0
VERTEX
  8
gg1
 10
1.362500
 20
1.690000
  0
SEQEND
  8
gg1
  0
POLYLINE
  8
gg1
 62
1
 40
0.000000
 41
0.000000
 66
  1
  0
VERTEX
  8
gg1
 10
1.355000
 20
1.682500
  0
VERTEX
  8
gg1
 10
1.355000
 20
1.697500
  0
SEQEND
  8
gg1
  0
POLYLINE
  8
gg1
 62
1
 40
0.000000
 41
0.000000
 66
  1
  0
VERTEX
  8
gg1
 10
1.667500
 20
1.485000
  0
VERTEX
  8
gg1
 10
1.682500
 20
1.485000
  0
SEQEND
  8
gg1
  0
POLYLINE
  8
gg1
 62
1
 40
0.000000
 41
0.000000
 66
  1
  0
VERTEX
  8
gg1
 10
1.675000
 20
1.477500
  0
VERTEX
  8
gg1
 10
1.675000
 20
1.492500
  0
SEQEND
  8
gg1
  0
POLYLINE
  8
gg1
 62
1
 40
0.000000
 41
0.000000
 66
  1
  0
VERTEX
  8
gg1
 10
1.427500
 20
1.535000
  0
VERTEX
  8
gg1
 10
1.442500
 20
1.535000
  0
SEQEND
  8
gg1
  0
POLYLINE
  8
gg1
 62
1
 40
0.000000
 41
0.000000
 66
  1
  0
VERTEX
  8
gg1
 10
1.435000
 20
1.527500
  0
VERTEX
  8
gg1
 10
1.435000
 20
1.542500
  0
SEQEND
  8
gg1
  0
POLYLINE
  8
gg1
 62
1
 40
0.000000
 41
0.000000
 66
  1
  0
VERTEX
  8
gg1
 10
1.307500
 20
1.410000
  0
VERTEX
  8
gg1
 10
1.322500
 20
1.410000
  0
SEQEND
  8
gg1
  0
POLYLINE
  8
gg1
 62
1
 40
0.000000
 41
0.000000
 66
  1
  0
VERTEX
  8
gg1
 10
1.315000
 20
1.402500
  0
VERTEX
  8
gg1
 10
1.315000
 20
1.417500
  0
SEQEND
  8
gg1
  0
POLYLINE
  8
gg1
 62
1
 40
0.000000
 41
0.000000
 66
  1
  0
VERTEX
  8
gg1
 10
1.137500
 20
1.505000
  0
VERTEX
  8
gg1
 10
1.152500
 20
1.505000
  0
SEQEND
  8
gg1
  0
POLYLINE
  8
gg1
 62
1
 40
0.000000
 41
0.000000
 66
  1
  0
VERTEX
  8
gg1
 10
1.145000
 20
1.497500
  0
VERTEX
  8
gg1
 10
1.145000
 20
1.512500
  0
SEQEND
  8
gg1
  0
POLYLINE
  8
gg1
 62
1
 40
0.000000
 41
0.000000
 66
  1
  0
VERTEX
  8
gg1
 10
1.102500
 20
1.505000
  0
VERTEX
  8
gg1
 10
1.117500
 20
1.505000
  0
SEQEND
  8
gg1
  0
POLYLINE
  8
gg1
 62
1
 40
0.000000
 41
0.000000
 66
  1
  0
VERTEX
  8
gg1
 10
1.110000
 20
1.497500
  0
VERTEX
  8
gg1
 10
1.110000
 20
1.512500
  0
SEQEND
  8
gg1
  0
POLYLINE
  8
gg1
 62
1
 40
0.000000
 41
0.000000
 66
  1
  0
VERTEX
  8
gg1
 10
1.067500
 20
1.505000
  0
VERTEX
  8
gg1
 10
1.082500
 20
1.505000
  0
SEQEND
  8
gg1
  0
POLYLINE
  8
gg1
 62
1
 40
0.000000
 41
0.000000
 66
  1
  0
VERTEX
  8
gg1
 10
1.075000
 20
1.497500
  0
VERTEX
  8
gg1
 10
1.075000
 20
1.512500
  0
SEQEND
  8
gg1
  0
POLYLINE
  8
gg1
 62
1
 40
0.000000
 41
0.000000
 66
  1
  0
VERTEX
  8
gg1
 10
1.257500
 20
1.395000
  0
VERTEX
  8
gg1
 10
1.272500
 20
1.395000
  0
SEQEND
  8
gg1
  0
POLYLINE
  8
gg1
 62
1
 40
0.000000
 41
0.000000
 66
  1
  0
VERTEX
  8
gg1
 10
1.265000
 20
1.387500
  0
VERTEX
  8
gg1
 10
1.265000
 20
1.402500
  0
SEQEND
  8
gg1
  0
POLYLINE
  8
gg1
 62
1
 40
0.000000
 41
0.000000
 66
  1
  0
VERTEX
  8
gg1
 10
1.317500
 20
1.230000
  0
VERTEX
  8
gg1
 10
1.332500
 20
1.230000
  0
SEQEND
  8
gg1
  0
POLYLINE
  8
gg1
 62
1
 40
0.000000
 41
0.000000
 66
  1
  0
VERTEX
  8
gg1
 10
1.325000
 20
1.222500
  0
VERTEX
  8
gg1
 10
1.325000
 20
1.237500
  0
SEQEND
  8
gg1
  0
POLYLINE
  8
gg1
 62
1
 40
0.000000
 41
0.000000
 66
  1
  0
VERTEX
  8
gg1
 10
1.352500
 20
1.250000
  0
VERTEX
  8
gg1
 10
1.367500
 20
1.250000
  0
SEQEND
  8
gg1
  0
POLYLINE
  8
gg1
 62
1
 40
0.000000
 41
0.000000
 66
  1
  0
VERTEX
  8
gg1
 10
1.360000
 20
1.242500
  0
VERTEX
  8
gg1
 10
1.360000
 20
1.257500
  0
SEQEND
  8
gg1
  0
POLYLINE
  8
gg1
 62
1
 40
0.000000
 41
0.000000
 66
  1
  0
VERTEX
  8
gg1
 10
1.282500
 20
1.210000
  0
VERTEX
  8
gg1
 10
1.297500
 20
1.210000
  0
SEQEND
  8
gg1
  0
POLYLINE
  8
gg1
 62
1
 40
0.000000
 41
0.000000
 66
  1
  0
VERTEX
  8
gg1
 10
1.290000
 20
1.202500
  0
VERTEX
  8
gg1
 10
1.290000
 20
1.217500
  0
SEQEND
  8
gg1
  0
POLYLINE
  8
gg1
 62
1
 40
0.000000
 41
0.000000
 66
  1
  0
VERTEX
  8
gg1
 10
1.212500
 20
1.395000
  0
VERTEX
  8
gg1
 10
1.227500
 20
1.395000
  0
SEQEND
  8
gg1
  0
POLYLINE
  8
gg1
 62
1
 40
0.000000
 41
0.000000
 66
  1
  0
VERTEX
  8
gg1
 10
1.220000
 20
1.387500
  0
VERTEX
  8
gg1
 10
1.220000
 20
1.402500
  0
SEQEND
  8
gg1
  0
POLYLINE
  8
gg1
 62
1
 40
0.000000
 41
0.000000
 66
  1
  0
VERTEX
  8
gg1
 10
1.257500
 20
1.700000
  0
VERTEX
  8
gg1
 10
1.272500
 20
1.700000
  0
SEQEND
  8
gg1
  0
POLYLINE
  8
gg1
 62
1
 40
0.000000
 41
0.000000
 66
  1
  0
VERTEX
  8
gg1
 10
1.265000
 20
1.692500
  0
VERTEX
  8
gg1
 10
1.265000
 20
1.707500
  0
SEQEND
  8
gg1
  0
POLYLINE
  8
gg1
 62
1
 40
0.000000
 41
0.000000
 66
  1
  0
VERTEX
  8
gg1
 10
1.252500
 20
1.955000
  0
VERTEX
  8
gg1
 10
1.267500
 20
1.955000
  0
SEQEND
  8
gg1
  0
POLYLINE
  8
gg1
 62
1
 40
0.000000
 41
0.000000
 66
  1
  0
VERTEX
  8
gg1
 10
1.260000
 20
1.947500
  0
VERTEX
  8
gg1
 10
1.260000
 20
1.962500
  0
SEQEND
  8
gg1
  0
POLYLINE
  8
gg1
 62
1
 40
0.000000
 41
0.000000
 66
  1
  0
VERTEX
  8
gg1
 10
0.992500
 20
1.540000
  0
VERTEX
  8
gg1
 10
1.007500
 20
1.540000
  0
SEQEND
  8
gg1
  0
POLYLINE
  8
gg1
 62
1
 40
0.000000
 41
0.000000
 66
  1
  0
VERTEX
  8
gg1
 10
1.000000
 20
1.532500
  0
VERTEX
  8
gg1
 10
1.000000
 20
1.547500
  0
SEQEND
  8
gg1
  0
POLYLINE
  8
gg1
 62
1
 40
0.000000
 41
0.000000
 66
  1
  0
VERTEX
  8
gg1
 10
1.022500
 20
1.510000
  0
VERTEX
  8
gg1
 10
1.037500
 20
1.510000
  0
SEQEND
  8
gg1
  0
POLYLINE
  8
gg1
 62
1
 40
0.000000
 41
0.000000
 66
  1
  0
VERTEX
  8
gg1
 10
1.030000
 20
1.502500
  0
VERTEX
  8
gg1
 10
1.030000
 20
1.517500
  0
SEQEND
  8
gg1
  0
POLYLINE
  8
gg1
 62
1
 40
0.000000
 41
0.000000
 66
  1
  0
VERTEX
  8
gg1
 10
1.622500
 20
1.825000
  0
VERTEX
  8
gg1
 10
1.637500
 20
1.825000
  0
SEQEND
  8
gg1
  0
POLYLINE
  8
gg1
 62
1
 40
0.000000
 41
0.000000
 66
  1
  0
VERTEX
  8
gg1
 10
1.630000
 20
1.817500
  0
VERTEX
  8
gg1
 10
1.630000
 20
1.832500
  0
SEQEND
  8
gg1
  0
POLYLINE
  8
gg1
 62
1
 40
0.000000
 41
0.000000
 66
  1
  0
VERTEX
  8
gg1
 10
0.872500
 20
1.975000
  0
VERTEX
  8
gg1
 10
0.887500
 20
1.975000
  0
SEQEND
  8
gg1
  0
POLYLINE
  8
gg1
 62
1
 40
0.000000
 41
0.000000
 66
  1
  0
VERTEX
  8
gg1
 10
0.880000
 20
1.967500
  0
VERTEX
  8
gg1
 10
0.880000
 20
1.982500
  0
SEQEND
  8
gg1
  0
POLYLINE
  8
gg1
 62
1
 40
0.000000
 41
0.000000
 66
  1
  0
VERTEX
  8
gg1
 10
0.712500
 20
1.930000
  0
VERTEX
  8
gg1
 10
0.727500
 20
1.930000
  0
SEQEND
  8
gg1
  0
POLYLINE
  8
gg1
 62
1
 40
0.000000
 41
0.000000
 66
  1
  0
VERTEX
  8
gg1
 10
0.720000
 20
1.922500
  0
VERTEX
  8
gg1
 10
0.720000
 20
1.937500
  0
SEQEND
  8
gg1
  0
POLYLINE
  8
gg1
 62
1
 40
0.000000
 41
0.000000
 66
  1
  0
VERTEX
  8
gg1
 10
0.602500
 20
1.925000
  0
VERTEX
  8
gg1
 10
0.617500
 20
1.925000
  0
SEQEND
  8
gg1
  0
POLYLINE
  8
gg1
 62
1
 40
0.000000
 41
0.000000
 66
  1
  0
VERTEX
  8
gg1
 10
0.610000
 20
1.917500
  0
VERTEX
  8
gg1
 10
0.610000
 20
1.932500
  0
SEQEND
  8
gg1
  0
POLYLINE
  8
gg1
 62
1
 40
0.000000
 41
0.000000
 66
  1
  0
VERTEX
  8
gg1
 10
1.032500
 20
1.165000
  0
VERTEX
  8
gg1
 10
1.047500
 20
1.165000
  0
SEQEND
  8
gg1
  0
POLYLINE
  8
gg1
 62
1
 40
0.000000
 41
0.000000
 66
  1
  0
VERTEX
  8
gg1
 10
1.040000
 20
1.157500
  0
VERTEX
  8
gg1
 10
1.040000
 20
1.172500
  0
SEQEND
  8
gg1
  0
POLYLINE
  8
gg1
 62
1
 40
0.000000
 41
0.000000
 66
  1
  0
VERTEX
  8
gg1
 10
1.062500
 20
1.195000
  0
VERTEX
  8
gg1
 10
1.077500
 20
1.195000
  0
SEQEND
  8
gg1
  0
POLYLINE
  8
gg1
 62
1
 40
0.000000
 41
0.000000
 66
  1
  0
VERTEX
  8
gg1
 10
1.070000
 20
1.187500
  0
VERTEX
  8
gg1
 10
1.070000
 20
1.202500
  0
SEQEND
  8
gg1
  0
POLYLINE
  8
gg1
 62
1
 40
0.000000
 41
0.000000
 66
  1
  0
VERTEX
  8
gg1
 10
1.092500
 20
1.225000
  0
VERTEX
  8
gg1
 10
1.107500
 20
1.225000
  0
SEQEND
  8
gg1
  0
POLYLINE
  8
gg1
 62
1
 40
0.000000
 41
0.000000
 66
  1
  0
VERTEX
  8
gg1
 10
1.100000
 20
1.217500
  0
VERTEX
  8
gg1
 10
1.100000
 20
1.232500
  0
SEQEND
  8
gg1
  0
POLYLINE
  8
gg1
 62
1
 40
0.000000
 41
0.000000
 66
  1
  0
VERTEX
  8
gg1
 10
1.202500
 20
1.205000
  0
VERTEX
  8
gg1
 10
1.217500
 20
1.205000
  0
SEQEND
  8
gg1
  0
POLYLINE
  8
gg1
 62
1
 40
0.000000
 41
0.000000
 66
  1
  0
VERTEX
  8
gg1
 10
1.210000
 20
1.197500
  0
VERTEX
  8
gg1
 10
1.210000
 20
1.212500
  0
SEQEND
  8
gg1
  0
POLYLINE
  8
gg1
 62
1
 40
0.000000
 41
0.000000
 66
  1
  0
VERTEX
  8
gg1
 10
1.172500
 20
1.205000
  0
VERTEX
  8
gg1
 10
1.187500
 20
1.205000
  0
SEQEND
  8
gg1
  0
POLYLINE
  8
gg1
 62
1
 40
0.000000
 41
0.000000
 66
  1
  0
VERTEX
  8
gg1
 10
1.180000
 20
1.197500
  0
VERTEX
  8
gg1
 10
1.180000
 20
1.212500
  0
SEQEND
  8
gg1
  0
POLYLINE
  8
gg1
 62
1
 40
0.000000
 41
0.000000
 66
  1
  0
VERTEX
  8
gg1
 10
1.062500
 20
1.225000
  0
VERTEX
  8
gg1
 10
1.077500
 20
1.225000
  0
SEQEND
  8
gg1
  0
POLYLINE
  8
gg1
 62
1
 40
0.000000
 41
0.000000
 66
  1
  0
VERTEX
  8
gg1
 10
1.070000
 20
1.217500
  0
VERTEX
  8
gg1
 10
1.070000
 20
1.232500
  0
SEQEND
  8
gg1
  0
POLYLINE
  8
gg1
 62
1
 40
0.000000
 41
0.000000
 66
  1
  0
VERTEX
  8
gg1
 10
1.142500
 20
1.145000
  0
VERTEX
  8
gg1
 10
1.157500
 20
1.145000
  0
SEQEND
  8
gg1
  0
POLYLINE
  8
gg1
 62
1
 40
0.000000
 41
0.000000
 66
  1
  0
VERTEX
  8
gg1
 10
1.150000
 20
1.137500
  0
VERTEX
  8
gg1
 10
1.150000
 20
1.152500
  0
SEQEND
  8
gg1
  0
POLYLINE
  8
gg1
 62
1
 40
0.000000
 41
0.000000
 66
  1
  0
VERTEX
  8
gg1
 10
1.172500
 20
1.145000
  0
VERTEX
  8
gg1
 10
1.187500
 20
1.145000
  0
SEQEND
  8
gg1
  0
POLYLINE
  8
gg1
 62
1
 40
0.000000
 41
0.000000
 66
  1
  0
VERTEX
  8
gg1
 10
1.180000
 20
1.137500
  0
VERTEX
  8
gg1
 10
1.180000
 20
1.152500
  0
SEQEND
  8
gg1
  0
POLYLINE
  8
gg1
 62
1
 40
0.000000
 41
0.000000
 66
  1
  0
VERTEX
  8
gg1
 10
1.202500
 20
1.145000
  0
VERTEX
  8
gg1
 10
1.217500
 20
1.145000
  0
SEQEND
  8
gg1
  0
POLYLINE
  8
gg1
 62
1
 40
0.000000
 41
0.000000
 66
  1
  0
VERTEX
  8
gg1
 10
1.210000
 20
1.137500
  0
VERTEX
  8
gg1
 10
1.210000
 20
1.152500
  0
SEQEND
  8
gg1
  0
POLYLINE
  8
gg1
 62
1
 40
0.000000
 41
0.000000
 66
  1
  0
VERTEX
  8
gg1
 10
1.142500
 20
1.115000
  0
VERTEX
  8
gg1
 10
1.157500
 20
1.115000
  0
SEQEND
  8
gg1
  0
POLYLINE
  8
gg1
 62
1
 40
0.000000
 41
0.000000
 66
  1
  0
VERTEX
  8
gg1
 10
1.150000
 20
1.107500
  0
VERTEX
  8
gg1
 10
1.150000
 20
1.122500
  0
SEQEND
  8
gg1
  0
POLYLINE
  8
gg1
 62
1
 40
0.000000
 41
0.000000
 66
  1
  0
VERTEX
  8
gg1
 10
1.142500
 20
1.085000
  0
VERTEX
  8
gg1
 10
1.157500
 20
1.085000
  0
SEQEND
  8
gg1
  0
POLYLINE
  8
gg1
 62
1
 40
0.000000
 41
0.000000
 66
  1
  0
VERTEX
  8
gg1
 10
1.150000
 20
1.077500
  0
VERTEX
  8
gg1
 10
1.150000
 20
1.092500
  0
SEQEND
  8
gg1
  0
POLYLINE
  8
gg1
 62
1
 40
0.000000
 41
0.000000
 66
  1
  0
VERTEX
  8
gg1
 10
1.142500
 20
1.055000
  0
VERTEX
  8
gg1
 10
1.157500
 20
1.055000
  0
SEQEND
  8
gg1
  0
POLYLINE
  8
gg1
 62
1
 40
0.000000
 41
0.000000
 66
  1
  0
VERTEX
  8
gg1
 10
1.150000
 20
1.047500
  0
VERTEX
  8
gg1
 10
1.150000
 20
1.062500
  0
SEQEND
  8
gg1
  0
POLYLINE
  8
gg1
 62
1
 40
0.000000
 41
0.000000
 66
  1
  0
VERTEX
  8
gg1
 10
1.142500
 20
1.025000
  0
VERTEX
  8
gg1
 10
1.157500
 20
1.025000
  0
SEQEND
  8
gg1
  0
POLYLINE
  8
gg1
 62
1
 40
0.000000
 41
0.000000
 66
  1
  0
VERTEX
  8
gg1
 10
1.150000
 20
1.017500
  0
VERTEX
  8
gg1
 10
1.150000
 20
1.032500
  0
SEQEND
  8
gg1
  0
POLYLINE
  8
gg1
 62
1
 40
0.000000
 41
0.000000
 66
  1
  0
VERTEX
  8
gg1
 10
1.232500
 20
1.175000
  0
VERTEX
  8
gg1
 10
1.247500
 20
1.175000
  0
SEQEND
  8
gg1
  0
POLYLINE
  8
gg1
 62
1
 40
0.000000
 41
0.000000
 66
  1
  0
VERTEX
  8
gg1
 10
1.240000
 20
1.167500
  0
VERTEX
  8
gg1
 10
1.240000
 20
1.182500
  0
SEQEND
  8
gg1
  0
POLYLINE
  8
gg1
 62
1
 40
0.000000
 41
0.000000
 66
  1
  0
VERTEX
  8
gg1
 10
1.177500
 20
0.845000
  0
VERTEX
  8
gg1
 10
1.192500
 20
0.845000
  0
SEQEND
  8
gg1
  0
POLYLINE
  8
gg1
 62
1
 40
0.000000
 41
0.000000
 66
  1
  0
VERTEX
  8
gg1
 10
1.185000
 20
0.837500
  0
VERTEX
  8
gg1
 10
1.185000
 20
0.852500
  0
SEQEND
  8
gg1
  0
POLYLINE
  8
gg1
 62
1
 40
0.000000
 41
0.000000
 66
  1
  0
VERTEX
  8
gg1
 10
1.537500
 20
0.815000
  0
VERTEX
  8
gg1
 10
1.552500
 20
0.815000
  0
SEQEND
  8
gg1
  0
POLYLINE
  8
gg1
 62
1
 40
0.000000
 41
0.000000
 66
  1
  0
VERTEX
  8
gg1
 10
1.545000
 20
0.807500
  0
VERTEX
  8
gg1
 10
1.545000
 20
0.822500
  0
SEQEND
  8
gg1
  0
POLYLINE
  8
gg1
 62
1
 40
0.000000
 41
0.000000
 66
  1
  0
VERTEX
  8
gg1
 10
1.607500
 20
0.815000
  0
VERTEX
  8
gg1
 10
1.622500
 20
0.815000
  0
SEQEND
  8
gg1
  0
POLYLINE
  8
gg1
 62
1
 40
0.000000
 41
0.000000
 66
  1
  0
VERTEX
  8
gg1
 10
1.615000
 20
0.807500
  0
VERTEX
  8
gg1
 10
1.615000
 20
0.822500
  0
SEQEND
  8
gg1
  0
POLYLINE
  8
gg1
 62
1
 40
0.000000
 41
0.000000
 66
  1
  0
VERTEX
  8
gg1
 10
1.607500
 20
0.775000
  0
VERTEX
  8
gg1
 10
1.622500
 20
0.775000
  0
SEQEND
  8
gg1
  0
POLYLINE
  8
gg1
 62
1
 40
0.000000
 41
0.000000
 66
  1
  0
VERTEX
  8
gg1
 10
1.615000
 20
0.767500
  0
VERTEX
  8
gg1
 10
1.615000
 20
0.782500
  0
SEQEND
  8
gg1
  0
POLYLINE
  8
gg1
 62
1
 40
0.000000
 41
0.000000
 66
  1
  0
VERTEX
  8
gg1
 10
1.537500
 20
0.775000
  0
VERTEX
  8
gg1
 10
1.552500
 20
0.775000
  0
SEQEND
  8
gg1
  0
POLYLINE
  8
gg1
 62
1
 40
0.000000
 41
0.000000
 66
  1
  0
VERTEX
  8
gg1
 10
1.545000
 20
0.767500
  0
VERTEX
  8
gg1
 10
1.545000
 20
0.782500
  0
SEQEND
  8
gg1
  0
POLYLINE
  8
gg1
 62
1
 40
0.000000
 41
0.000000
 66
  1
  0
VERTEX
  8
gg1
 10
1.607500
 20
0.735000
  0
VERTEX
  8
gg1
 10
1.622500
 20
0.735000
  0
SEQEND
  8
gg1
  0
POLYLINE
  8
gg1
 62
1
 40
0.000000
 41
0.000000
 66
  1
  0
VERTEX
  8
gg1
 10
1.615000
 20
0.727500
  0
VERTEX
  8
gg1
 10
1.615000
 20
0.742500
  0
SEQEND
  8
gg1
  0
POLYLINE
  8
gg1
 62
1
 40
0.000000
 41
0.000000
 66
  1
  0
VERTEX
  8
gg1
 10
1.537500
 20
0.735000
  0
VERTEX
  8
gg1
 10
1.552500
 20
0.735000
  0
SEQEND
  8
gg1
  0
POLYLINE
  8
gg1
 62
1
 40
0.000000
 41
0.000000
 66
  1
  0
VERTEX
  8
gg1
 10
1.545000
 20
0.727500
  0
VERTEX
  8
gg1
 10
1.545000
 20
0.742500
  0
SEQEND
  8
gg1
  0
POLYLINE
  8
gg1
 62
1
 40
0.000000
 41
0.000000
 66
  1
  0
VERTEX
  8
gg1
 10
1.467500
 20
0.735000
  0
VERTEX
  8
gg1
 10
1.482500
 20
0.735000
  0
SEQEND
  8
gg1
  0
POLYLINE
  8
gg1
 62
1
 40
0.000000
 41
0.000000
 66
  1
  0
VERTEX
  8
gg1
 10
1.475000
 20
0.727500
  0
VERTEX
  8
gg1
 10
1.475000
 20
0.742500
  0
SEQEND
  8
gg1
  0
POLYLINE
  8
gg1
 62
1
 40
0.000000
 41
0.000000
 66
  1
  0
VERTEX
  8
gg1
 10
1.617500
 20
0.650000
  0
VERTEX
  8
gg1
 10
1.632500
 20
0.650000
  0
SEQEND
  8
gg1
  0
POLYLINE
  8
gg1
 62
1
 40
0.000000
 41
0.000000
 66
  1
  0
VERTEX
  8
gg1
 10
1.625000
 20
0.642500
  0
VERTEX
  8
gg1
 10
1.625000
 20
0.657500
  0
SEQEND
  8
gg1
  0
POLYLINE
  8
gg1
 62
1
 40
0.000000
 41
0.000000
 66
  1
  0
VERTEX
  8
gg1
 10
1.577500
 20
0.650000
  0
VERTEX
  8
gg1
 10
1.592500
 20
0.650000
  0
SEQEND
  8
gg1
  0
POLYLINE
  8
gg1
 62
1
 40
0.000000
 41
0.000000
 66
  1
  0
VERTEX
  8
gg1
 10
1.585000
 20
0.642500
  0
VERTEX
  8
gg1
 10
1.585000
 20
0.657500
  0
SEQEND
  8
gg1
  0
POLYLINE
  8
gg1
 62
1
 40
0.000000
 41
0.000000
 66
  1
  0
VERTEX
  8
gg1
 10
1.537500
 20
0.650000
  0
VERTEX
  8
gg1
 10
1.552500
 20
0.650000
  0
SEQEND
  8
gg1
  0
POLYLINE
  8
gg1
 62
1
 40
0.000000
 41
0.000000
 66
  1
  0
VERTEX
  8
gg1
 10
1.545000
 20
0.642500
  0
VERTEX
  8
gg1
 10
1.545000
 20
0.657500
  0
SEQEND
  8
gg1
  0
POLYLINE
  8
gg1
 62
1
 40
0.000000
 41
0.000000
 66
  1
  0
VERTEX
  8
gg1
 10
1.497500
 20
0.650000
  0
VERTEX
  8
gg1
 10
1.512500
 20
0.650000
  0
SEQEND
  8
gg1
  0
POLYLINE
  8
gg1
 62
1
 40
0.000000
 41
0.000000
 66
  1
  0
VERTEX
  8
gg1
 10
1.505000
 20
0.642500
  0
VERTEX
  8
gg1
 10
1.505000
 20
0.657500
  0
SEQEND
  8
gg1
  0
POLYLINE
  8
gg1
 62
1
 40
0.000000
 41
0.000000
 66
  1
  0
VERTEX
  8
gg1
 10
1.457500
 20
0.650000
  0
VERTEX
  8
gg1
 10
1.472500
 20
0.650000
  0
SEQEND
  8
gg1
  0
POLYLINE
  8
gg1
 62
1
 40
0.000000
 41
0.000000
 66
  1
  0
VERTEX
  8
gg1
 10
1.465000
 20
0.642500
  0
VERTEX
  8
gg1
 10
1.465000
 20
0.657500
  0
SEQEND
  8
gg1
  0
POLYLINE
  8
gg1
 62
1
 40
0.000000
 41
0.000000
 66
  1
  0
VERTEX
  8
gg1
 10
1.417500
 20
0.850000
  0
VERTEX
  8
gg1
 10
1.432500
 20
0.850000
  0
SEQEND
  8
gg1
  0
POLYLINE
  8
gg1
 62
1
 40
0.000000
 41
0.000000
 66
  1
  0
VERTEX
  8
gg1
 10
1.425000
 20
0.842500
  0
VERTEX
  8
gg1
 10
1.425000
 20
0.857500
  0
SEQEND
  8
gg1
  0
POLYLINE
  8
gg1
 62
1
 40
0.000000
 41
0.000000
 66
  1
  0
VERTEX
  8
gg1
 10
1.435000
 20
1.400000
  0
VERTEX
  8
gg1
 10
1.450000
 20
1.400000
  0
SEQEND
  8
gg1
  0
POLYLINE
  8
gg1
 62
1
 40
0.000000
 41
0.000000
 66
  1
  0
VERTEX
  8
gg1
 10
1.442500
 20
1.392500
  0
VERTEX
  8
gg1
 10
1.442500
 20
1.407500
  0
SEQEND
  8
gg1
  0
POLYLINE
  8
gg1
 62
1
 40
0.000000
 41
0.000000
 66
  1
  0
VERTEX
  8
gg1
 10
1.467500
 20
1.432500
  0
VERTEX
  8
gg1
 10
1.482500
 20
1.432500
  0
SEQEND
  8
gg1
  0
POLYLINE
  8
gg1
 62
1
 40
0.000000
 41
0.000000
 66
  1
  0
VERTEX
  8
gg1
 10
1.475000
 20
1.425000
  0
VERTEX
  8
gg1
 10
1.475000
 20
1.440000
  0
SEQEND
  8
gg1
  0
POLYLINE
  8
gg1
 62
1
 40
0.000000
 41
0.000000
 66
  1
  0
VERTEX
  8
gg1
 10
1.500000
 20
1.400000
  0
VERTEX
  8
gg1
 10
1.515000
 20
1.400000
  0
SEQEND
  8
gg1
  0
POLYLINE
  8
gg1
 62
1
 40
0.000000
 41
0.000000
 66
  1
  0
VERTEX
  8
gg1
 10
1.507500
 20
1.392500
  0
VERTEX
  8
gg1
 10
1.507500
 20
1.407500
  0
SEQEND
  8
gg1
  0
POLYLINE
  8
gg1
 62
1
 40
0.000000
 41
0.000000
 66
  1
  0
VERTEX
  8
gg1
 10
1.467500
 20
1.367500
  0
VERTEX
  8
gg1
 10
1.482500
 20
1.367500
  0
SEQEND
  8
gg1
  0
POLYLINE
  8
gg1
 62
1
 40
0.000000
 41
0.000000
 66
  1
  0
VERTEX
  8
gg1
 10
1.475000
 20
1.360000
  0
VERTEX
  8
gg1
 10
1.475000
 20
1.375000
  0
SEQEND
  8
gg1
  0
POLYLINE
  8
gg1
 62
1
 40
0.000000
 41
0.000000
 66
  1
  0
VERTEX
  8
gg1
 10
1.467500
 20
1.400000
  0
VERTEX
  8
gg1
 10
1.482500
 20
1.400000
  0
SEQEND
  8
gg1
  0
POLYLINE
  8
gg1
 62
1
 40
0.000000
 41
0.000000
 66
  1
  0
VERTEX
  8
gg1
 10
1.475000
 20
1.392500
  0
VERTEX
  8
gg1
 10
1.475000
 20
1.407500
  0
SEQEND
  8
gg1
  0
POLYLINE
  8
gg1
 62
1
 40
0.000000
 41
0.000000
 66
  1
  0
VERTEX
  8
gg1
 10
1.500000
 20
1.432500
  0
VERTEX
  8
gg1
 10
1.515000
 20
1.432500
  0
SEQEND
  8
gg1
  0
POLYLINE
  8
gg1
 62
1
 40
0.000000
 41
0.000000
 66
  1
  0
VERTEX
  8
gg1
 10
1.507500
 20
1.425000
  0
VERTEX
  8
gg1
 10
1.507500
 20
1.440000
  0
SEQEND
  8
gg1
  0
POLYLINE
  8
gg1
 62
1
 40
0.000000
 41
0.000000
 66
  1
  0
VERTEX
  8
gg1
 10
1.435000
 20
1.432500
  0
VERTEX
  8
gg1
 10
1.450000
 20
1.432500
  0
SEQEND
  8
gg1
  0
POLYLINE
  8
gg1
 62
1
 40
0.000000
 41
0.000000
 66
  1
  0
VERTEX
  8
gg1
 10
1.442500
 20
1.425000
  0
VERTEX
  8
gg1
 10
1.442500
 20
1.440000
  0
SEQEND
  8
gg1
  0
POLYLINE
  8
gg1
 62
1
 40
0.000000
 41
0.000000
 66
  1
  0
VERTEX
  8
gg1
 10
1.435000
 20
1.367500
  0
VERTEX
  8
gg1
 10
1.450000
 20
1.367500
  0
SEQEND
  8
gg1
  0
POLYLINE
  8
gg1
 62
1
 40
0.000000
 41
0.000000
 66
  1
  0
VERTEX
  8
gg1
 10
1.442500
 20
1.360000
  0
VERTEX
  8
gg1
 10
1.442500
 20
1.375000
  0
SEQEND
  8
gg1
  0
POLYLINE
  8
gg1
 62
1
 40
0.000000
 41
0.000000
 66
  1
  0
VERTEX
  8
gg1
 10
1.500000
 20
1.367500
  0
VERTEX
  8
gg1
 10
1.515000
 20
1.367500
  0
SEQEND
  8
gg1
  0
POLYLINE
  8
gg1
 62
1
 40
0.000000
 41
0.000000
 66
  1
  0
VERTEX
  8
gg1
 10
1.507500
 20
1.360000
  0
VERTEX
  8
gg1
 10
1.507500
 20
1.375000
  0
SEQEND
  8
gg1
  0
POLYLINE
  8
gg1
 62
1
 40
0.000000
 41
0.000000
 66
  1
  0
VERTEX
  8
gg1
 10
1.942500
 20
1.297500
  0
VERTEX
  8
gg1
 10
1.957500
 20
1.297500
  0
SEQEND
  8
gg1
  0
POLYLINE
  8
gg1
 62
1
 40
0.000000
 41
0.000000
 66
  1
  0
VERTEX
  8
gg1
 10
1.950000
 20
1.290000
  0
VERTEX
  8
gg1
 10
1.950000
 20
1.305000
  0
SEQEND
  8
gg1
  0
POLYLINE
  8
gg1
 62
1
 40
0.000000
 41
0.000000
 66
  1
  0
VERTEX
  8
gg1
 10
1.975000
 20
1.265000
  0
VERTEX
  8
gg1
 10
1.990000
 20
1.265000
  0
SEQEND
  8
gg1
  0
POLYLINE
  8
gg1
 62
1
 40
0.000000
 41
0.000000
 66
  1
  0
VERTEX
  8
gg1
 10
1.982500
 20
1.257500
  0
VERTEX
  8
gg1
 10
1.982500
 20
1.272500
  0
SEQEND
  8
gg1
  0
POLYLINE
  8
gg1
 62
1
 40
0.000000
 41
0.000000
 66
  1
  0
VERTEX
  8
gg1
 10
1.942500
 20
1.232500
  0
VERTEX
  8
gg1
 10
1.957500
 20
1.232500
  0
SEQEND
  8
gg1
  0
POLYLINE
  8
gg1
 62
1
 40
0.000000
 41
0.000000
 66
  1
  0
VERTEX
  8
gg1
 10
1.950000
 20
1.225000
  0
VERTEX
  8
gg1
 10
1.950000
 20
1.240000
  0
SEQEND
  8
gg1
  0
POLYLINE
  8
gg1
 62
1
 40
0.000000
 41
0.000000
 66
  1
  0
VERTEX
  8
gg1
 10
1.910000
 20
1.265000
  0
VERTEX
  8
gg1
 10
1.925000
 20
1.265000
  0
SEQEND
  8
gg1
  0
POLYLINE
  8
gg1
 62
1
 40
0.000000
 41
0.000000
 66
  1
  0
VERTEX
  8
gg1
 10
1.917500
 20
1.257500
  0
VERTEX
  8
gg1
 10
1.917500
 20
1.272500
  0
SEQEND
  8
gg1
  0
POLYLINE
  8
gg1
 62
1
 40
0.000000
 41
0.000000
 66
  1
  0
VERTEX
  8
gg1
 10
1.942500
 20
1.265000
  0
VERTEX
  8
gg1
 10
1.957500
 20
1.265000
  0
SEQEND
  8
gg1
  0
POLYLINE
  8
gg1
 62
1
 40
0.000000
 41
0.000000
 66
  1
  0
VERTEX
  8
gg1
 10
1.950000
 20
1.257500
  0
VERTEX
  8
gg1
 10
1.950000
 20
1.272500
  0
SEQEND
  8
gg1
  0
POLYLINE
  8
gg1
 62
1
 40
0.000000
 41
0.000000
 66
  1
  0
VERTEX
  8
gg1
 10
1.975000
 20
1.232500
  0
VERTEX
  8
gg1
 10
1.990000
 20
1.232500
  0
SEQEND
  8
gg1
  0
POLYLINE
  8
gg1
 62
1
 40
0.000000
 41
0.000000
 66
  1
  0
VERTEX
  8
gg1
 10
1.982500
 20
1.225000
  0
VERTEX
  8
gg1
 10
1.982500
 20
1.240000
  0
SEQEND
  8
gg1
  0
POLYLINE
  8
gg1
 62
1
 40
0.000000
 41
0.000000
 66
  1
  0
VERTEX
  8
gg1
 10
1.975000
 20
1.297500
  0
VERTEX
  8
gg1
 10
1.990000
 20
1.297500
  0
SEQEND
  8
gg1
  0
POLYLINE
  8
gg1
 62
1
 40
0.000000
 41
0.000000
 66
  1
  0
VERTEX
  8
gg1
 10
1.982500
 20
1.290000
  0
VERTEX
  8
gg1
 10
1.982500
 20
1.305000
  0
SEQEND
  8
gg1
  0
POLYLINE
  8
gg1
 62
1
 40
0.000000
 41
0.000000
 66
  1
  0
VERTEX
  8
gg1
 10
1.910000
 20
1.297500
  0
VERTEX
  8
gg1
 10
1.925000
 20
1.297500
  0
SEQEND
  8
gg1
  0
POLYLINE
  8
gg1
 62
1
 40
0.000000
 41
0.000000
 66
  1
  0
VERTEX
  8
gg1
 10
1.917500
 20
1.290000
  0
VERTEX
  8
gg1
 10
1.917500
 20
1.305000
  0
SEQEND
  8
gg1
  0
POLYLINE
  8
gg1
 62
1
 40
0.000000
 41
0.000000
 66
  1
  0
VERTEX
  8
gg1
 10
1.910000
 20
1.232500
  0
VERTEX
  8
gg1
 10
1.925000
 20
1.232500
  0
SEQEND
  8
gg1
  0
POLYLINE
  8
gg1
 62
1
 40
0.000000
 41
0.000000
 66
  1
  0
VERTEX
  8
gg1
 10
1.917500
 20
1.225000
  0
VERTEX
  8
gg1
 10
1.917500
 20
1.240000
  0
SEQEND
  8
gg1
  0
POLYLINE
  8
gg1
 62
1
 40
0.000000
 41
0.000000
 66
  1
  0
VERTEX
  8
gg1
 10
1.112500
 20
1.055000
  0
VERTEX
  8
gg1
 10
1.127500
 20
1.055000
  0
SEQEND
  8
gg1
  0
POLYLINE
  8
gg1
 62
1
 40
0.000000
 41
0.000000
 66
  1
  0
VERTEX
  8
gg1
 10
1.120000
 20
1.047500
  0
VERTEX
  8
gg1
 10
1.120000
 20
1.062500
  0
SEQEND
  8
gg1
  0
POLYLINE
  8
gg1
 62
1
 40
0.000000
 41
0.000000
 66
  1
  0
VERTEX
  8
gg1
 10
1.112500
 20
1.085000
  0
VERTEX
  8
gg1
 10
1.127500
 20
1.085000
  0
SEQEND
  8
gg1
  0
POLYLINE
  8
gg1
 62
1
 40
0.000000
 41
0.000000
 66
  1
  0
VERTEX
  8
gg1
 10
1.120000
 20
1.077500
  0
VERTEX
  8
gg1
 10
1.120000
 20
1.092500
  0
SEQEND
  8
gg1
  0
POLYLINE
  8
gg1
 62
1
 40
0.000000
 41
0.000000
 66
  1
  0
VERTEX
  8
gg1
 10
1.112500
 20
1.115000
  0
VERTEX
  8
gg1
 10
1.127500
 20
1.115000
  0
SEQEND
  8
gg1
  0
POLYLINE
  8
gg1
 62
1
 40
0.000000
 41
0.000000
 66
  1
  0
VERTEX
  8
gg1
 10
1.120000
 20
1.107500
  0
VERTEX
  8
gg1
 10
1.120000
 20
1.122500
  0
SEQEND
  8
gg1
  0
POLYLINE
  8
gg1
 62
1
 40
0.000000
 41
0.000000
 66
  1
  0
VERTEX
  8
gg1
 10
1.112500
 20
1.145000
  0
VERTEX
  8
gg1
 10
1.127500
 20
1.145000
  0
SEQEND
  8
gg1
  0
POLYLINE
  8
gg1
 62
1
 40
0.000000
 41
0.000000
 66
  1
  0
VERTEX
  8
gg1
 10
1.120000
 20
1.137500
  0
VERTEX
  8
gg1
 10
1.120000
 20
1.152500
  0
SEQEND
  8
gg1
  0
POLYLINE
  8
gg1
 62
1
 40
0.000000
 41
0.000000
 66
  1
  0
VERTEX
  8
gg1
 10
1.082500
 20
1.115000
  0
VERTEX
  8
gg1
 10
1.097500
 20
1.115000
  0
SEQEND
  8
gg1
  0
POLYLINE
  8
gg1
 62
1
 40
0.000000
 41
0.000000
 66
  1
  0
VERTEX
  8
gg1
 10
1.090000
 20
1.107500
  0
VERTEX
  8
gg1
 10
1.090000
 20
1.122500
  0
SEQEND
  8
gg1
  0
POLYLINE
  8
gg1
 62
1
 40
0.000000
 41
0.000000
 66
  1
  0
VERTEX
  8
gg1
 10
1.082500
 20
1.085000
  0
VERTEX
  8
gg1
 10
1.097500
 20
1.085000
  0
SEQEND
  8
gg1
  0
POLYLINE
  8
gg1
 62
1
 40
0.000000
 41
0.000000
 66
  1
  0
VERTEX
  8
gg1
 10
1.090000
 20
1.077500
  0
VERTEX
  8
gg1
 10
1.090000
 20
1.092500
  0
SEQEND
  8
gg1
  0
POLYLINE
  8
gg1
 62
1
 40
0.000000
 41
0.000000
 66
  1
  0
VERTEX
  8
gg1
 10
0.917500
 20
0.895000
  0
VERTEX
  8
gg1
 10
0.932500
 20
0.895000
  0
SEQEND
  8
gg1
  0
POLYLINE
  8
gg1
 62
1
 40
0.000000
 41
0.000000
 66
  1
  0
VERTEX
  8
gg1
 10
0.925000
 20
0.887500
  0
VERTEX
  8
gg1
 10
0.925000
 20
0.902500
  0
SEQEND
  8
gg1
  0
POLYLINE
  8
gg1
 62
1
 40
0.000000
 41
0.000000
 66
  1
  0
VERTEX
  8
gg1
 10
0.917500
 20
0.835000
  0
VERTEX
  8
gg1
 10
0.932500
 20
0.835000
  0
SEQEND
  8
gg1
  0
POLYLINE
  8
gg1
 62
1
 40
0.000000
 41
0.000000
 66
  1
  0
VERTEX
  8
gg1
 10
0.925000
 20
0.827500
  0
VERTEX
  8
gg1
 10
0.925000
 20
0.842500
  0
SEQEND
  8
gg1
  0
POLYLINE
  8
gg1
 62
1
 40
0.000000
 41
0.000000
 66
  1
  0
VERTEX
  8
gg1
 10
1.032500
 20
1.195000
  0
VERTEX
  8
gg1
 10
1.047500
 20
1.195000
  0
SEQEND
  8
gg1
  0
POLYLINE
  8
gg1
 62
1
 40
0.000000
 41
0.000000
 66
  1
  0
VERTEX
  8
gg1
 10
1.040000
 20
1.187500
  0
VERTEX
  8
gg1
 10
1.040000
 20
1.202500
  0
SEQEND
  8
gg1
  0
POLYLINE
  8
gg1
 62
1
 40
0.000000
 41
0.000000
 66
  1
  0
VERTEX
  8
gg1
 10
0.972500
 20
1.225000
  0
VERTEX
  8
gg1
 10
0.987500
 20
1.225000
  0
SEQEND
  8
gg1
  0
POLYLINE
  8
gg1
 62
1
 40
0.000000
 41
0.000000
 66
  1
  0
VERTEX
  8
gg1
 10
0.980000
 20
1.217500
  0
VERTEX
  8
gg1
 10
0.980000
 20
1.232500
  0
SEQEND
  8
gg1
  0
POLYLINE
  8
gg1
 62
1
 40
0.000000
 41
0.000000
 66
  1
  0
VERTEX
  8
gg1
 10
0.897500
 20
1.225000
  0
VERTEX
  8
gg1
 10
0.912500
 20
1.225000
  0
SEQEND
  8
gg1
  0
POLYLINE
  8
gg1
 62
1
 40
0.000000
 41
0.000000
 66
  1
  0
VERTEX
  8
gg1
 10
0.905000
 20
1.217500
  0
VERTEX
  8
gg1
 10
0.905000
 20
1.232500
  0
SEQEND
  8
gg1
  0
POLYLINE
  8
gg1
 62
1
 40
0.000000
 41
0.000000
 66
  1
  0
VERTEX
  8
gg1
 10
0.867500
 20
1.225000
  0
VERTEX
  8
gg1
 10
0.882500
 20
1.225000
  0
SEQEND
  8
gg1
  0
POLYLINE
  8
gg1
 62
1
 40
0.000000
 41
0.000000
 66
  1
  0
VERTEX
  8
gg1
 10
0.875000
 20
1.217500
  0
VERTEX
  8
gg1
 10
0.875000
 20
1.232500
  0
SEQEND
  8
gg1
  0
POLYLINE
  8
gg1
 62
1
 40
0.000000
 41
0.000000
 66
  1
  0
VERTEX
  8
gg1
 10
0.832500
 20
1.190000
  0
VERTEX
  8
gg1
 10
0.847500
 20
1.190000
  0
SEQEND
  8
gg1
  0
POLYLINE
  8
gg1
 62
1
 40
0.000000
 41
0.000000
 66
  1
  0
VERTEX
  8
gg1
 10
0.840000
 20
1.182500
  0
VERTEX
  8
gg1
 10
0.840000
 20
1.197500
  0
SEQEND
  8
gg1
  0
POLYLINE
  8
gg1
 62
1
 40
0.000000
 41
0.000000
 66
  1
  0
VERTEX
  8
gg1
 10
0.832500
 20
1.160000
  0
VERTEX
  8
gg1
 10
0.847500
 20
1.160000
  0
SEQEND
  8
gg1
  0
POLYLINE
  8
gg1
 62
1
 40
0.000000
 41
0.000000
 66
  1
  0
VERTEX
  8
gg1
 10
0.840000
 20
1.152500
  0
VERTEX
  8
gg1
 10
0.840000
 20
1.167500
  0
SEQEND
  8
gg1
  0
POLYLINE
  8
gg1
 62
1
 40
0.000000
 41
0.000000
 66
  1
  0
VERTEX
  8
gg1
 10
0.832500
 20
1.130000
  0
VERTEX
  8
gg1
 10
0.847500
 20
1.130000
  0
SEQEND
  8
gg1
  0
POLYLINE
  8
gg1
 62
1
 40
0.000000
 41
0.000000
 66
  1
  0
VERTEX
  8
gg1
 10
0.840000
 20
1.122500
  0
VERTEX
  8
gg1
 10
0.840000
 20
1.137500
  0
SEQEND
  8
gg1
  0
POLYLINE
  8
gg1
 62
1
 40
0.000000
 41
0.000000
 66
  1
  0
VERTEX
  8
gg1
 10
0.802500
 20
1.160000
  0
VERTEX
  8
gg1
 10
0.817500
 20
1.160000
  0
SEQEND
  8
gg1
  0
POLYLINE
  8
gg1
 62
1
 40
0.000000
 41
0.000000
 66
  1
  0
VERTEX
  8
gg1
 10
0.810000
 20
1.152500
  0
VERTEX
  8
gg1
 10
0.810000
 20
1.167500
  0
SEQEND
  8
gg1
  0
POLYLINE
  8
gg1
 62
1
 40
0.000000
 41
0.000000
 66
  1
  0
VERTEX
  8
gg1
 10
0.802500
 20
1.130000
  0
VERTEX
  8
gg1
 10
0.817500
 20
1.130000
  0
SEQEND
  8
gg1
  0
POLYLINE
  8
gg1
 62
1
 40
0.000000
 41
0.000000
 66
  1
  0
VERTEX
  8
gg1
 10
0.810000
 20
1.122500
  0
VERTEX
  8
gg1
 10
0.810000
 20
1.137500
  0
SEQEND
  8
gg1
  0
POLYLINE
  8
gg1
 62
1
 40
0.000000
 41
0.000000
 66
  1
  0
VERTEX
  8
gg1
 10
0.772500
 20
1.100000
  0
VERTEX
  8
gg1
 10
0.787500
 20
1.100000
  0
SEQEND
  8
gg1
  0
POLYLINE
  8
gg1
 62
1
 40
0.000000
 41
0.000000
 66
  1
  0
VERTEX
  8
gg1
 10
0.780000
 20
1.092500
  0
VERTEX
  8
gg1
 10
0.780000
 20
1.107500
  0
SEQEND
  8
gg1
  0
POLYLINE
  8
gg1
 62
1
 40
0.000000
 41
0.000000
 66
  1
  0
VERTEX
  8
gg1
 10
0.772500
 20
1.130000
  0
VERTEX
  8
gg1
 10
0.787500
 20
1.130000
  0
SEQEND
  8
gg1
  0
POLYLINE
  8
gg1
 62
1
 40
0.000000
 41
0.000000
 66
  1
  0
VERTEX
  8
gg1
 10
0.780000
 20
1.122500
  0
VERTEX
  8
gg1
 10
0.780000
 20
1.137500
  0
SEQEND
  8
gg1
  0
POLYLINE
  8
gg1
 62
1
 40
0.000000
 41
0.000000
 66
  1
  0
VERTEX
  8
gg1
 10
0.802500
 20
1.100000
  0
VERTEX
  8
gg1
 10
0.817500
 20
1.100000
  0
SEQEND
  8
gg1
  0
POLYLINE
  8
gg1
 62
1
 40
0.000000
 41
0.000000
 66
  1
  0
VERTEX
  8
gg1
 10
0.810000
 20
1.092500
  0
VERTEX
  8
gg1
 10
0.810000
 20
1.107500
  0
SEQEND
  8
gg1
  0
POLYLINE
  8
gg1
 62
1
 40
0.000000
 41
0.000000
 66
  1
  0
VERTEX
  8
gg1
 10
1.177500
 20
0.895000
  0
VERTEX
  8
gg1
 10
1.192500
 20
0.895000
  0
SEQEND
  8
gg1
  0
POLYLINE
  8
gg1
 62
1
 40
0.000000
 41
0.000000
 66
  1
  0
VERTEX
  8
gg1
 10
1.185000
 20
0.887500
  0
VERTEX
  8
gg1
 10
1.185000
 20
0.902500
  0
SEQEND
  8
gg1
  0
POLYLINE
  8
gg1
 62
1
 40
0.000000
 41
0.000000
 66
  1
  0
VERTEX
  8
gg1
 10
1.417500
 20
0.930000
  0
VERTEX
  8
gg1
 10
1.432500
 20
0.930000
  0
SEQEND
  8
gg1
  0
POLYLINE
  8
gg1
 62
1
 40
0.000000
 41
0.000000
 66
  1
  0
VERTEX
  8
gg1
 10
1.425000
 20
0.922500
  0
VERTEX
  8
gg1
 10
1.425000
 20
0.937500
  0
SEQEND
  8
gg1
  0
POLYLINE
  8
gg1
 62
1
 40
0.000000
 41
0.000000
 66
  1
  0
VERTEX
  8
gg1
 10
1.417500
 20
0.890000
  0
VERTEX
  8
gg1
 10
1.432500
 20
0.890000
  0
SEQEND
  8
gg1
  0
POLYLINE
  8
gg1
 62
1
 40
0.000000
 41
0.000000
 66
  1
  0
VERTEX
  8
gg1
 10
1.425000
 20
0.882500
  0
VERTEX
  8
gg1
 10
1.425000
 20
0.897500
  0
SEQEND
  8
gg1
  0
POLYLINE
  8
gg1
 62
1
 40
0.000000
 41
0.000000
 66
  1
  0
VERTEX
  8
gg1
 10
1.467500
 20
0.770000
  0
VERTEX
  8
gg1
 10
1.482500
 20
0.770000
  0
SEQEND
  8
gg1
  0
POLYLINE
  8
gg1
 62
1
 40
0.000000
 41
0.000000
 66
  1
  0
VERTEX
  8
gg1
 10
1.475000
 20
0.762500
  0
VERTEX
  8
gg1
 10
1.475000
 20
0.777500
  0
SEQEND
  8
gg1
  0
POLYLINE
  8
gg1
 62
1
 40
0.000000
 41
0.000000
 66
  1
  0
VERTEX
  8
gg1
 10
1.502500
 20
0.755000
  0
VERTEX
  8
gg1
 10
1.517500
 20
0.755000
  0
SEQEND
  8
gg1
  0
POLYLINE
  8
gg1
 62
1
 40
0.000000
 41
0.000000
 66
  1
  0
VERTEX
  8
gg1
 10
1.510000
 20
0.747500
  0
VERTEX
  8
gg1
 10
1.510000
 20
0.762500
  0
SEQEND
  8
gg1
  0
POLYLINE
  8
gg1
 62
1
 40
0.000000
 41
0.000000
 66
  1
  0
VERTEX
  8
gg1
 10
1.502500
 20
0.795000
  0
VERTEX
  8
gg1
 10
1.517500
 20
0.795000
  0
SEQEND
  8
gg1
  0
POLYLINE
  8
gg1
 62
1
 40
0.000000
 41
0.000000
 66
  1
  0
VERTEX
  8
gg1
 10
1.510000
 20
0.787500
  0
VERTEX
  8
gg1
 10
1.510000
 20
0.802500
  0
SEQEND
  8
gg1
  0
POLYLINE
  8
gg1
 62
1
 40
0.000000
 41
0.000000
 66
  1
  0
VERTEX
  8
gg1
 10
1.572500
 20
0.795000
  0
VERTEX
  8
gg1
 10
1.587500
 20
0.795000
  0
SEQEND
  8
gg1
  0
POLYLINE
  8
gg1
 62
1
 40
0.000000
 41
0.000000
 66
  1
  0
VERTEX
  8
gg1
 10
1.580000
 20
0.787500
  0
VERTEX
  8
gg1
 10
1.580000
 20
0.802500
  0
SEQEND
  8
gg1
  0
POLYLINE
  8
gg1
 62
1
 40
0.000000
 41
0.000000
 66
  1
  0
VERTEX
  8
gg1
 10
1.572500
 20
0.755000
  0
VERTEX
  8
gg1
 10
1.587500
 20
0.755000
  0
SEQEND
  8
gg1
  0
POLYLINE
  8
gg1
 62
1
 40
0.000000
 41
0.000000
 66
  1
  0
VERTEX
  8
gg1
 10
1.580000
 20
0.747500
  0
VERTEX
  8
gg1
 10
1.580000
 20
0.762500
  0
SEQEND
  8
gg1
  0
POLYLINE
  8
gg1
 62
1
 40
0.000000
 41
0.000000
 66
  1
  0
VERTEX
  8
gg1
 10
1.572500
 20
0.835000
  0
VERTEX
  8
gg1
 10
1.587500
 20
0.835000
  0
SEQEND
  8
gg1
  0
POLYLINE
  8
gg1
 62
1
 40
0.000000
 41
0.000000
 66
  1
  0
VERTEX
  8
gg1
 10
1.580000
 20
0.827500
  0
VERTEX
  8
gg1
 10
1.580000
 20
0.842500
  0
SEQEND
  8
gg1
  0
POLYLINE
  8
gg1
 62
1
 40
0.000000
 41
0.000000
 66
  1
  0
VERTEX
  8
gg1
 10
1.502500
 20
0.835000
  0
VERTEX
  8
gg1
 10
1.517500
 20
0.835000
  0
SEQEND
  8
gg1
  0
POLYLINE
  8
gg1
 62
1
 40
0.000000
 41
0.000000
 66
  1
  0
VERTEX
  8
gg1
 10
1.510000
 20
0.827500
  0
VERTEX
  8
gg1
 10
1.510000
 20
0.842500
  0
SEQEND
  8
gg1
  0
POLYLINE
  8
gg1
 62
1
 40
0.000000
 41
0.000000
 66
  1
  0
VERTEX
  8
gg1
 10
1.467500
 20
0.805000
  0
VERTEX
  8
gg1
 10
1.482500
 20
0.805000
  0
SEQEND
  8
gg1
  0
POLYLINE
  8
gg1
 62
1
 40
0.000000
 41
0.000000
 66
  1
  0
VERTEX
  8
gg1
 10
1.475000
 20
0.797500
  0
VERTEX
  8
gg1
 10
1.475000
 20
0.812500
  0
SEQEND
  8
gg1
  0
POLYLINE
  8
gg1
 62
1
 40
0.000000
 41
0.000000
 66
  1
  0
VERTEX
  8
gg1
 10
1.227500
 20
0.815000
  0
VERTEX
  8
gg1
 10
1.242500
 20
0.815000
  0
SEQEND
  8
gg1
  0
POLYLINE
  8
gg1
 62
1
 40
0.000000
 41
0.000000
 66
  1
  0
VERTEX
  8
gg1
 10
1.235000
 20
0.807500
  0
VERTEX
  8
gg1
 10
1.235000
 20
0.822500
  0
SEQEND
  8
gg1
  0
POLYLINE
  8
gg1
 62
1
 40
0.000000
 41
0.000000
 66
  1
  0
VERTEX
  8
gg1
 10
1.262500
 20
0.835000
  0
VERTEX
  8
gg1
 10
1.277500
 20
0.835000
  0
SEQEND
  8
gg1
  0
POLYLINE
  8
gg1
 62
1
 40
0.000000
 41
0.000000
 66
  1
  0
VERTEX
  8
gg1
 10
1.270000
 20
0.827500
  0
VERTEX
  8
gg1
 10
1.270000
 20
0.842500
  0
SEQEND
  8
gg1
  0
POLYLINE
  8
gg1
 62
1
 40
0.000000
 41
0.000000
 66
  1
  0
VERTEX
  8
gg1
 10
1.332500
 20
0.835000
  0
VERTEX
  8
gg1
 10
1.347500
 20
0.835000
  0
SEQEND
  8
gg1
  0
POLYLINE
  8
gg1
 62
1
 40
0.000000
 41
0.000000
 66
  1
  0
VERTEX
  8
gg1
 10
1.340000
 20
0.827500
  0
VERTEX
  8
gg1
 10
1.340000
 20
0.842500
  0
SEQEND
  8
gg1
  0
POLYLINE
  8
gg1
 62
1
 40
0.000000
 41
0.000000
 66
  1
  0
VERTEX
  8
gg1
 10
1.332500
 20
0.755000
  0
VERTEX
  8
gg1
 10
1.347500
 20
0.755000
  0
SEQEND
  8
gg1
  0
POLYLINE
  8
gg1
 62
1
 40
0.000000
 41
0.000000
 66
  1
  0
VERTEX
  8
gg1
 10
1.340000
 20
0.747500
  0
VERTEX
  8
gg1
 10
1.340000
 20
0.762500
  0
SEQEND
  8
gg1
  0
POLYLINE
  8
gg1
 62
1
 40
0.000000
 41
0.000000
 66
  1
  0
VERTEX
  8
gg1
 10
1.332500
 20
0.795000
  0
VERTEX
  8
gg1
 10
1.347500
 20
0.795000
  0
SEQEND
  8
gg1
  0
POLYLINE
  8
gg1
 62
1
 40
0.000000
 41
0.000000
 66
  1
  0
VERTEX
  8
gg1
 10
1.340000
 20
0.787500
  0
VERTEX
  8
gg1
 10
1.340000
 20
0.802500
  0
SEQEND
  8
gg1
  0
POLYLINE
  8
gg1
 62
1
 40
0.000000
 41
0.000000
 66
  1
  0
VERTEX
  8
gg1
 10
1.262500
 20
0.795000
  0
VERTEX
  8
gg1
 10
1.277500
 20
0.795000
  0
SEQEND
  8
gg1
  0
POLYLINE
  8
gg1
 62
1
 40
0.000000
 41
0.000000
 66
  1
  0
VERTEX
  8
gg1
 10
1.270000
 20
0.787500
  0
VERTEX
  8
gg1
 10
1.270000
 20
0.802500
  0
SEQEND
  8
gg1
  0
POLYLINE
  8
gg1
 62
1
 40
0.000000
 41
0.000000
 66
  1
  0
VERTEX
  8
gg1
 10
1.262500
 20
0.755000
  0
VERTEX
  8
gg1
 10
1.277500
 20
0.755000
  0
SEQEND
  8
gg1
  0
POLYLINE
  8
gg1
 62
1
 40
0.000000
 41
0.000000
 66
  1
  0
VERTEX
  8
gg1
 10
1.270000
 20
0.747500
  0
VERTEX
  8
gg1
 10
1.270000
 20
0.762500
  0
SEQEND
  8
gg1
  0
POLYLINE
  8
gg1
 62
1
 40
0.000000
 41
0.000000
 66
  1
  0
VERTEX
  8
gg1
 10
1.227500
 20
0.775000
  0
VERTEX
  8
gg1
 10
1.242500
 20
0.775000
  0
SEQEND
  8
gg1
  0
POLYLINE
  8
gg1
 62
1
 40
0.000000
 41
0.000000
 66
  1
  0
VERTEX
  8
gg1
 10
1.235000
 20
0.767500
  0
VERTEX
  8
gg1
 10
1.235000
 20
0.782500
  0
SEQEND
  8
gg1
  0
POLYLINE
  8
gg1
 62
1
 40
0.000000
 41
0.000000
 66
  1
  0
VERTEX
  8
gg1
 10
1.217500
 20
0.650000
  0
VERTEX
  8
gg1
 10
1.232500
 20
0.650000
  0
SEQEND
  8
gg1
  0
POLYLINE
  8
gg1
 62
1
 40
0.000000
 41
0.000000
 66
  1
  0
VERTEX
  8
gg1
 10
1.225000
 20
0.642500
  0
VERTEX
  8
gg1
 10
1.225000
 20
0.657500
  0
SEQEND
  8
gg1
  0
POLYLINE
  8
gg1
 62
1
 40
0.000000
 41
0.000000
 66
  1
  0
VERTEX
  8
gg1
 10
1.257500
 20
0.650000
  0
VERTEX
  8
gg1
 10
1.272500
 20
0.650000
  0
SEQEND
  8
gg1
  0
POLYLINE
  8
gg1
 62
1
 40
0.000000
 41
0.000000
 66
  1
  0
VERTEX
  8
gg1
 10
1.265000
 20
0.642500
  0
VERTEX
  8
gg1
 10
1.265000
 20
0.657500
  0
SEQEND
  8
gg1
  0
POLYLINE
  8
gg1
 62
1
 40
0.000000
 41
0.000000
 66
  1
  0
VERTEX
  8
gg1
 10
1.297500
 20
0.650000
  0
VERTEX
  8
gg1
 10
1.312500
 20
0.650000
  0
SEQEND
  8
gg1
  0
POLYLINE
  8
gg1
 62
1
 40
0.000000
 41
0.000000
 66
  1
  0
VERTEX
  8
gg1
 10
1.305000
 20
0.642500
  0
VERTEX
  8
gg1
 10
1.305000
 20
0.657500
  0
SEQEND
  8
gg1
  0
POLYLINE
  8
gg1
 62
1
 40
0.000000
 41
0.000000
 66
  1
  0
VERTEX
  8
gg1
 10
1.337500
 20
0.650000
  0
VERTEX
  8
gg1
 10
1.352500
 20
0.650000
  0
SEQEND
  8
gg1
  0
POLYLINE
  8
gg1
 62
1
 40
0.000000
 41
0.000000
 66
  1
  0
VERTEX
  8
gg1
 10
1.345000
 20
0.642500
  0
VERTEX
  8
gg1
 10
1.345000
 20
0.657500
  0
SEQEND
  8
gg1
  0
POLYLINE
  8
gg1
 62
1
 40
0.000000
 41
0.000000
 66
  1
  0
VERTEX
  8
gg1
 10
1.377500
 20
0.650000
  0
VERTEX
  8
gg1
 10
1.392500
 20
0.650000
  0
SEQEND
  8
gg1
  0
POLYLINE
  8
gg1
 62
1
 40
0.000000
 41
0.000000
 66
  1
  0
VERTEX
  8
gg1
 10
1.385000
 20
0.642500
  0
VERTEX
  8
gg1
 10
1.385000
 20
0.657500
  0
SEQEND
  8
gg1
  0
POLYLINE
  8
gg1
 62
1
 40
0.000000
 41
0.000000
 66
  1
  0
VERTEX
  8
gg1
 10
1.227500
 20
0.735000
  0
VERTEX
  8
gg1
 10
1.242500
 20
0.735000
  0
SEQEND
  8
gg1
  0
POLYLINE
  8
gg1
 62
1
 40
0.000000
 41
0.000000
 66
  1
  0
VERTEX
  8
gg1
 10
1.235000
 20
0.727500
  0
VERTEX
  8
gg1
 10
1.235000
 20
0.742500
  0
SEQEND
  8
gg1
  0
POLYLINE
  8
gg1
 62
1
 40
0.000000
 41
0.000000
 66
  1
  0
VERTEX
  8
gg1
 10
1.297500
 20
0.735000
  0
VERTEX
  8
gg1
 10
1.312500
 20
0.735000
  0
SEQEND
  8
gg1
  0
POLYLINE
  8
gg1
 62
1
 40
0.000000
 41
0.000000
 66
  1
  0
VERTEX
  8
gg1
 10
1.305000
 20
0.727500
  0
VERTEX
  8
gg1
 10
1.305000
 20
0.742500
  0
SEQEND
  8
gg1
  0
POLYLINE
  8
gg1
 62
1
 40
0.000000
 41
0.000000
 66
  1
  0
VERTEX
  8
gg1
 10
1.367500
 20
0.735000
  0
VERTEX
  8
gg1
 10
1.382500
 20
0.735000
  0
SEQEND
  8
gg1
  0
POLYLINE
  8
gg1
 62
1
 40
0.000000
 41
0.000000
 66
  1
  0
VERTEX
  8
gg1
 10
1.375000
 20
0.727500
  0
VERTEX
  8
gg1
 10
1.375000
 20
0.742500
  0
SEQEND
  8
gg1
  0
POLYLINE
  8
gg1
 62
1
 40
0.000000
 41
0.000000
 66
  1
  0
VERTEX
  8
gg1
 10
1.297500
 20
0.775000
  0
VERTEX
  8
gg1
 10
1.312500
 20
0.775000
  0
SEQEND
  8
gg1
  0
POLYLINE
  8
gg1
 62
1
 40
0.000000
 41
0.000000
 66
  1
  0
VERTEX
  8
gg1
 10
1.305000
 20
0.767500
  0
VERTEX
  8
gg1
 10
1.305000
 20
0.782500
  0
SEQEND
  8
gg1
  0
POLYLINE
  8
gg1
 62
1
 40
0.000000
 41
0.000000
 66
  1
  0
VERTEX
  8
gg1
 10
1.367500
 20
0.775000
  0
VERTEX
  8
gg1
 10
1.382500
 20
0.775000
  0
SEQEND
  8
gg1
  0
POLYLINE
  8
gg1
 62
1
 40
0.000000
 41
0.000000
 66
  1
  0
VERTEX
  8
gg1
 10
1.375000
 20
0.767500
  0
VERTEX
  8
gg1
 10
1.375000
 20
0.782500
  0
SEQEND
  8
gg1
  0
POLYLINE
  8
gg1
 62
1
 40
0.000000
 41
0.000000
 66
  1
  0
VERTEX
  8
gg1
 10
1.367500
 20
0.815000
  0
VERTEX
  8
gg1
 10
1.382500
 20
0.815000
  0
SEQEND
  8
gg1
  0
POLYLINE
  8
gg1
 62
1
 40
0.000000
 41
0.000000
 66
  1
  0
VERTEX
  8
gg1
 10
1.375000
 20
0.807500
  0
VERTEX
  8
gg1
 10
1.375000
 20
0.822500
  0
SEQEND
  8
gg1
  0
POLYLINE
  8
gg1
 62
1
 40
0.000000
 41
0.000000
 66
  1
  0
VERTEX
  8
gg1
 10
1.297500
 20
0.815000
  0
VERTEX
  8
gg1
 10
1.312500
 20
0.815000
  0
SEQEND
  8
gg1
  0
POLYLINE
  8
gg1
 62
1
 40
0.000000
 41
0.000000
 66
  1
  0
VERTEX
  8
gg1
 10
1.305000
 20
0.807500
  0
VERTEX
  8
gg1
 10
1.305000
 20
0.822500
  0
SEQEND
  8
gg1
  0
POLYLINE
  8
gg1
 62
1
 40
0.000000
 41
0.000000
 66
  1
  0
VERTEX
  8
gg1
 10
0.967500
 20
0.815000
  0
VERTEX
  8
gg1
 10
0.982500
 20
0.815000
  0
SEQEND
  8
gg1
  0
POLYLINE
  8
gg1
 62
1
 40
0.000000
 41
0.000000
 66
  1
  0
VERTEX
  8
gg1
 10
0.975000
 20
0.807500
  0
VERTEX
  8
gg1
 10
0.975000
 20
0.822500
  0
SEQEND
  8
gg1
  0
POLYLINE
  8
gg1
 62
1
 40
0.000000
 41
0.000000
 66
  1
  0
VERTEX
  8
gg1
 10
1.002500
 20
0.835000
  0
VERTEX
  8
gg1
 10
1.017500
 20
0.835000
  0
SEQEND
  8
gg1
  0
POLYLINE
  8
gg1
 62
1
 40
0.000000
 41
0.000000
 66
  1
  0
VERTEX
  8
gg1
 10
1.010000
 20
0.827500
  0
VERTEX
  8
gg1
 10
1.010000
 20
0.842500
  0
SEQEND
  8
gg1
  0
POLYLINE
  8
gg1
 62
1
 40
0.000000
 41
0.000000
 66
  1
  0
VERTEX
  8
gg1
 10
1.072500
 20
0.835000
  0
VERTEX
  8
gg1
 10
1.087500
 20
0.835000
  0
SEQEND
  8
gg1
  0
POLYLINE
  8
gg1
 62
1
 40
0.000000
 41
0.000000
 66
  1
  0
VERTEX
  8
gg1
 10
1.080000
 20
0.827500
  0
VERTEX
  8
gg1
 10
1.080000
 20
0.842500
  0
SEQEND
  8
gg1
  0
POLYLINE
  8
gg1
 62
1
 40
0.000000
 41
0.000000
 66
  1
  0
VERTEX
  8
gg1
 10
1.072500
 20
0.755000
  0
VERTEX
  8
gg1
 10
1.087500
 20
0.755000
  0
SEQEND
  8
gg1
  0
POLYLINE
  8
gg1
 62
1
 40
0.000000
 41
0.000000
 66
  1
  0
VERTEX
  8
gg1
 10
1.080000
 20
0.747500
  0
VERTEX
  8
gg1
 10
1.080000
 20
0.762500
  0
SEQEND
  8
gg1
  0
POLYLINE
  8
gg1
 62
1
 40
0.000000
 41
0.000000
 66
  1
  0
VERTEX
  8
gg1
 10
1.072500
 20
0.795000
  0
VERTEX
  8
gg1
 10
1.087500
 20
0.795000
  0
SEQEND
  8
gg1
  0
POLYLINE
  8
gg1
 62
1
 40
0.000000
 41
0.000000
 66
  1
  0
VERTEX
  8
gg1
 10
1.080000
 20
0.787500
  0
VERTEX
  8
gg1
 10
1.080000
 20
0.802500
  0
SEQEND
  8
gg1
  0
POLYLINE
  8
gg1
 62
1
 40
0.000000
 41
0.000000
 66
  1
  0
VERTEX
  8
gg1
 10
1.002500
 20
0.795000
  0
VERTEX
  8
gg1
 10
1.017500
 20
0.795000
  0
SEQEND
  8
gg1
  0
POLYLINE
  8
gg1
 62
1
 40
0.000000
 41
0.000000
 66
  1
  0
VERTEX
  8
gg1
 10
1.010000
 20
0.787500
  0
VERTEX
  8
gg1
 10
1.010000
 20
0.802500
  0
SEQEND
  8
gg1
  0
POLYLINE
  8
gg1
 62
1
 40
0.000000
 41
0.000000
 66
  1
  0
VERTEX
  8
gg1
 10
1.002500
 20
0.755000
  0
VERTEX
  8
gg1
 10
1.017500
 20
0.755000
  0
SEQEND
  8
gg1
  0
POLYLINE
  8
gg1
 62
1
 40
0.000000
 41
0.000000
 66
  1
  0
VERTEX
  8
gg1
 10
1.010000
 20
0.747500
  0
VERTEX
  8
gg1
 10
1.010000
 20
0.762500
  0
SEQEND
  8
gg1
  0
POLYLINE
  8
gg1
 62
1
 40
0.000000
 41
0.000000
 66
  1
  0
VERTEX
  8
gg1
 10
0.967500
 20
0.775000
  0
VERTEX
  8
gg1
 10
0.982500
 20
0.775000
  0
SEQEND
  8
gg1
  0
POLYLINE
  8
gg1
 62
1
 40
0.000000
 41
0.000000
 66
  1
  0
VERTEX
  8
gg1
 10
0.975000
 20
0.767500
  0
VERTEX
  8
gg1
 10
0.975000
 20
0.782500
  0
SEQEND
  8
gg1
  0
POLYLINE
  8
gg1
 62
1
 40
0.000000
 41
0.000000
 66
  1
  0
VERTEX
  8
gg1
 10
0.957500
 20
0.650000
  0
VERTEX
  8
gg1
 10
0.972500
 20
0.650000
  0
SEQEND
  8
gg1
  0
POLYLINE
  8
gg1
 62
1
 40
0.000000
 41
0.000000
 66
  1
  0
VERTEX
  8
gg1
 10
0.965000
 20
0.642500
  0
VERTEX
  8
gg1
 10
0.965000
 20
0.657500
  0
SEQEND
  8
gg1
  0
POLYLINE
  8
gg1
 62
1
 40
0.000000
 41
0.000000
 66
  1
  0
VERTEX
  8
gg1
 10
0.997500
 20
0.650000
  0
VERTEX
  8
gg1
 10
1.012500
 20
0.650000
  0
SEQEND
  8
gg1
  0
POLYLINE
  8
gg1
 62
1
 40
0.000000
 41
0.000000
 66
  1
  0
VERTEX
  8
gg1
 10
1.005000
 20
0.642500
  0
VERTEX
  8
gg1
 10
1.005000
 20
0.657500
  0
SEQEND
  8
gg1
  0
POLYLINE
  8
gg1
 62
1
 40
0.000000
 41
0.000000
 66
  1
  0
VERTEX
  8
gg1
 10
1.037500
 20
0.650000
  0
VERTEX
  8
gg1
 10
1.052500
 20
0.650000
  0
SEQEND
  8
gg1
  0
POLYLINE
  8
gg1
 62
1
 40
0.000000
 41
0.000000
 66
  1
  0
VERTEX
  8
gg1
 10
1.045000
 20
0.642500
  0
VERTEX
  8
gg1
 10
1.045000
 20
0.657500
  0
SEQEND
  8
gg1
  0
POLYLINE
  8
gg1
 62
1
 40
0.000000
 41
0.000000
 66
  1
  0
VERTEX
  8
gg1
 10
1.077500
 20
0.650000
  0
VERTEX
  8
gg1
 10
1.092500
 20
0.650000
  0
SEQEND
  8
gg1
  0
POLYLINE
  8
gg1
 62
1
 40
0.000000
 41
0.000000
 66
  1
  0
VERTEX
  8
gg1
 10
1.085000
 20
0.642500
  0
VERTEX
  8
gg1
 10
1.085000
 20
0.657500
  0
SEQEND
  8
gg1
  0
POLYLINE
  8
gg1
 62
1
 40
0.000000
 41
0.000000
 66
  1
  0
VERTEX
  8
gg1
 10
1.117500
 20
0.650000
  0
VERTEX
  8
gg1
 10
1.132500
 20
0.650000
  0
SEQEND
  8
gg1
  0
POLYLINE
  8
gg1
 62
1
 40
0.000000
 41
0.000000
 66
  1
  0
VERTEX
  8
gg1
 10
1.125000
 20
0.642500
  0
VERTEX
  8
gg1
 10
1.125000
 20
0.657500
  0
SEQEND
  8
gg1
  0
POLYLINE
  8
gg1
 62
1
 40
0.000000
 41
0.000000
 66
  1
  0
VERTEX
  8
gg1
 10
0.967500
 20
0.735000
  0
VERTEX
  8
gg1
 10
0.982500
 20
0.735000
  0
SEQEND
  8
gg1
  0
POLYLINE
  8
gg1
 62
1
 40
0.000000
 41
0.000000
 66
  1
  0
VERTEX
  8
gg1
 10
0.975000
 20
0.727500
  0
VERTEX
  8
gg1
 10
0.975000
 20
0.742500
  0
SEQEND
  8
gg1
  0
POLYLINE
  8
gg1
 62
1
 40
0.000000
 41
0.000000
 66
  1
  0
VERTEX
  8
gg1
 10
1.037500
 20
0.735000
  0
VERTEX
  8
gg1
 10
1.052500
 20
0.735000
  0
SEQEND
  8
gg1
  0
POLYLINE
  8
gg1
 62
1
 40
0.000000
 41
0.000000
 66
  1
  0
VERTEX
  8
gg1
 10
1.045000
 20
0.727500
  0
VERTEX
  8
gg1
 10
1.045000
 20
0.742500
  0
SEQEND
  8
gg1
  0
POLYLINE
  8
gg1
 62
1
 40
0.000000
 41
0.000000
 66
  1
  0
VERTEX
  8
gg1
 10
1.107500
 20
0.735000
  0
VERTEX
  8
gg1
 10
1.122500
 20
0.735000
  0
SEQEND
  8
gg1
  0
POLYLINE
  8
gg1
 62
1
 40
0.000000
 41
0.000000
 66
  1
  0
VERTEX
  8
gg1
 10
1.115000
 20
0.727500
  0
VERTEX
  8
gg1
 10
1.115000
 20
0.742500
  0
SEQEND
  8
gg1
  0
POLYLINE
  8
gg1
 62
1
 40
0.000000
 41
0.000000
 66
  1
  0
VERTEX
  8
gg1
 10
1.037500
 20
0.775000
  0
VERTEX
  8
gg1
 10
1.052500
 20
0.775000
  0
SEQEND
  8
gg1
  0
POLYLINE
  8
gg1
 62
1
 40
0.000000
 41
0.000000
 66
  1
  0
VERTEX
  8
gg1
 10
1.045000
 20
0.767500
  0
VERTEX
  8
gg1
 10
1.045000
 20
0.782500
  0
SEQEND
  8
gg1
  0
POLYLINE
  8
gg1
 62
1
 40
0.000000
 41
0.000000
 66
  1
  0
VERTEX
  8
gg1
 10
1.107500
 20
0.775000
  0
VERTEX
  8
gg1
 10
1.122500
 20
0.775000
  0
SEQEND
  8
gg1
  0
POLYLINE
  8
gg1
 62
1
 40
0.000000
 41
0.000000
 66
  1
  0
VERTEX
  8
gg1
 10
1.115000
 20
0.767500
  0
VERTEX
  8
gg1
 10
1.115000
 20
0.782500
  0
SEQEND
  8
gg1
  0
POLYLINE
  8
gg1
 62
1
 40
0.000000
 41
0.000000
 66
  1
  0
VERTEX
  8
gg1
 10
1.107500
 20
0.815000
  0
VERTEX
  8
gg1
 10
1.122500
 20
0.815000
  0
SEQEND
  8
gg1
  0
POLYLINE
  8
gg1
 62
1
 40
0.000000
 41
0.000000
 66
  1
  0
VERTEX
  8
gg1
 10
1.115000
 20
0.807500
  0
VERTEX
  8
gg1
 10
1.115000
 20
0.822500
  0
SEQEND
  8
gg1
  0
POLYLINE
  8
gg1
 62
1
 40
0.000000
 41
0.000000
 66
  1
  0
VERTEX
  8
gg1
 10
1.037500
 20
0.815000
  0
VERTEX
  8
gg1
 10
1.052500
 20
0.815000
  0
SEQEND
  8
gg1
  0
POLYLINE
  8
gg1
 62
1
 40
0.000000
 41
0.000000
 66
  1
  0
VERTEX
  8
gg1
 10
1.045000
 20
0.807500
  0
VERTEX
  8
gg1
 10
1.045000
 20
0.822500
  0
SEQEND
  8
gg1
  0
POLYLINE
  8
gg1
 62
1
 40
0.000000
 41
0.000000
 66
  1
  0
VERTEX
  8
gg1
 10
0.727500
 20
0.815000
  0
VERTEX
  8
gg1
 10
0.742500
 20
0.815000
  0
SEQEND
  8
gg1
  0
POLYLINE
  8
gg1
 62
1
 40
0.000000
 41
0.000000
 66
  1
  0
VERTEX
  8
gg1
 10
0.735000
 20
0.807500
  0
VERTEX
  8
gg1
 10
0.735000
 20
0.822500
  0
SEQEND
  8
gg1
  0
POLYLINE
  8
gg1
 62
1
 40
0.000000
 41
0.000000
 66
  1
  0
VERTEX
  8
gg1
 10
0.762500
 20
0.835000
  0
VERTEX
  8
gg1
 10
0.777500
 20
0.835000
  0
SEQEND
  8
gg1
  0
POLYLINE
  8
gg1
 62
1
 40
0.000000
 41
0.000000
 66
  1
  0
VERTEX
  8
gg1
 10
0.770000
 20
0.827500
  0
VERTEX
  8
gg1
 10
0.770000
 20
0.842500
  0
SEQEND
  8
gg1
  0
POLYLINE
  8
gg1
 62
1
 40
0.000000
 41
0.000000
 66
  1
  0
VERTEX
  8
gg1
 10
0.832500
 20
0.835000
  0
VERTEX
  8
gg1
 10
0.847500
 20
0.835000
  0
SEQEND
  8
gg1
  0
POLYLINE
  8
gg1
 62
1
 40
0.000000
 41
0.000000
 66
  1
  0
VERTEX
  8
gg1
 10
0.840000
 20
0.827500
  0
VERTEX
  8
gg1
 10
0.840000
 20
0.842500
  0
SEQEND
  8
gg1
  0
POLYLINE
  8
gg1
 62
1
 40
0.000000
 41
0.000000
 66
  1
  0
VERTEX
  8
gg1
 10
0.832500
 20
0.755000
  0
VERTEX
  8
gg1
 10
0.847500
 20
0.755000
  0
SEQEND
  8
gg1
  0
POLYLINE
  8
gg1
 62
1
 40
0.000000
 41
0.000000
 66
  1
  0
VERTEX
  8
gg1
 10
0.840000
 20
0.747500
  0
VERTEX
  8
gg1
 10
0.840000
 20
0.762500
  0
SEQEND
  8
gg1
  0
POLYLINE
  8
gg1
 62
1
 40
0.000000
 41
0.000000
 66
  1
  0
VERTEX
  8
gg1
 10
0.832500
 20
0.795000
  0
VERTEX
  8
gg1
 10
0.847500
 20
0.795000
  0
SEQEND
  8
gg1
  0
POLYLINE
  8
gg1
 62
1
 40
0.000000
 41
0.000000
 66
  1
  0
VERTEX
  8
gg1
 10
0.840000
 20
0.787500
  0
VERTEX
  8
gg1
 10
0.840000
 20
0.802500
  0
SEQEND
  8
gg1
  0
POLYLINE
  8
gg1
 62
1
 40
0.000000
 41
0.000000
 66
  1
  0
VERTEX
  8
gg1
 10
0.762500
 20
0.795000
  0
VERTEX
  8
gg1
 10
0.777500
 20
0.795000
  0
SEQEND
  8
gg1
  0
POLYLINE
  8
gg1
 62
1
 40
0.000000
 41
0.000000
 66
  1
  0
VERTEX
  8
gg1
 10
0.770000
 20
0.787500
  0
VERTEX
  8
gg1
 10
0.770000
 20
0.802500
  0
SEQEND
  8
gg1
  0
POLYLINE
  8
gg1
 62
1
 40
0.000000
 41
0.000000
 66
  1
  0
VERTEX
  8
gg1
 10
0.762500
 20
0.755000
  0
VERTEX
  8
gg1
 10
0.777500
 20
0.755000
  0
SEQEND
  8
gg1
  0
POLYLINE
  8
gg1
 62
1
 40
0.000000
 41
0.000000
 66
  1
  0
VERTEX
  8
gg1
 10
0.770000
 20
0.747500
  0
VERTEX
  8
gg1
 10
0.770000
 20
0.762500
  0
SEQEND
  8
gg1
  0
POLYLINE
  8
gg1
 62
1
 40
0.000000
 41
0.000000
 66
  1
  0
VERTEX
  8
gg1
 10
0.727500
 20
0.775000
  0
VERTEX
  8
gg1
 10
0.742500
 20
0.775000
  0
SEQEND
  8
gg1
  0
POLYLINE
  8
gg1
 62
1
 40
0.000000
 41
0.000000
 66
  1
  0
VERTEX
  8
gg1
 10
0.735000
 20
0.767500
  0
VERTEX
  8
gg1
 10
0.735000
 20
0.782500
  0
SEQEND
  8
gg1
  0
POLYLINE
  8
gg1
 62
1
 40
0.000000
 41
0.000000
 66
  1
  0
VERTEX
  8
gg1
 10
0.717500
 20
0.650000
  0
VERTEX
  8
gg1
 10
0.732500
 20
0.650000
  0
SEQEND
  8
gg1
  0
POLYLINE
  8
gg1
 62
1
 40
0.000000
 41
0.000000
 66
  1
  0
VERTEX
  8
gg1
 10
0.725000
 20
0.642500
  0
VERTEX
  8
gg1
 10
0.725000
 20
0.657500
  0
SEQEND
  8
gg1
  0
POLYLINE
  8
gg1
 62
1
 40
0.000000
 41
0.000000
 66
  1
  0
VERTEX
  8
gg1
 10
0.757500
 20
0.650000
  0
VERTEX
  8
gg1
 10
0.772500
 20
0.650000
  0
SEQEND
  8
gg1
  0
POLYLINE
  8
gg1
 62
1
 40
0.000000
 41
0.000000
 66
  1
  0
VERTEX
  8
gg1
 10
0.765000
 20
0.642500
  0
VERTEX
  8
gg1
 10
0.765000
 20
0.657500
  0
SEQEND
  8
gg1
  0
POLYLINE
  8
gg1
 62
1
 40
0.000000
 41
0.000000
 66
  1
  0
VERTEX
  8
gg1
 10
0.797500
 20
0.650000
  0
VERTEX
  8
gg1
 10
0.812500
 20
0.650000
  0
SEQEND
  8
gg1
  0
POLYLINE
  8
gg1
 62
1
 40
0.000000
 41
0.000000
 66
  1
  0
VERTEX
  8
gg1
 10
0.805000
 20
0.642500
  0
VERTEX
  8
gg1
 10
0.805000
 20
0.657500
  0
SEQEND
  8
gg1
  0
POLYLINE
  8
gg1
 62
1
 40
0.000000
 41
0.000000
 66
  1
  0
VERTEX
  8
gg1
 10
0.837500
 20
0.650000
  0
VERTEX
  8
gg1
 10
0.852500
 20
0.650000
  0
SEQEND
  8
gg1
  0
POLYLINE
  8
gg1
 62
1
 40
0.000000
 41
0.000000
 66
  1
  0
VERTEX
  8
gg1
 10
0.845000
 20
0.642500
  0
VERTEX
  8
gg1
 10
0.845000
 20
0.657500
  0
SEQEND
  8
gg1
  0
POLYLINE
  8
gg1
 62
1
 40
0.000000
 41
0.000000
 66
  1
  0
VERTEX
  8
gg1
 10
0.877500
 20
0.650000
  0
VERTEX
  8
gg1
 10
0.892500
 20
0.650000
  0
SEQEND
  8
gg1
  0
POLYLINE
  8
gg1
 62
1
 40
0.000000
 41
0.000000
 66
  1
  0
VERTEX
  8
gg1
 10
0.885000
 20
0.642500
  0
VERTEX
  8
gg1
 10
0.885000
 20
0.657500
  0
SEQEND
  8
gg1
  0
POLYLINE
  8
gg1
 62
1
 40
0.000000
 41
0.000000
 66
  1
  0
VERTEX
  8
gg1
 10
0.727500
 20
0.735000
  0
VERTEX
  8
gg1
 10
0.742500
 20
0.735000
  0
SEQEND
  8
gg1
  0
POLYLINE
  8
gg1
 62
1
 40
0.000000
 41
0.000000
 66
  1
  0
VERTEX
  8
gg1
 10
0.735000
 20
0.727500
  0
VERTEX
  8
gg1
 10
0.735000
 20
0.742500
  0
SEQEND
  8
gg1
  0
POLYLINE
  8
gg1
 62
1
 40
0.000000
 41
0.000000
 66
  1
  0
VERTEX
  8
gg1
 10
0.797500
 20
0.735000
  0
VERTEX
  8
gg1
 10
0.812500
 20
0.735000
  0
SEQEND
  8
gg1
  0
POLYLINE
  8
gg1
 62
1
 40
0.000000
 41
0.000000
 66
  1
  0
VERTEX
  8
gg1
 10
0.805000
 20
0.727500
  0
VERTEX
  8
gg1
 10
0.805000
 20
0.742500
  0
SEQEND
  8
gg1
  0
POLYLINE
  8
gg1
 62
1
 40
0.000000
 41
0.000000
 66
  1
  0
VERTEX
  8
gg1
 10
0.867500
 20
0.735000
  0
VERTEX
  8
gg1
 10
0.882500
 20
0.735000
  0
SEQEND
  8
gg1
  0
POLYLINE
  8
gg1
 62
1
 40
0.000000
 41
0.000000
 66
  1
  0
VERTEX
  8
gg1
 10
0.875000
 20
0.727500
  0
VERTEX
  8
gg1
 10
0.875000
 20
0.742500
  0
SEQEND
  8
gg1
  0
POLYLINE
  8
gg1
 62
1
 40
0.000000
 41
0.000000
 66
  1
  0
VERTEX
  8
gg1
 10
0.797500
 20
0.775000
  0
VERTEX
  8
gg1
 10
0.812500
 20
0.775000
  0
SEQEND
  8
gg1
  0
POLYLINE
  8
gg1
 62
1
 40
0.000000
 41
0.000000
 66
  1
  0
VERTEX
  8
gg1
 10
0.805000
 20
0.767500
  0
VERTEX
  8
gg1
 10
0.805000
 20
0.782500
  0
SEQEND
  8
gg1
  0
POLYLINE
  8
gg1
 62
1
 40
0.000000
 41
0.000000
 66
  1
  0
VERTEX
  8
gg1
 10
0.867500
 20
0.770000
  0
VERTEX
  8
gg1
 10
0.882500
 20
0.770000
  0
SEQEND
  8
gg1
  0
POLYLINE
  8
gg1
 62
1
 40
0.000000
 41
0.000000
 66
  1
  0
VERTEX
  8
gg1
 10
0.875000
 20
0.762500
  0
VERTEX
  8
gg1
 10
0.875000
 20
0.777500
  0
SEQEND
  8
gg1
  0
POLYLINE
  8
gg1
 62
1
 40
0.000000
 41
0.000000
 66
  1
  0
VERTEX
  8
gg1
 10
0.867500
 20
0.805000
  0
VERTEX
  8
gg1
 10
0.882500
 20
0.805000
  0
SEQEND
  8
gg1
  0
POLYLINE
  8
gg1
 62
1
 40
0.000000
 41
0.000000
 66
  1
  0
VERTEX
  8
gg1
 10
0.875000
 20
0.797500
  0
VERTEX
  8
gg1
 10
0.875000
 20
0.812500
  0
SEQEND
  8
gg1
  0
POLYLINE
  8
gg1
 62
1
 40
0.000000
 41
0.000000
 66
  1
  0
VERTEX
  8
gg1
 10
0.797500
 20
0.815000
  0
VERTEX
  8
gg1
 10
0.812500
 20
0.815000
  0
SEQEND
  8
gg1
  0
POLYLINE
  8
gg1
 62
1
 40
0.000000
 41
0.000000
 66
  1
  0
VERTEX
  8
gg1
 10
0.805000
 20
0.807500
  0
VERTEX
  8
gg1
 10
0.805000
 20
0.822500
  0
SEQEND
  8
gg1
  0
POLYLINE
  8
gg1
 62
1
 40
0.000000
 41
0.000000
 66
  1
  0
VERTEX
  8
gg1
 10
1.172500
 20
1.175000
  0
VERTEX
  8
gg1
 10
1.187500
 20
1.175000
  0
SEQEND
  8
gg1
  0
POLYLINE
  8
gg1
 62
1
 40
0.000000
 41
0.000000
 66
  1
  0
VERTEX
  8
gg1
 10
1.180000
 20
1.167500
  0
VERTEX
  8
gg1
 10
1.180000
 20
1.182500
  0
SEQEND
  8
gg1
  0
POLYLINE
  8
gg1
 62
1
 40
0.000000
 41
0.000000
 66
  1
  0
VERTEX
  8
gg1
 10
1.142500
 20
1.175000
  0
VERTEX
  8
gg1
 10
1.157500
 20
1.175000
  0
SEQEND
  8
gg1
  0
POLYLINE
  8
gg1
 62
1
 40
0.000000
 41
0.000000
 66
  1
  0
VERTEX
  8
gg1
 10
1.150000
 20
1.167500
  0
VERTEX
  8
gg1
 10
1.150000
 20
1.182500
  0
SEQEND
  8
gg1
  0
POLYLINE
  8
gg1
 62
1
 40
0.000000
 41
0.000000
 66
  1
  0
VERTEX
  8
gg1
 10
1.232500
 20
1.205000
  0
VERTEX
  8
gg1
 10
1.247500
 20
1.205000
  0
SEQEND
  8
gg1
  0
POLYLINE
  8
gg1
 62
1
 40
0.000000
 41
0.000000
 66
  1
  0
VERTEX
  8
gg1
 10
1.240000
 20
1.197500
  0
VERTEX
  8
gg1
 10
1.240000
 20
1.212500
  0
SEQEND
  8
gg1
  0
POLYLINE
  8
gg1
 62
1
 40
0.000000
 41
0.000000
 66
  1
  0
VERTEX
  8
gg1
 10
1.202500
 20
1.175000
  0
VERTEX
  8
gg1
 10
1.217500
 20
1.175000
  0
SEQEND
  8
gg1
  0
POLYLINE
  8
gg1
 62
1
 40
0.000000
 41
0.000000
 66
  1
  0
VERTEX
  8
gg1
 10
1.210000
 20
1.167500
  0
VERTEX
  8
gg1
 10
1.210000
 20
1.182500
  0
SEQEND
  8
gg1
  0
POLYLINE
  8
gg1
 62
1
 40
0.000000
 41
0.000000
 66
  1
  0
VERTEX
  8
gg1
 10
1.032500
 20
1.225000
  0
VERTEX
  8
gg1
 10
1.047500
 20
1.225000
  0
SEQEND
  8
gg1
  0
POLYLINE
  8
gg1
 62
1
 40
0.000000
 41
0.000000
 66
  1
  0
VERTEX
  8
gg1
 10
1.040000
 20
1.217500
  0
VERTEX
  8
gg1
 10
1.040000
 20
1.232500
  0
SEQEND
  8
gg1
  0
POLYLINE
  8
gg1
 62
1
 40
0.000000
 41
0.000000
 66
  1
  0
VERTEX
  8
gg1
 10
1.002500
 20
1.225000
  0
VERTEX
  8
gg1
 10
1.017500
 20
1.225000
  0
SEQEND
  8
gg1
  0
POLYLINE
  8
gg1
 62
1
 40
0.000000
 41
0.000000
 66
  1
  0
VERTEX
  8
gg1
 10
1.010000
 20
1.217500
  0
VERTEX
  8
gg1
 10
1.010000
 20
1.232500
  0
SEQEND
  8
gg1
  0
POLYLINE
  8
gg1
 62
1
 40
0.000000
 41
0.000000
 66
  1
  0
VERTEX
  8
gg1
 10
1.682500
 20
0.865000
  0
VERTEX
  8
gg1
 10
1.697500
 20
0.865000
  0
SEQEND
  8
gg1
  0
POLYLINE
  8
gg1
 62
1
 40
0.000000
 41
0.000000
 66
  1
  0
VERTEX
  8
gg1
 10
1.690000
 20
0.857500
  0
VERTEX
  8
gg1
 10
1.690000
 20
0.872500
  0
SEQEND
  8
gg1
  0
POLYLINE
  8
gg1
 62
1
 40
0.000000
 41
0.000000
 66
  1
  0
VERTEX
  8
gg1
 10
0.627500
 20
0.970000
  0
VERTEX
  8
gg1
 10
0.642500
 20
0.970000
  0
SEQEND
  8
gg1
  0
POLYLINE
  8
gg1
 62
1
 40
0.000000
 41
0.000000
 66
  1
  0
VERTEX
  8
gg1
 10
0.635000
 20
0.962500
  0
VERTEX
  8
gg1
 10
0.635000
 20
0.977500
  0
SEQEND
  8
gg1
  0
POLYLINE
  8
gg1
 62
1
 40
0.000000
 41
0.000000
 66
  1
  0
VERTEX
  8
gg1
 10
0.627500
 20
0.930000
  0
VERTEX
  8
gg1
 10
0.642500
 20
0.930000
  0
SEQEND
  8
gg1
  0
POLYLINE
  8
gg1
 62
1
 40
0.000000
 41
0.000000
 66
  1
  0
VERTEX
  8
gg1
 10
0.635000
 20
0.922500
  0
VERTEX
  8
gg1
 10
0.635000
 20
0.937500
  0
SEQEND
  8
gg1
  0
POLYLINE
  8
gg1
 62
1
 40
0.000000
 41
0.000000
 66
  1
  0
VERTEX
  8
gg1
 10
0.642500
 20
0.840000
  0
VERTEX
  8
gg1
 10
0.657500
 20
0.840000
  0
SEQEND
  8
gg1
  0
POLYLINE
  8
gg1
 62
1
 40
0.000000
 41
0.000000
 66
  1
  0
VERTEX
  8
gg1
 10
0.650000
 20
0.832500
  0
VERTEX
  8
gg1
 10
0.650000
 20
0.847500
  0
SEQEND
  8
gg1
  0
POLYLINE
  8
gg1
 62
1
 40
0.000000
 41
0.000000
 66
  1
  0
VERTEX
  8
gg1
 10
0.607500
 20
0.895000
  0
VERTEX
  8
gg1
 10
0.622500
 20
0.895000
  0
SEQEND
  8
gg1
  0
POLYLINE
  8
gg1
 62
1
 40
0.000000
 41
0.000000
 66
  1
  0
VERTEX
  8
gg1
 10
0.615000
 20
0.887500
  0
VERTEX
  8
gg1
 10
0.615000
 20
0.902500
  0
SEQEND
  8
gg1
  0
POLYLINE
  8
gg1
 62
1
 40
0.000000
 41
0.000000
 66
  1
  0
VERTEX
  8
gg1
 10
0.242500
 20
0.740000
  0
VERTEX
  8
gg1
 10
0.257500
 20
0.740000
  0
SEQEND
  8
gg1
  0
POLYLINE
  8
gg1
 62
1
 40
0.000000
 41
0.000000
 66
  1
  0
VERTEX
  8
gg1
 10
0.250000
 20
0.732500
  0
VERTEX
  8
gg1
 10
0.250000
 20
0.747500
  0
SEQEND
  8
gg1
  0
POLYLINE
  8
gg1
 62
1
 40
0.000000
 41
0.000000
 66
  1
  0
VERTEX
  8
gg1
 10
0.272500
 20
0.715000
  0
VERTEX
  8
gg1
 10
0.287500
 20
0.715000
  0
SEQEND
  8
gg1
  0
POLYLINE
  8
gg1
 62
1
 40
0.000000
 41
0.000000
 66
  1
  0
VERTEX
  8
gg1
 10
0.280000
 20
0.707500
  0
VERTEX
  8
gg1
 10
0.280000
 20
0.722500
  0
SEQEND
  8
gg1
  0
POLYLINE
  8
gg1
 62
1
 40
0.000000
 41
0.000000
 66
  1
  0
VERTEX
  8
gg1
 10
0.447500
 20
0.330000
  0
VERTEX
  8
gg1
 10
0.462500
 20
0.330000
  0
SEQEND
  8
gg1
  0
POLYLINE
  8
gg1
 62
1
 40
0.000000
 41
0.000000
 66
  1
  0
VERTEX
  8
gg1
 10
0.455000
 20
0.322500
  0
VERTEX
  8
gg1
 10
0.455000
 20
0.337500
  0
SEQEND
  8
gg1
  0
POLYLINE
  8
gg1
 62
1
 40
0.000000
 41
0.000000
 66
  1
  0
VERTEX
  8
gg1
 10
0.237500
 20
0.825000
  0
VERTEX
  8
gg1
 10
0.252500
 20
0.825000
  0
SEQEND
  8
gg1
  0
POLYLINE
  8
gg1
 62
1
 40
0.000000
 41
0.000000
 66
  1
  0
VERTEX
  8
gg1
 10
0.245000
 20
0.817500
  0
VERTEX
  8
gg1
 10
0.245000
 20
0.832500
  0
SEQEND
  8
gg1
  0
POLYLINE
  8
gg1
 62
1
 40
0.000000
 41
0.000000
 66
  1
  0
VERTEX
  8
gg1
 10
0.357500
 20
0.740000
  0
VERTEX
  8
gg1
 10
0.372500
 20
0.740000
  0
SEQEND
  8
gg1
  0
POLYLINE
  8
gg1
 62
1
 40
0.000000
 41
0.000000
 66
  1
  0
VERTEX
  8
gg1
 10
0.365000
 20
0.732500
  0
VERTEX
  8
gg1
 10
0.365000
 20
0.747500
  0
SEQEND
  8
gg1
  0
POLYLINE
  8
gg1
 62
1
 40
0.000000
 41
0.000000
 66
  1
  0
VERTEX
  8
gg1
 10
0.772500
 20
1.070000
  0
VERTEX
  8
gg1
 10
0.787500
 20
1.070000
  0
SEQEND
  8
gg1
  0
POLYLINE
  8
gg1
 62
1
 40
0.000000
 41
0.000000
 66
  1
  0
VERTEX
  8
gg1
 10
0.780000
 20
1.062500
  0
VERTEX
  8
gg1
 10
0.780000
 20
1.077500
  0
SEQEND
  8
gg1
  0
POLYLINE
  8
gg1
 62
1
 40
0.000000
 41
0.000000
 66
  1
  0
VERTEX
  8
gg1
 10
0.802500
 20
1.070000
  0
VERTEX
  8
gg1
 10
0.817500
 20
1.070000
  0
SEQEND
  8
gg1
  0
POLYLINE
  8
gg1
 62
1
 40
0.000000
 41
0.000000
 66
  1
  0
VERTEX
  8
gg1
 10
0.810000
 20
1.062500
  0
VERTEX
  8
gg1
 10
0.810000
 20
1.077500
  0
SEQEND
  8
gg1
  0
POLYLINE
  8
gg1
 62
1
 40
0.000000
 41
0.000000
 66
  1
  0
VERTEX
  8
gg1
 10
0.882500
 20
1.265000
  0
VERTEX
  8
gg1
 10
0.897500
 20
1.265000
  0
SEQEND
  8
gg1
  0
POLYLINE
  8
gg1
 62
1
 40
0.000000
 41
0.000000
 66
  1
  0
VERTEX
  8
gg1
 10
0.890000
 20
1.257500
  0
VERTEX
  8
gg1
 10
0.890000
 20
1.272500
  0
SEQEND
  8
gg1
  0
POLYLINE
  8
gg1
 62
1
 40
0.000000
 41
0.000000
 66
  1
  0
VERTEX
  8
gg1
 10
0.922500
 20
1.275000
  0
VERTEX
  8
gg1
 10
0.937500
 20
1.275000
  0
SEQEND
  8
gg1
  0
POLYLINE
  8
gg1
 62
1
 40
0.000000
 41
0.000000
 66
  1
  0
VERTEX
  8
gg1
 10
0.930000
 20
1.267500
  0
VERTEX
  8
gg1
 10
0.930000
 20
1.282500
  0
SEQEND
  8
gg1
  0
POLYLINE
  8
gg1
 62
1
 40
0.000000
 41
0.000000
 66
  1
  0
VERTEX
  8
gg1
 10
0.962500
 20
1.290000
  0
VERTEX
  8
gg1
 10
0.977500
 20
1.290000
  0
SEQEND
  8
gg1
  0
POLYLINE
  8
gg1
 62
1
 40
0.000000
 41
0.000000
 66
  1
  0
VERTEX
  8
gg1
 10
0.970000
 20
1.282500
  0
VERTEX
  8
gg1
 10
0.970000
 20
1.297500
  0
SEQEND
  8
gg1
  0
POLYLINE
  8
gg1
 62
1
 40
0.000000
 41
0.000000
 66
  1
  0
VERTEX
  8
gg1
 10
0.287500
 20
1.430000
  0
VERTEX
  8
gg1
 10
0.302500
 20
1.430000
  0
SEQEND
  8
gg1
  0
POLYLINE
  8
gg1
 62
1
 40
0.000000
 41
0.000000
 66
  1
  0
VERTEX
  8
gg1
 10
0.295000
 20
1.422500
  0
VERTEX
  8
gg1
 10
0.295000
 20
1.437500
  0
SEQEND
  8
gg1
  0
POLYLINE
  8
gg1
 62
1
 40
0.000000
 41
0.000000
 66
  1
  0
VERTEX
  8
gg1
 10
0.282500
 20
1.470000
  0
VERTEX
  8
gg1
 10
0.297500
 20
1.470000
  0
SEQEND
  8
gg1
  0
POLYLINE
  8
gg1
 62
1
 40
0.000000
 41
0.000000
 66
  1
  0
VERTEX
  8
gg1
 10
0.290000
 20
1.462500
  0
VERTEX
  8
gg1
 10
0.290000
 20
1.477500
  0
SEQEND
  8
gg1
  0
POLYLINE
  8
gg1
 62
1
 40
0.000000
 41
0.000000
 66
  1
  0
VERTEX
  8
gg1
 10
0.042500
 20
1.485000
  0
VERTEX
  8
gg1
 10
0.057500
 20
1.485000
  0
SEQEND
  8
gg1
  0
POLYLINE
  8
gg1
 62
1
 40
0.000000
 41
0.000000
 66
  1
  0
VERTEX
  8
gg1
 10
0.050000
 20
1.477500
  0
VERTEX
  8
gg1
 10
0.050000
 20
1.492500
  0
SEQEND
  8
gg1
  0
POLYLINE
  8
gg1
 62
1
 40
0.000000
 41
0.000000
 66
  1
  0
VERTEX
  8
gg1
 10
0.127500
 20
1.485000
  0
VERTEX
  8
gg1
 10
0.142500
 20
1.485000
  0
SEQEND
  8
gg1
  0
POLYLINE
  8
gg1
 62
1
 40
0.000000
 41
0.000000
 66
  1
  0
VERTEX
  8
gg1
 10
0.135000
 20
1.477500
  0
VERTEX
  8
gg1
 10
0.135000
 20
1.492500
  0
SEQEND
  8
gg1
  0
POLYLINE
  8
gg1
 62
1
 40
0.000000
 41
0.000000
 66
  1
  0
VERTEX
  8
gg1
 10
0.127500
 20
1.525000
  0
VERTEX
  8
gg1
 10
0.142500
 20
1.525000
  0
SEQEND
  8
gg1
  0
POLYLINE
  8
gg1
 62
1
 40
0.000000
 41
0.000000
 66
  1
  0
VERTEX
  8
gg1
 10
0.135000
 20
1.517500
  0
VERTEX
  8
gg1
 10
0.135000
 20
1.532500
  0
SEQEND
  8
gg1
  0
POLYLINE
  8
gg1
 62
1
 40
0.000000
 41
0.000000
 66
  1
  0
VERTEX
  8
gg1
 10
0.042500
 20
1.525000
  0
VERTEX
  8
gg1
 10
0.057500
 20
1.525000
  0
SEQEND
  8
gg1
  0
POLYLINE
  8
gg1
 62
1
 40
0.000000
 41
0.000000
 66
  1
  0
VERTEX
  8
gg1
 10
0.050000
 20
1.517500
  0
VERTEX
  8
gg1
 10
0.050000
 20
1.532500
  0
SEQEND
  8
gg1
  0
POLYLINE
  8
gg1
 62
1
 40
0.000000
 41
0.000000
 66
  1
  0
VERTEX
  8
gg1
 10
0.372500
 20
1.195000
  0
VERTEX
  8
gg1
 10
0.387500
 20
1.195000
  0
SEQEND
  8
gg1
  0
POLYLINE
  8
gg1
 62
1
 40
0.000000
 41
0.000000
 66
  1
  0
VERTEX
  8
gg1
 10
0.380000
 20
1.187500
  0
VERTEX
  8
gg1
 10
0.380000
 20
1.202500
  0
SEQEND
  8
gg1
  0
POLYLINE
  8
gg1
 62
1
 40
0.000000
 41
0.000000
 66
  1
  0
VERTEX
  8
gg1
 10
0.437500
 20
1.360000
  0
VERTEX
  8
gg1
 10
0.452500
 20
1.360000
  0
SEQEND
  8
gg1
  0
POLYLINE
  8
gg1
 62
1
 40
0.000000
 41
0.000000
 66
  1
  0
VERTEX
  8
gg1
 10
0.445000
 20
1.352500
  0
VERTEX
  8
gg1
 10
0.445000
 20
1.367500
  0
SEQEND
  8
gg1
  0
POLYLINE
  8
gg1
 62
1
 40
0.000000
 41
0.000000
 66
  1
  0
VERTEX
  8
gg1
 10
0.432500
 20
1.195000
  0
VERTEX
  8
gg1
 10
0.447500
 20
1.195000
  0
SEQEND
  8
gg1
  0
POLYLINE
  8
gg1
 62
1
 40
0.000000
 41
0.000000
 66
  1
  0
VERTEX
  8
gg1
 10
0.440000
 20
1.187500
  0
VERTEX
  8
gg1
 10
0.440000
 20
1.202500
  0
SEQEND
  8
gg1
  0
POLYLINE
  8
gg1
 62
1
 40
0.000000
 41
0.000000
 66
  1
  0
VERTEX
  8
gg1
 10
0.327500
 20
1.015000
  0
VERTEX
  8
gg1
 10
0.342500
 20
1.015000
  0
SEQEND
  8
gg1
  0
POLYLINE
  8
gg1
 62
1
 40
0.000000
 41
0.000000
 66
  1
  0
VERTEX
  8
gg1
 10
0.335000
 20
1.007500
  0
VERTEX
  8
gg1
 10
0.335000
 20
1.022500
  0
SEQEND
  8
gg1
  0
POLYLINE
  8
gg1
 62
1
 40
0.000000
 41
0.000000
 66
  1
  0
VERTEX
  8
gg1
 10
0.327500
 20
0.975000
  0
VERTEX
  8
gg1
 10
0.342500
 20
0.975000
  0
SEQEND
  8
gg1
  0
POLYLINE
  8
gg1
 62
1
 40
0.000000
 41
0.000000
 66
  1
  0
VERTEX
  8
gg1
 10
0.335000
 20
0.967500
  0
VERTEX
  8
gg1
 10
0.335000
 20
0.982500
  0
SEQEND
  8
gg1
  0
POLYLINE
  8
gg1
 62
1
 40
0.000000
 41
0.000000
 66
  1
  0
VERTEX
  8
gg1
 10
0.362500
 20
0.965000
  0
VERTEX
  8
gg1
 10
0.377500
 20
0.965000
  0
SEQEND
  8
gg1
  0
POLYLINE
  8
gg1
 62
1
 40
0.000000
 41
0.000000
 66
  1
  0
VERTEX
  8
gg1
 10
0.370000
 20
0.957500
  0
VERTEX
  8
gg1
 10
0.370000
 20
0.972500
  0
SEQEND
  8
gg1
  0
POLYLINE
  8
gg1
 62
1
 40
0.000000
 41
0.000000
 66
  1
  0
VERTEX
  8
gg1
 10
0.352500
 20
0.995000
  0
VERTEX
  8
gg1
 10
0.367500
 20
0.995000
  0
SEQEND
  8
gg1
  0
POLYLINE
  8
gg1
 62
1
 40
0.000000
 41
0.000000
 66
  1
  0
VERTEX
  8
gg1
 10
0.360000
 20
0.987500
  0
VERTEX
  8
gg1
 10
0.360000
 20
1.002500
  0
SEQEND
  8
gg1
  0
POLYLINE
  8
gg1
 62
1
 40
0.000000
 41
0.000000
 66
  1
  0
VERTEX
  8
gg1
 10
0.327500
 20
1.050000
  0
VERTEX
  8
gg1
 10
0.342500
 20
1.050000
  0
SEQEND
  8
gg1
  0
POLYLINE
  8
gg1
 62
1
 40
0.000000
 41
0.000000
 66
  1
  0
VERTEX
  8
gg1
 10
0.335000
 20
1.042500
  0
VERTEX
  8
gg1
 10
0.335000
 20
1.057500
  0
SEQEND
  8
gg1
  0
POLYLINE
  8
gg1
 62
1
 40
0.000000
 41
0.000000
 66
  1
  0
VERTEX
  8
gg1
 10
0.437500
 20
1.305000
  0
VERTEX
  8
gg1
 10
0.452500
 20
1.305000
  0
SEQEND
  8
gg1
  0
POLYLINE
  8
gg1
 62
1
 40
0.000000
 41
0.000000
 66
  1
  0
VERTEX
  8
gg1
 10
0.445000
 20
1.297500
  0
VERTEX
  8
gg1
 10
0.445000
 20
1.312500
  0
SEQEND
  8
gg1
  0
POLYLINE
  8
gg1
 62
1
 40
0.000000
 41
0.000000
 66
  1
  0
VERTEX
  8
gg1
 10
0.437500
 20
1.250000
  0
VERTEX
  8
gg1
 10
0.452500
 20
1.250000
  0
SEQEND
  8
gg1
  0
POLYLINE
  8
gg1
 62
1
 40
0.000000
 41
0.000000
 66
  1
  0
VERTEX
  8
gg1
 10
0.445000
 20
1.242500
  0
VERTEX
  8
gg1
 10
0.445000
 20
1.257500
  0
SEQEND
  8
gg1
  0
POLYLINE
  8
gg1
 62
1
 40
0.000000
 41
0.000000
 66
  1
  0
VERTEX
  8
gg1
 10
0.402500
 20
1.195000
  0
VERTEX
  8
gg1
 10
0.417500
 20
1.195000
  0
SEQEND
  8
gg1
  0
POLYLINE
  8
gg1
 62
1
 40
0.000000
 41
0.000000
 66
  1
  0
VERTEX
  8
gg1
 10
0.410000
 20
1.187500
  0
VERTEX
  8
gg1
 10
0.410000
 20
1.202500
  0
SEQEND
  8
gg1
  0
POLYLINE
  8
gg1
 62
1
 40
0.000000
 41
0.000000
 66
  1
  0
VERTEX
  8
gg1
 10
0.677500
 20
1.320000
  0
VERTEX
  8
gg1
 10
0.692500
 20
1.320000
  0
SEQEND
  8
gg1
  0
POLYLINE
  8
gg1
 62
1
 40
0.000000
 41
0.000000
 66
  1
  0
VERTEX
  8
gg1
 10
0.685000
 20
1.312500
  0
VERTEX
  8
gg1
 10
0.685000
 20
1.327500
  0
SEQEND
  8
gg1
  0
POLYLINE
  8
gg1
 62
1
 40
0.000000
 41
0.000000
 66
  1
  0
VERTEX
  8
gg1
 10
0.677500
 20
1.395000
  0
VERTEX
  8
gg1
 10
0.692500
 20
1.395000
  0
SEQEND
  8
gg1
  0
POLYLINE
  8
gg1
 62
1
 40
0.000000
 41
0.000000
 66
  1
  0
VERTEX
  8
gg1
 10
0.685000
 20
1.387500
  0
VERTEX
  8
gg1
 10
0.685000
 20
1.402500
  0
SEQEND
  8
gg1
  0
POLYLINE
  8
gg1
 62
1
 40
0.000000
 41
0.000000
 66
  1
  0
VERTEX
  8
gg1
 10
0.712500
 20
1.395000
  0
VERTEX
  8
gg1
 10
0.727500
 20
1.395000
  0
SEQEND
  8
gg1
  0
POLYLINE
  8
gg1
 62
1
 40
0.000000
 41
0.000000
 66
  1
  0
VERTEX
  8
gg1
 10
0.720000
 20
1.387500
  0
VERTEX
  8
gg1
 10
0.720000
 20
1.402500
  0
SEQEND
  8
gg1
  0
POLYLINE
  8
gg1
 62
1
 40
0.000000
 41
0.000000
 66
  1
  0
VERTEX
  8
gg1
 10
0.742500
 20
1.415000
  0
VERTEX
  8
gg1
 10
0.757500
 20
1.415000
  0
SEQEND
  8
gg1
  0
POLYLINE
  8
gg1
 62
1
 40
0.000000
 41
0.000000
 66
  1
  0
VERTEX
  8
gg1
 10
0.750000
 20
1.407500
  0
VERTEX
  8
gg1
 10
0.750000
 20
1.422500
  0
SEQEND
  8
gg1
  0
POLYLINE
  8
gg1
 62
1
 40
0.000000
 41
0.000000
 66
  1
  0
VERTEX
  8
gg1
 10
0.362500
 20
1.720000
  0
VERTEX
  8
gg1
 10
0.377500
 20
1.720000
  0
SEQEND
  8
gg1
  0
POLYLINE
  8
gg1
 62
1
 40
0.000000
 41
0.000000
 66
  1
  0
VERTEX
  8
gg1
 10
0.370000
 20
1.712500
  0
VERTEX
  8
gg1
 10
0.370000
 20
1.727500
  0
SEQEND
  8
gg1
  0
POLYLINE
  8
gg1
 62
1
 40
0.000000
 41
0.000000
 66
  1
  0
VERTEX
  8
gg1
 10
0.377500
 20
1.625000
  0
VERTEX
  8
gg1
 10
0.392500
 20
1.625000
  0
SEQEND
  8
gg1
  0
POLYLINE
  8
gg1
 62
1
 40
0.000000
 41
0.000000
 66
  1
  0
VERTEX
  8
gg1
 10
0.385000
 20
1.617500
  0
VERTEX
  8
gg1
 10
0.385000
 20
1.632500
  0
SEQEND
  8
gg1
  0
POLYLINE
  8
gg1
 62
1
 40
0.000000
 41
0.000000
 66
  1
  0
VERTEX
  8
gg1
 10
0.407500
 20
1.625000
  0
VERTEX
  8
gg1
 10
0.422500
 20
1.625000
  0
SEQEND
  8
gg1
  0
POLYLINE
  8
gg1
 62
1
 40
0.000000
 41
0.000000
 66
  1
  0
VERTEX
  8
gg1
 10
0.415000
 20
1.617500
  0
VERTEX
  8
gg1
 10
0.415000
 20
1.632500
  0
SEQEND
  8
gg1
  0
POLYLINE
  8
gg1
 62
1
 40
0.000000
 41
0.000000
 66
  1
  0
VERTEX
  8
gg1
 10
0.254200
 20
0.045000
  0
VERTEX
  8
gg1
 10
0.269200
 20
0.045000
  0
SEQEND
  8
gg1
  0
POLYLINE
  8
gg1
 62
1
 40
0.000000
 41
0.000000
 66
  1
  0
VERTEX
  8
gg1
 10
0.261700
 20
0.037500
  0
VERTEX
  8
gg1
 10
0.261700
 20
0.052500
  0
SEQEND
  8
gg1
  0
POLYLINE
  8
gg1
 62
1
 40
0.000000
 41
0.000000
 66
  1
  0
VERTEX
  8
gg1
 10
0.362500
 20
0.045000
  0
VERTEX
  8
gg1
 10
0.377500
 20
0.045000
  0
SEQEND
  8
gg1
  0
POLYLINE
  8
gg1
 62
1
 40
0.000000
 41
0.000000
 66
  1
  0
VERTEX
  8
gg1
 10
0.370000
 20
0.037500
  0
VERTEX
  8
gg1
 10
0.370000
 20
0.052500
  0
SEQEND
  8
gg1
  0
POLYLINE
  8
gg1
 62
1
 40
0.000000
 41
0.000000
 66
  1
  0
VERTEX
  8
gg1
 10
1.582500
 20
0.065000
  0
VERTEX
  8
gg1
 10
1.597500
 20
0.065000
  0
SEQEND
  8
gg1
  0
POLYLINE
  8
gg1
 62
1
 40
0.000000
 41
0.000000
 66
  1
  0
VERTEX
  8
gg1
 10
1.590000
 20
0.057500
  0
VERTEX
  8
gg1
 10
1.590000
 20
0.072500
  0
SEQEND
  8
gg1
  0
POLYLINE
  8
gg1
 62
1
 40
0.000000
 41
0.000000
 66
  1
  0
VERTEX
  8
gg1
 10
1.557500
 20
0.045000
  0
VERTEX
  8
gg1
 10
1.572500
 20
0.045000
  0
SEQEND
  8
gg1
  0
POLYLINE
  8
gg1
 62
1
 40
0.000000
 41
0.000000
 66
  1
  0
VERTEX
  8
gg1
 10
1.565000
 20
0.037500
  0
VERTEX
  8
gg1
 10
1.565000
 20
0.052500
  0
SEQEND
  8
gg1
  0
POLYLINE
  8
gg1
 62
1
 40
0.000000
 41
0.000000
 66
  1
  0
VERTEX
  8
gg1
 10
0.047500
 20
0.290000
  0
VERTEX
  8
gg1
 10
0.062500
 20
0.290000
  0
SEQEND
  8
gg1
  0
POLYLINE
  8
gg1
 62
1
 40
0.000000
 41
0.000000
 66
  1
  0
VERTEX
  8
gg1
 10
0.055000
 20
0.282500
  0
VERTEX
  8
gg1
 10
0.055000
 20
0.297500
  0
SEQEND
  8
gg1
  0
POLYLINE
  8
gg1
 62
1
 40
0.000000
 41
0.000000
 66
  1
  0
VERTEX
  8
gg1
 10
0.077500
 20
0.320000
  0
VERTEX
  8
gg1
 10
0.092500
 20
0.320000
  0
SEQEND
  8
gg1
  0
POLYLINE
  8
gg1
 62
1
 40
0.000000
 41
0.000000
 66
  1
  0
VERTEX
  8
gg1
 10
0.085000
 20
0.312500
  0
VERTEX
  8
gg1
 10
0.085000
 20
0.327500
  0
SEQEND
  8
gg1
  0
POLYLINE
  8
gg1
 62
1
 40
0.000000
 41
0.000000
 66
  1
  0
VERTEX
  8
gg1
 10
0.107500
 20
0.290000
  0
VERTEX
  8
gg1
 10
0.122500
 20
0.290000
  0
SEQEND
  8
gg1
  0
POLYLINE
  8
gg1
 62
1
 40
0.000000
 41
0.000000
 66
  1
  0
VERTEX
  8
gg1
 10
0.115000
 20
0.282500
  0
VERTEX
  8
gg1
 10
0.115000
 20
0.297500
  0
SEQEND
  8
gg1
  0
POLYLINE
  8
gg1
 62
1
 40
0.000000
 41
0.000000
 66
  1
  0
VERTEX
  8
gg1
 10
0.137500
 20
0.320000
  0
VERTEX
  8
gg1
 10
0.152500
 20
0.320000
  0
SEQEND
  8
gg1
  0
POLYLINE
  8
gg1
 62
1
 40
0.000000
 41
0.000000
 66
  1
  0
VERTEX
  8
gg1
 10
0.145000
 20
0.312500
  0
VERTEX
  8
gg1
 10
0.145000
 20
0.327500
  0
SEQEND
  8
gg1
  0
POLYLINE
  8
gg1
 62
1
 40
0.000000
 41
0.000000
 66
  1
  0
VERTEX
  8
gg1
 10
0.167500
 20
0.290000
  0
VERTEX
  8
gg1
 10
0.182500
 20
0.290000
  0
SEQEND
  8
gg1
  0
POLYLINE
  8
gg1
 62
1
 40
0.000000
 41
0.000000
 66
  1
  0
VERTEX
  8
gg1
 10
0.175000
 20
0.282500
  0
VERTEX
  8
gg1
 10
0.175000
 20
0.297500
  0
SEQEND
  8
gg1
  0
POLYLINE
  8
gg1
 62
1
 40
0.000000
 41
0.000000
 66
  1
  0
VERTEX
  8
gg1
 10
0.197500
 20
0.320000
  0
VERTEX
  8
gg1
 10
0.212500
 20
0.320000
  0
SEQEND
  8
gg1
  0
POLYLINE
  8
gg1
 62
1
 40
0.000000
 41
0.000000
 66
  1
  0
VERTEX
  8
gg1
 10
0.205000
 20
0.312500
  0
VERTEX
  8
gg1
 10
0.205000
 20
0.327500
  0
SEQEND
  8
gg1
  0
POLYLINE
  8
gg1
 62
1
 40
0.000000
 41
0.000000
 66
  1
  0
VERTEX
  8
gg1
 10
0.227500
 20
0.290000
  0
VERTEX
  8
gg1
 10
0.242500
 20
0.290000
  0
SEQEND
  8
gg1
  0
POLYLINE
  8
gg1
 62
1
 40
0.000000
 41
0.000000
 66
  1
  0
VERTEX
  8
gg1
 10
0.235000
 20
0.282500
  0
VERTEX
  8
gg1
 10
0.235000
 20
0.297500
  0
SEQEND
  8
gg1
  0
POLYLINE
  8
gg1
 62
1
 40
0.000000
 41
0.000000
 66
  1
  0
VERTEX
  8
gg1
 10
0.282500
 20
0.125000
  0
VERTEX
  8
gg1
 10
0.297500
 20
0.125000
  0
SEQEND
  8
gg1
  0
POLYLINE
  8
gg1
 62
1
 40
0.000000
 41
0.000000
 66
  1
  0
VERTEX
  8
gg1
 10
0.290000
 20
0.117500
  0
VERTEX
  8
gg1
 10
0.290000
 20
0.132500
  0
SEQEND
  8
gg1
  0
POLYLINE
  8
gg1
 62
1
 40
0.000000
 41
0.000000
 66
  1
  0
VERTEX
  8
gg1
 10
0.332500
 20
0.125000
  0
VERTEX
  8
gg1
 10
0.347500
 20
0.125000
  0
SEQEND
  8
gg1
  0
POLYLINE
  8
gg1
 62
1
 40
0.000000
 41
0.000000
 66
  1
  0
VERTEX
  8
gg1
 10
0.340000
 20
0.117500
  0
VERTEX
  8
gg1
 10
0.340000
 20
0.132500
  0
SEQEND
  8
gg1
  0
POLYLINE
  8
gg1
 62
1
 40
0.000000
 41
0.000000
 66
  1
  0
VERTEX
  8
gg1
 10
0.282500
 20
0.220000
  0
VERTEX
  8
gg1
 10
0.297500
 20
0.220000
  0
SEQEND
  8
gg1
  0
POLYLINE
  8
gg1
 62
1
 40
0.000000
 41
0.000000
 66
  1
  0
VERTEX
  8
gg1
 10
0.290000
 20
0.212500
  0
VERTEX
  8
gg1
 10
0.290000
 20
0.227500
  0
SEQEND
  8
gg1
  0
POLYLINE
  8
gg1
 62
1
 40
0.000000
 41
0.000000
 66
  1
  0
VERTEX
  8
gg1
 10
0.332500
 20
0.220000
  0
VERTEX
  8
gg1
 10
0.347500
 20
0.220000
  0
SEQEND
  8
gg1
  0
POLYLINE
  8
gg1
 62
1
 40
0.000000
 41
0.000000
 66
  1
  0
VERTEX
  8
gg1
 10
0.340000
 20
0.212500
  0
VERTEX
  8
gg1
 10
0.340000
 20
0.227500
  0
SEQEND
  8
gg1
  0
POLYLINE
  8
gg1
 62
1
 40
0.000000
 41
0.000000
 66
  1
  0
VERTEX
  8
gg1
 10
0.347500
 20
0.290000
  0
VERTEX
  8
gg1
 10
0.362500
 20
0.290000
  0
SEQEND
  8
gg1
  0
POLYLINE
  8
gg1
 62
1
 40
0.000000
 41
0.000000
 66
  1
  0
VERTEX
  8
gg1
 10
0.355000
 20
0.282500
  0
VERTEX
  8
gg1
 10
0.355000
 20
0.297500
  0
SEQEND
  8
gg1
  0
POLYLINE
  8
gg1
 62
1
 40
0.000000
 41
0.000000
 66
  1
  0
VERTEX
  8
gg1
 10
0.317500
 20
0.320000
  0
VERTEX
  8
gg1
 10
0.332500
 20
0.320000
  0
SEQEND
  8
gg1
  0
POLYLINE
  8
gg1
 62
1
 40
0.000000
 41
0.000000
 66
  1
  0
VERTEX
  8
gg1
 10
0.325000
 20
0.312500
  0
VERTEX
  8
gg1
 10
0.325000
 20
0.327500
  0
SEQEND
  8
gg1
  0
POLYLINE
  8
gg1
 62
1
 40
0.000000
 41
0.000000
 66
  1
  0
VERTEX
  8
gg1
 10
0.287500
 20
0.290000
  0
VERTEX
  8
gg1
 10
0.302500
 20
0.290000
  0
SEQEND
  8
gg1
  0
POLYLINE
  8
gg1
 62
1
 40
0.000000
 41
0.000000
 66
  1
  0
VERTEX
  8
gg1
 10
0.295000
 20
0.282500
  0
VERTEX
  8
gg1
 10
0.295000
 20
0.297500
  0
SEQEND
  8
gg1
  0
POLYLINE
  8
gg1
 62
1
 40
0.000000
 41
0.000000
 66
  1
  0
VERTEX
  8
gg1
 10
0.257500
 20
0.320000
  0
VERTEX
  8
gg1
 10
0.272500
 20
0.320000
  0
SEQEND
  8
gg1
  0
POLYLINE
  8
gg1
 62
1
 40
0.000000
 41
0.000000
 66
  1
  0
VERTEX
  8
gg1
 10
0.265000
 20
0.312500
  0
VERTEX
  8
gg1
 10
0.265000
 20
0.327500
  0
SEQEND
  8
gg1
  0
POLYLINE
  8
gg1
 62
1
 40
0.000000
 41
0.000000
 66
  1
  0
VERTEX
  8
gg1
 10
0.407500
 20
0.290000
  0
VERTEX
  8
gg1
 10
0.422500
 20
0.290000
  0
SEQEND
  8
gg1
  0
POLYLINE
  8
gg1
 62
1
 40
0.000000
 41
0.000000
 66
  1
  0
VERTEX
  8
gg1
 10
0.415000
 20
0.282500
  0
VERTEX
  8
gg1
 10
0.415000
 20
0.297500
  0
SEQEND
  8
gg1
  0
POLYLINE
  8
gg1
 62
1
 40
0.000000
 41
0.000000
 66
  1
  0
VERTEX
  8
gg1
 10
0.377500
 20
0.320000
  0
VERTEX
  8
gg1
 10
0.392500
 20
0.320000
  0
SEQEND
  8
gg1
  0
POLYLINE
  8
gg1
 62
1
 40
0.000000
 41
0.000000
 66
  1
  0
VERTEX
  8
gg1
 10
0.385000
 20
0.312500
  0
VERTEX
  8
gg1
 10
0.385000
 20
0.327500
  0
SEQEND
  8
gg1
  0
POLYLINE
  8
gg1
 62
1
 40
0.000000
 41
0.000000
 66
  1
  0
VERTEX
  8
gg1
 10
1.967500
 20
0.975000
  0
VERTEX
  8
gg1
 10
1.982500
 20
0.975000
  0
SEQEND
  8
gg1
  0
POLYLINE
  8
gg1
 62
1
 40
0.000000
 41
0.000000
 66
  1
  0
VERTEX
  8
gg1
 10
1.975000
 20
0.967500
  0
VERTEX
  8
gg1
 10
1.975000
 20
0.982500
  0
SEQEND
  8
gg1
  0
POLYLINE
  8
gg1
 62
1
 40
0.000000
 41
0.000000
 66
  1
  0
VERTEX
  8
gg1
 10
1.967500
 20
1.015000
  0
VERTEX
  8
gg1
 10
1.982500
 20
1.015000
  0
SEQEND
  8
gg1
  0
POLYLINE
  8
gg1
 62
1
 40
0.000000
 41
0.000000
 66
  1
  0
VERTEX
  8
gg1
 10
1.975000
 20
1.007500
  0
VERTEX
  8
gg1
 10
1.975000
 20
1.022500
  0
SEQEND
  8
gg1
  0
POLYLINE
  8
gg1
 62
1
 40
0.000000
 41
0.000000
 66
  1
  0
VERTEX
  8
gg1
 10
1.992500
 20
0.995000
  0
VERTEX
  8
gg1
 10
2.007500
 20
0.995000
  0
SEQEND
  8
gg1
  0
POLYLINE
  8
gg1
 62
1
 40
0.000000
 41
0.000000
 66
  1
  0
VERTEX
  8
gg1
 10
2.000000
 20
0.987500
  0
VERTEX
  8
gg1
 10
2.000000
 20
1.002500
  0
SEQEND
  8
gg1
  0
POLYLINE
  8
gg1
 62
1
 40
0.000000
 41
0.000000
 66
  1
  0
VERTEX
  8
gg1
 10
1.867500
 20
1.010000
  0
VERTEX
  8
gg1
 10
1.882500
 20
1.010000
  0
SEQEND
  8
gg1
  0
POLYLINE
  8
gg1
 62
1
 40
0.000000
 41
0.000000
 66
  1
  0
VERTEX
  8
gg1
 10
1.875000
 20
1.002500
  0
VERTEX
  8
gg1
 10
1.875000
 20
1.017500
  0
SEQEND
  8
gg1
  0
POLYLINE
  8
gg1
 62
1
 40
0.000000
 41
0.000000
 66
  1
  0
VERTEX
  8
gg1
 10
2.267500
 20
0.350000
  0
VERTEX
  8
gg1
 10
2.282500
 20
0.350000
  0
SEQEND
  8
gg1
  0
POLYLINE
  8
gg1
 62
1
 40
0.000000
 41
0.000000
 66
  1
  0
VERTEX
  8
gg1
 10
2.275000
 20
0.342500
  0
VERTEX
  8
gg1
 10
2.275000
 20
0.357500
  0
SEQEND
  8
gg1
  0
POLYLINE
  8
gg1
 62
1
 40
0.000000
 41
0.000000
 66
  1
  0
VERTEX
  8
gg1
 10
2.082500
 20
0.580000
  0
VERTEX
  8
gg1
 10
2.097500
 20
0.580000
  0
SEQEND
  8
gg1
  0
POLYLINE
  8
gg1
 62
1
 40
0.000000
 41
0.000000
 66
  1
  0
VERTEX
  8
gg1
 10
2.090000
 20
0.572500
  0
VERTEX
  8
gg1
 10
2.090000
 20
0.587500
  0
SEQEND
  8
gg1
  0
POLYLINE
  8
gg1
 62
1
 40
0.000000
 41
0.000000
 66
  1
  0
VERTEX
  8
gg1
 10
2.167500
 20
0.580000
  0
VERTEX
  8
gg1
 10
2.182500
 20
0.580000
  0
SEQEND
  8
gg1
  0
POLYLINE
  8
gg1
 62
1
 40
0.000000
 41
0.000000
 66
  1
  0
VERTEX
  8
gg1
 10
2.175000
 20
0.572500
  0
VERTEX
  8
gg1
 10
2.175000
 20
0.587500
  0
SEQEND
  8
gg1
  0
POLYLINE
  8
gg1
 62
1
 40
0.000000
 41
0.000000
 66
  1
  0
VERTEX
  8
gg1
 10
2.072500
 20
0.480000
  0
VERTEX
  8
gg1
 10
2.087500
 20
0.480000
  0
SEQEND
  8
gg1
  0
POLYLINE
  8
gg1
 62
1
 40
0.000000
 41
0.000000
 66
  1
  0
VERTEX
  8
gg1
 10
2.080000
 20
0.472500
  0
VERTEX
  8
gg1
 10
2.080000
 20
0.487500
  0
SEQEND
  8
gg1
  0
POLYLINE
  8
gg1
 62
1
 40
0.000000
 41
0.000000
 66
  1
  0
VERTEX
  8
gg1
 10
2.167500
 20
0.480000
  0
VERTEX
  8
gg1
 10
2.182500
 20
0.480000
  0
SEQEND
  8
gg1
  0
POLYLINE
  8
gg1
 62
1
 40
0.000000
 41
0.000000
 66
  1
  0
VERTEX
  8
gg1
 10
2.175000
 20
0.472500
  0
VERTEX
  8
gg1
 10
2.175000
 20
0.487500
  0
SEQEND
  8
gg1
  0
POLYLINE
  8
gg1
 62
1
 40
0.000000
 41
0.000000
 66
  1
  0
VERTEX
  8
gg1
 10
2.167500
 20
0.200000
  0
VERTEX
  8
gg1
 10
2.182500
 20
0.200000
  0
SEQEND
  8
gg1
  0
POLYLINE
  8
gg1
 62
1
 40
0.000000
 41
0.000000
 66
  1
  0
VERTEX
  8
gg1
 10
2.175000
 20
0.192500
  0
VERTEX
  8
gg1
 10
2.175000
 20
0.207500
  0
SEQEND
  8
gg1
  0
POLYLINE
  8
gg1
 62
1
 40
0.000000
 41
0.000000
 66
  1
  0
VERTEX
  8
gg1
 10
2.072500
 20
0.200000
  0
VERTEX
  8
gg1
 10
2.087500
 20
0.200000
  0
SEQEND
  8
gg1
  0
POLYLINE
  8
gg1
 62
1
 40
0.000000
 41
0.000000
 66
  1
  0
VERTEX
  8
gg1
 10
2.080000
 20
0.192500
  0
VERTEX
  8
gg1
 10
2.080000
 20
0.207500
  0
SEQEND
  8
gg1
  0
POLYLINE
  8
gg1
 62
1
 40
0.000000
 41
0.000000
 66
  1
  0
VERTEX
  8
gg1
 10
2.167500
 20
0.300000
  0
VERTEX
  8
gg1
 10
2.182500
 20
0.300000
  0
SEQEND
  8
gg1
  0
POLYLINE
  8
gg1
 62
1
 40
0.000000
 41
0.000000
 66
  1
  0
VERTEX
  8
gg1
 10
2.175000
 20
0.292500
  0
VERTEX
  8
gg1
 10
2.175000
 20
0.307500
  0
SEQEND
  8
gg1
  0
POLYLINE
  8
gg1
 62
1
 40
0.000000
 41
0.000000
 66
  1
  0
VERTEX
  8
gg1
 10
2.072500
 20
0.300000
  0
VERTEX
  8
gg1
 10
2.087500
 20
0.300000
  0
SEQEND
  8
gg1
  0
POLYLINE
  8
gg1
 62
1
 40
0.000000
 41
0.000000
 66
  1
  0
VERTEX
  8
gg1
 10
2.080000
 20
0.292500
  0
VERTEX
  8
gg1
 10
2.080000
 20
0.307500
  0
SEQEND
  8
gg1
  0
POLYLINE
  8
gg1
 62
1
 40
0.000000
 41
0.000000
 66
  1
  0
VERTEX
  8
gg1
 10
2.167500
 20
0.760000
  0
VERTEX
  8
gg1
 10
2.182500
 20
0.760000
  0
SEQEND
  8
gg1
  0
POLYLINE
  8
gg1
 62
1
 40
0.000000
 41
0.000000
 66
  1
  0
VERTEX
  8
gg1
 10
2.175000
 20
0.752500
  0
VERTEX
  8
gg1
 10
2.175000
 20
0.767500
  0
SEQEND
  8
gg1
  0
POLYLINE
  8
gg1
 62
1
 40
0.000000
 41
0.000000
 66
  1
  0
VERTEX
  8
gg1
 10
2.167500
 20
0.860000
  0
VERTEX
  8
gg1
 10
2.182500
 20
0.860000
  0
SEQEND
  8
gg1
  0
POLYLINE
  8
gg1
 62
1
 40
0.000000
 41
0.000000
 66
  1
  0
VERTEX
  8
gg1
 10
2.175000
 20
0.852500
  0
VERTEX
  8
gg1
 10
2.175000
 20
0.867500
  0
SEQEND
  8
gg1
  0
POLYLINE
  8
gg1
 62
1
 40
0.000000
 41
0.000000
 66
  1
  0
VERTEX
  8
gg1
 10
2.072500
 20
0.860000
  0
VERTEX
  8
gg1
 10
2.087500
 20
0.860000
  0
SEQEND
  8
gg1
  0
POLYLINE
  8
gg1
 62
1
 40
0.000000
 41
0.000000
 66
  1
  0
VERTEX
  8
gg1
 10
2.080000
 20
0.852500
  0
VERTEX
  8
gg1
 10
2.080000
 20
0.867500
  0
SEQEND
  8
gg1
  0
POLYLINE
  8
gg1
 62
1
 40
0.000000
 41
0.000000
 66
  1
  0
VERTEX
  8
gg1
 10
2.492500
 20
0.630000
  0
VERTEX
  8
gg1
 10
2.507500
 20
0.630000
  0
SEQEND
  8
gg1
  0
POLYLINE
  8
gg1
 62
1
 40
0.000000
 41
0.000000
 66
  1
  0
VERTEX
  8
gg1
 10
2.500000
 20
0.622500
  0
VERTEX
  8
gg1
 10
2.500000
 20
0.637500
  0
SEQEND
  8
gg1
  0
POLYLINE
  8
gg1
 62
1
 40
0.000000
 41
0.000000
 66
  1
  0
VERTEX
  8
gg1
 10
2.397500
 20
0.630000
  0
VERTEX
  8
gg1
 10
2.412500
 20
0.630000
  0
SEQEND
  8
gg1
  0
POLYLINE
  8
gg1
 62
1
 40
0.000000
 41
0.000000
 66
  1
  0
VERTEX
  8
gg1
 10
2.405000
 20
0.622500
  0
VERTEX
  8
gg1
 10
2.405000
 20
0.637500
  0
SEQEND
  8
gg1
  0
POLYLINE
  8
gg1
 62
1
 40
0.000000
 41
0.000000
 66
  1
  0
VERTEX
  8
gg1
 10
2.397500
 20
0.740000
  0
VERTEX
  8
gg1
 10
2.412500
 20
0.740000
  0
SEQEND
  8
gg1
  0
POLYLINE
  8
gg1
 62
1
 40
0.000000
 41
0.000000
 66
  1
  0
VERTEX
  8
gg1
 10
2.405000
 20
0.732500
  0
VERTEX
  8
gg1
 10
2.405000
 20
0.747500
  0
SEQEND
  8
gg1
  0
POLYLINE
  8
gg1
 62
1
 40
0.000000
 41
0.000000
 66
  1
  0
VERTEX
  8
gg1
 10
2.492500
 20
0.740000
  0
VERTEX
  8
gg1
 10
2.507500
 20
0.740000
  0
SEQEND
  8
gg1
  0
POLYLINE
  8
gg1
 62
1
 40
0.000000
 41
0.000000
 66
  1
  0
VERTEX
  8
gg1
 10
2.500000
 20
0.732500
  0
VERTEX
  8
gg1
 10
2.500000
 20
0.747500
  0
SEQEND
  8
gg1
  0
POLYLINE
  8
gg1
 62
1
 40
0.000000
 41
0.000000
 66
  1
  0
VERTEX
  8
gg1
 10
2.452500
 20
0.460000
  0
VERTEX
  8
gg1
 10
2.467500
 20
0.460000
  0
SEQEND
  8
gg1
  0
POLYLINE
  8
gg1
 62
1
 40
0.000000
 41
0.000000
 66
  1
  0
VERTEX
  8
gg1
 10
2.460000
 20
0.452500
  0
VERTEX
  8
gg1
 10
2.460000
 20
0.467500
  0
SEQEND
  8
gg1
  0
POLYLINE
  8
gg1
 62
1
 40
0.000000
 41
0.000000
 66
  1
  0
VERTEX
  8
gg1
 10
2.397500
 20
0.460000
  0
VERTEX
  8
gg1
 10
2.412500
 20
0.460000
  0
SEQEND
  8
gg1
  0
POLYLINE
  8
gg1
 62
1
 40
0.000000
 41
0.000000
 66
  1
  0
VERTEX
  8
gg1
 10
2.405000
 20
0.452500
  0
VERTEX
  8
gg1
 10
2.405000
 20
0.467500
  0
SEQEND
  8
gg1
  0
POLYLINE
  8
gg1
 62
1
 40
0.000000
 41
0.000000
 66
  1
  0
VERTEX
  8
gg1
 10
2.397500
 20
0.350000
  0
VERTEX
  8
gg1
 10
2.412500
 20
0.350000
  0
SEQEND
  8
gg1
  0
POLYLINE
  8
gg1
 62
1
 40
0.000000
 41
0.000000
 66
  1
  0
VERTEX
  8
gg1
 10
2.405000
 20
0.342500
  0
VERTEX
  8
gg1
 10
2.405000
 20
0.357500
  0
SEQEND
  8
gg1
  0
POLYLINE
  8
gg1
 62
1
 40
0.000000
 41
0.000000
 66
  1
  0
VERTEX
  8
gg1
 10
2.452500
 20
0.350000
  0
VERTEX
  8
gg1
 10
2.467500
 20
0.350000
  0
SEQEND
  8
gg1
  0
POLYLINE
  8
gg1
 62
1
 40
0.000000
 41
0.000000
 66
  1
  0
VERTEX
  8
gg1
 10
2.460000
 20
0.342500
  0
VERTEX
  8
gg1
 10
2.460000
 20
0.357500
  0
SEQEND
  8
gg1
  0
POLYLINE
  8
gg1
 62
1
 40
0.000000
 41
0.000000
 66
  1
  0
VERTEX
  8
gg1
 10
2.472500
 20
1.020000
  0
VERTEX
  8
gg1
 10
2.487500
 20
1.020000
  0
SEQEND
  8
gg1
  0
POLYLINE
  8
gg1
 62
1
 40
0.000000
 41
0.000000
 66
  1
  0
VERTEX
  8
gg1
 10
2.480000
 20
1.012500
  0
VERTEX
  8
gg1
 10
2.480000
 20
1.027500
  0
SEQEND
  8
gg1
  0
POLYLINE
  8
gg1
 62
1
 40
0.000000
 41
0.000000
 66
  1
  0
VERTEX
  8
gg1
 10
2.397500
 20
1.020000
  0
VERTEX
  8
gg1
 10
2.412500
 20
1.020000
  0
SEQEND
  8
gg1
  0
POLYLINE
  8
gg1
 62
1
 40
0.000000
 41
0.000000
 66
  1
  0
VERTEX
  8
gg1
 10
2.405000
 20
1.012500
  0
VERTEX
  8
gg1
 10
2.405000
 20
1.027500
  0
SEQEND
  8
gg1
  0
POLYLINE
  8
gg1
 62
1
 40
0.000000
 41
0.000000
 66
  1
  0
VERTEX
  8
gg1
 10
2.397500
 20
0.910000
  0
VERTEX
  8
gg1
 10
2.412500
 20
0.910000
  0
SEQEND
  8
gg1
  0
POLYLINE
  8
gg1
 62
1
 40
0.000000
 41
0.000000
 66
  1
  0
VERTEX
  8
gg1
 10
2.405000
 20
0.902500
  0
VERTEX
  8
gg1
 10
2.405000
 20
0.917500
  0
SEQEND
  8
gg1
  0
POLYLINE
  8
gg1
 62
1
 40
0.000000
 41
0.000000
 66
  1
  0
VERTEX
  8
gg1
 10
2.492500
 20
0.910000
  0
VERTEX
  8
gg1
 10
2.507500
 20
0.910000
  0
SEQEND
  8
gg1
  0
POLYLINE
  8
gg1
 62
1
 40
0.000000
 41
0.000000
 66
  1
  0
VERTEX
  8
gg1
 10
2.500000
 20
0.902500
  0
VERTEX
  8
gg1
 10
2.500000
 20
0.917500
  0
SEQEND
  8
gg1
  0
POLYLINE
  8
gg1
 62
1
 40
0.000000
 41
0.000000
 66
  1
  0
VERTEX
  8
gg1
 10
2.177500
 20
1.450000
  0
VERTEX
  8
gg1
 10
2.192500
 20
1.450000
  0
SEQEND
  8
gg1
  0
POLYLINE
  8
gg1
 62
1
 40
0.000000
 41
0.000000
 66
  1
  0
VERTEX
  8
gg1
 10
2.185000
 20
1.442500
  0
VERTEX
  8
gg1
 10
2.185000
 20
1.457500
  0
SEQEND
  8
gg1
  0
POLYLINE
  8
gg1
 62
1
 40
0.000000
 41
0.000000
 66
  1
  0
VERTEX
  8
gg1
 10
2.412500
 20
1.670000
  0
VERTEX
  8
gg1
 10
2.427500
 20
1.670000
  0
SEQEND
  8
gg1
  0
POLYLINE
  8
gg1
 62
1
 40
0.000000
 41
0.000000
 66
  1
  0
VERTEX
  8
gg1
 10
2.420000
 20
1.662500
  0
VERTEX
  8
gg1
 10
2.420000
 20
1.677500
  0
SEQEND
  8
gg1
  0
POLYLINE
  8
gg1
 62
1
 40
0.000000
 41
0.000000
 66
  1
  0
VERTEX
  8
gg1
 10
2.112500
 20
1.625000
  0
VERTEX
  8
gg1
 10
2.127500
 20
1.625000
  0
SEQEND
  8
gg1
  0
POLYLINE
  8
gg1
 62
1
 40
0.000000
 41
0.000000
 66
  1
  0
VERTEX
  8
gg1
 10
2.120000
 20
1.617500
  0
VERTEX
  8
gg1
 10
2.120000
 20
1.632500
  0
SEQEND
  8
gg1
  0
POLYLINE
  8
gg1
 62
1
 40
0.000000
 41
0.000000
 66
  1
  0
VERTEX
  8
gg1
 10
2.037500
 20
1.550000
  0
VERTEX
  8
gg1
 10
2.052500
 20
1.550000
  0
SEQEND
  8
gg1
  0
POLYLINE
  8
gg1
 62
1
 40
0.000000
 41
0.000000
 66
  1
  0
VERTEX
  8
gg1
 10
2.045000
 20
1.542500
  0
VERTEX
  8
gg1
 10
2.045000
 20
1.557500
  0
SEQEND
  8
gg1
  0
POLYLINE
  8
gg1
 62
1
 40
0.000000
 41
0.000000
 66
  1
  0
VERTEX
  8
gg1
 10
0.972500
 20
0.050000
  0
VERTEX
  8
gg1
 10
0.987500
 20
0.050000
  0
SEQEND
  8
gg1
  0
POLYLINE
  8
gg1
 62
1
 40
0.000000
 41
0.000000
 66
  1
  0
VERTEX
  8
gg1
 10
0.980000
 20
0.042500
  0
VERTEX
  8
gg1
 10
0.980000
 20
0.057500
  0
SEQEND
  8
gg1
  0
POLYLINE
  8
gg1
 62
1
 40
0.000000
 41
0.000000
 66
  1
  0
VERTEX
  8
gg1
 10
1.172500
 20
0.050000
  0
VERTEX
  8
gg1
 10
1.187500
 20
0.050000
  0
SEQEND
  8
gg1
  0
POLYLINE
  8
gg1
 62
1
 40
0.000000
 41
0.000000
 66
  1
  0
VERTEX
  8
gg1
 10
1.180000
 20
0.042500
  0
VERTEX
  8
gg1
 10
1.180000
 20
0.057500
  0
SEQEND
  8
gg1
  0
POLYLINE
  8
gg1
 62
1
 40
0.000000
 41
0.000000
 66
  1
  0
VERTEX
  8
gg1
 10
1.372500
 20
0.050000
  0
VERTEX
  8
gg1
 10
1.387500
 20
0.050000
  0
SEQEND
  8
gg1
  0
POLYLINE
  8
gg1
 62
1
 40
0.000000
 41
0.000000
 66
  1
  0
VERTEX
  8
gg1
 10
1.380000
 20
0.042500
  0
VERTEX
  8
gg1
 10
1.380000
 20
0.057500
  0
SEQEND
  8
gg1
  0
POLYLINE
  8
gg1
 62
1
 40
0.000000
 41
0.000000
 66
  1
  0
VERTEX
  8
gg1
 10
0.262500
 20
2.155000
  0
VERTEX
  8
gg1
 10
0.277500
 20
2.155000
  0
SEQEND
  8
gg1
  0
POLYLINE
  8
gg1
 62
1
 40
0.000000
 41
0.000000
 66
  1
  0
VERTEX
  8
gg1
 10
0.270000
 20
2.147500
  0
VERTEX
  8
gg1
 10
0.270000
 20
2.162500
  0
SEQEND
  8
gg1
  0
POLYLINE
  8
gg1
 62
1
 40
0.000000
 41
0.000000
 66
  1
  0
VERTEX
  8
gg1
 10
0.282500
 20
2.070000
  0
VERTEX
  8
gg1
 10
0.297500
 20
2.070000
  0
SEQEND
  8
gg1
  0
POLYLINE
  8
gg1
 62
1
 40
0.000000
 41
0.000000
 66
  1
  0
VERTEX
  8
gg1
 10
0.290000
 20
2.062500
  0
VERTEX
  8
gg1
 10
0.290000
 20
2.077500
  0
SEQEND
  8
gg1
  0
POLYLINE
  8
gg1
 62
1
 40
0.000000
 41
0.000000
 66
  1
  0
VERTEX
  8
gg1
 10
0.262500
 20
1.995000
  0
VERTEX
  8
gg1
 10
0.277500
 20
1.995000
  0
SEQEND
  8
gg1
  0
POLYLINE
  8
gg1
 62
1
 40
0.000000
 41
0.000000
 66
  1
  0
VERTEX
  8
gg1
 10
0.270000
 20
1.987500
  0
VERTEX
  8
gg1
 10
0.270000
 20
2.002500
  0
SEQEND
  8
gg1
  0
POLYLINE
  8
gg1
 62
1
 40
0.000000
 41
0.000000
 66
  1
  0
VERTEX
  8
gg1
 10
0.472500
 20
1.975000
  0
VERTEX
  8
gg1
 10
0.487500
 20
1.975000
  0
SEQEND
  8
gg1
  0
POLYLINE
  8
gg1
 62
1
 40
0.000000
 41
0.000000
 66
  1
  0
VERTEX
  8
gg1
 10
0.480000
 20
1.967500
  0
VERTEX
  8
gg1
 10
0.480000
 20
1.982500
  0
SEQEND
  8
gg1
  0
POLYLINE
  8
gg1
 62
1
 40
0.000000
 41
0.000000
 66
  1
  0
VERTEX
  8
gg1
 10
2.072500
 20
0.760000
  0
VERTEX
  8
gg1
 10
2.087500
 20
0.760000
  0
SEQEND
  8
gg1
  0
POLYLINE
  8
gg1
 62
1
 40
0.000000
 41
0.000000
 66
  1
  0
VERTEX
  8
gg1
 10
2.080000
 20
0.752500
  0
VERTEX
  8
gg1
 10
2.080000
 20
0.767500
  0
SEQEND
  8
gg1
  0
POLYLINE
  8
gg1
 62
1
 40
0.000000
 41
0.000000
 66
  1
  0
VERTEX
  8
gg1
 10
0.132500
 20
1.600000
  0
VERTEX
  8
gg1
 10
0.147500
 20
1.600000
  0
SEQEND
  8
gg1
  0
POLYLINE
  8
gg1
 62
1
 40
0.000000
 41
0.000000
 66
  1
  0
VERTEX
  8
gg1
 10
0.140000
 20
1.592500
  0
VERTEX
  8
gg1
 10
0.140000
 20
1.607500
  0
SEQEND
  8
gg1
  0
POLYLINE
  8
gg1
 62
1
 40
0.000000
 41
0.000000
 66
  1
  0
VERTEX
  8
gg1
 10
0.197500
 20
1.690000
  0
VERTEX
  8
gg1
 10
0.212500
 20
1.690000
  0
SEQEND
  8
gg1
  0
POLYLINE
  8
gg1
 62
1
 40
0.000000
 41
0.000000
 66
  1
  0
VERTEX
  8
gg1
 10
0.205000
 20
1.682500
  0
VERTEX
  8
gg1
 10
0.205000
 20
1.697500
  0
SEQEND
  8
gg1
  0
POLYLINE
  8
gg1
 62
1
 40
0.000000
 41
0.000000
 66
  1
  0
VERTEX
  8
gg1
 10
2.392500
 20
1.475000
  0
VERTEX
  8
gg1
 10
2.407500
 20
1.475000
  0
SEQEND
  8
gg1
  0
POLYLINE
  8
gg1
 62
1
 40
0.000000
 41
0.000000
 66
  1
  0
VERTEX
  8
gg1
 10
2.400000
 20
1.467500
  0
VERTEX
  8
gg1
 10
2.400000
 20
1.482500
  0
SEQEND
  8
gg1
  0
ENDSEC
  0
EOF
