  0
SECTION
  2
HEADER
  9
$EXTMIN
 10
-2.492000
 20
-2.189000
  9
$EXTMAX
 10
2.205000
 20
1.280000
  9
$LIMMIN
 10
-2.492000
 20
-2.189000
  9
$LIMMAX
 10
2.205000
 20
1.280000
  9
$FILLMODE
 70
  1
  0
ENDSEC
  0
SECTION
  2
TABLES
  0
TABLE
  2
LTYPE
 70
  1
  0
LTYPE
  2
CONTINUOUS
 70
 64
  3
Solid line
 72
 65
 73
  0
 40
0.0
  0
ENDTAB
  0
TABLE
  2
LAYER
 70
 1
  0
LAYER
  2
0
 70
  0
 62
7
  6
CONTINUOUS
  0
LAYER
  2
gg1
 70
  0
 62
1
  6
CONTINUOUS
  0
ENDTAB
  0
TABLE
  2
STYLE
 70
  1
  0
STYLE
  2
STANDARD
 70
  0
 40
0.0
 41
1.0
 50
0.0
 71
  0
 42
0.2
  3
txt
  4

  0
ENDTAB
  0
ENDSEC
  0
SECTION
  2
BLOCKS
  0
BLOCK
  8
0
  2
D10
 70
64
 10
0.0
 20
0.0
  3
D10
  0
CIRCLE
  8
0
 10
0.000000
 20
0.000000
 40
0.002500
 0
ENDBLK
  8
0
  0
BLOCK
  8
0
  2
D11
 70
64
 10
0.0
 20
0.0
  3
D11
  0
CIRCLE
  8
0
 10
0.000000
 20
0.000000
 40
0.005000
 0
ENDBLK
  8
0
  0
BLOCK
  8
0
  2
D12
 70
64
 10
0.0
 20
0.0
  3
D12
  0
CIRCLE
  8
0
 10
0.000000
 20
0.000000
 40
0.003000
 0
ENDBLK
  8
0
  0
BLOCK
  8
0
  2
D13
 70
64
 10
0.0
 20
0.0
  3
D13
  0
CIRCLE
  8
0
 10
0.000000
 20
0.000000
 40
0.001000
 0
ENDBLK
  8
0
  0
ENDSEC
  0
SECTION
  2
ENTITIES
  0
POLYLINE
  8
gg1
 62
1
 40
0.000000
 41
0.000000
 66
  1
  0
VERTEX
  8
gg1
 10
2.150000
 20
-2.025000
  0
VERTEX
  8
gg1
 10
2.150000
 20
-2.025000
  0
VERTEX
  8
gg1
 10
2.150000
 20
-2.025000
 42
0.414214
  0
VERTEX
  8
gg1
 10
2.200000
 20
-1.975000
  0
VERTEX
  8
gg1
 10
2.200000
 20
-1.975000
  0
SEQEND
  8
gg1
  0
POLYLINE
  8
gg1
 62
1
 40
0.000000
 41
0.000000
 66
  1
  0
VERTEX
  8
gg1
 10
2.200000
 20
-0.570000
  0
VERTEX
  8
gg1
 10
2.200000
 20
-0.570000
  0
VERTEX
  8
gg1
 10
2.200000
 20
-0.570000
 42
0.414214
  0
VERTEX
  8
gg1
 10
2.150000
 20
-0.520000
  0
VERTEX
  8
gg1
 10
2.150000
 20
-0.520000
  0
SEQEND
  8
gg1
  0
POLYLINE
  8
gg1
 62
1
 40
0.000000
 41
0.000000
 66
  1
  0
VERTEX
  8
gg1
 10
1.800000
 20
-0.470000
  0
VERTEX
  8
gg1
 10
1.800000
 20
-0.470000
  0
VERTEX
  8
gg1
 10
1.800000
 20
-0.470000
 42
0.414214
  0
VERTEX
  8
gg1
 10
1.850000
 20
-0.520000
  0
VERTEX
  8
gg1
 10
1.850000
 20
-0.520000
  0
SEQEND
  8
gg1
  0
POLYLINE
  8
gg1
 62
1
 40
0.000000
 41
0.000000
 66
  1
  0
VERTEX
  8
gg1
 10
1.800000
 20
1.225000
  0
VERTEX
  8
gg1
 10
1.800000
 20
1.225000
  0
VERTEX
  8
gg1
 10
1.800000
 20
1.225000
 42
0.414214
  0
VERTEX
  8
gg1
 10
1.750000
 20
1.275000
  0
VERTEX
  8
gg1
 10
1.750000
 20
1.275000
  0
SEQEND
  8
gg1
  0
POLYLINE
  8
gg1
 62
1
 40
0.000000
 41
0.000000
 66
  1
  0
VERTEX
  8
gg1
 10
-1.750000
 20
1.275000
  0
VERTEX
  8
gg1
 10
-1.750000
 20
1.275000
  0
VERTEX
  8
gg1
 10
-1.750000
 20
1.275000
 42
0.414214
  0
VERTEX
  8
gg1
 10
-1.800000
 20
1.225000
  0
VERTEX
  8
gg1
 10
-1.800000
 20
1.225000
  0
SEQEND
  8
gg1
  0
POLYLINE
  8
gg1
 62
1
 40
0.000000
 41
0.000000
 66
  1
  0
VERTEX
  8
gg1
 10
-1.850000
 20
-0.520000
  0
VERTEX
  8
gg1
 10
-1.850000
 20
-0.520000
  0
VERTEX
  8
gg1
 10
-1.850000
 20
-0.520000
 42
0.414214
  0
VERTEX
  8
gg1
 10
-1.800000
 20
-0.470000
  0
VERTEX
  8
gg1
 10
-1.800000
 20
-0.470000
  0
SEQEND
  8
gg1
  0
POLYLINE
  8
gg1
 62
1
 40
0.000000
 41
0.000000
 66
  1
  0
VERTEX
  8
gg1
 10
-2.150000
 20
-0.520000
  0
VERTEX
  8
gg1
 10
-2.150000
 20
-0.520000
  0
VERTEX
  8
gg1
 10
-2.150000
 20
-0.520000
 42
0.414214
  0
VERTEX
  8
gg1
 10
-2.200000
 20
-0.570000
  0
VERTEX
  8
gg1
 10
-2.200000
 20
-0.570000
  0
SEQEND
  8
gg1
  0
POLYLINE
  8
gg1
 62
1
 40
0.000000
 41
0.000000
 66
  1
  0
VERTEX
  8
gg1
 10
-2.200000
 20
-1.975000
  0
VERTEX
  8
gg1
 10
-2.200000
 20
-1.975000
  0
VERTEX
  8
gg1
 10
-2.200000
 20
-1.975000
 42
0.414214
  0
VERTEX
  8
gg1
 10
-2.150000
 20
-2.025000
  0
VERTEX
  8
gg1
 10
-2.150000
 20
-2.025000
  0
SEQEND
  8
gg1
  0
POLYLINE
  8
gg1
 62
1
 40
0.000000
 41
0.000000
 66
  1
  0
VERTEX
  8
gg1
 10
1.740000
 20
0.110000
  0
VERTEX
  8
gg1
 10
1.800000
 20
0.170000
  0
SEQEND
  8
gg1
  0
POLYLINE
  8
gg1
 62
1
 40
0.000000
 41
0.000000
 66
  1
  0
VERTEX
  8
gg1
 10
1.740000
 20
-0.110000
  0
VERTEX
  8
gg1
 10
1.740000
 20
0.110000
  0
SEQEND
  8
gg1
  0
POLYLINE
  8
gg1
 62
1
 40
0.000000
 41
0.000000
 66
  1
  0
VERTEX
  8
gg1
 10
1.740000
 20
-0.110000
  0
VERTEX
  8
gg1
 10
1.800000
 20
-0.170000
  0
SEQEND
  8
gg1
  0
POLYLINE
  8
gg1
 62
1
 40
0.000000
 41
0.000000
 66
  1
  0
VERTEX
  8
gg1
 10
1.850000
 20
-0.520000
  0
VERTEX
  8
gg1
 10
2.150000
 20
-0.520000
  0
SEQEND
  8
gg1
  0
POLYLINE
  8
gg1
 62
1
 40
0.000000
 41
0.000000
 66
  1
  0
VERTEX
  8
gg1
 10
1.800000
 20
-0.470000
  0
VERTEX
  8
gg1
 10
1.800000
 20
-0.170000
  0
SEQEND
  8
gg1
  0
POLYLINE
  8
gg1
 62
1
 40
0.000000
 41
0.000000
 66
  1
  0
VERTEX
  8
gg1
 10
1.800000
 20
0.170000
  0
VERTEX
  8
gg1
 10
1.800000
 20
1.225000
  0
SEQEND
  8
gg1
  0
POLYLINE
  8
gg1
 62
1
 40
0.000000
 41
0.000000
 66
  1
  0
VERTEX
  8
gg1
 10
-1.750000
 20
1.275000
  0
VERTEX
  8
gg1
 10
1.750000
 20
1.275000
  0
SEQEND
  8
gg1
  0
POLYLINE
  8
gg1
 62
1
 40
0.000000
 41
0.000000
 66
  1
  0
VERTEX
  8
gg1
 10
-1.800000
 20
0.170000
  0
VERTEX
  8
gg1
 10
-1.800000
 20
1.225000
  0
SEQEND
  8
gg1
  0
POLYLINE
  8
gg1
 62
1
 40
0.000000
 41
0.000000
 66
  1
  0
VERTEX
  8
gg1
 10
-1.800000
 20
-0.470000
  0
VERTEX
  8
gg1
 10
-1.800000
 20
-0.170000
  0
SEQEND
  8
gg1
  0
POLYLINE
  8
gg1
 62
1
 40
0.000000
 41
0.000000
 66
  1
  0
VERTEX
  8
gg1
 10
-2.150000
 20
-0.520000
  0
VERTEX
  8
gg1
 10
-1.850000
 20
-0.520000
  0
SEQEND
  8
gg1
  0
POLYLINE
  8
gg1
 62
1
 40
0.000000
 41
0.000000
 66
  1
  0
VERTEX
  8
gg1
 10
-2.150000
 20
-2.025000
  0
VERTEX
  8
gg1
 10
2.150000
 20
-2.025000
  0
SEQEND
  8
gg1
  0
POLYLINE
  8
gg1
 62
1
 40
0.000000
 41
0.000000
 66
  1
  0
VERTEX
  8
gg1
 10
-1.800000
 20
-0.170000
  0
VERTEX
  8
gg1
 10
-1.740000
 20
-0.110000
  0
VERTEX
  8
gg1
 10
-1.740000
 20
0.110000
  0
SEQEND
  8
gg1
  0
POLYLINE
  8
gg1
 62
1
 40
0.000000
 41
0.000000
 66
  1
  0
VERTEX
  8
gg1
 10
-1.800000
 20
0.170000
  0
VERTEX
  8
gg1
 10
-1.740000
 20
0.110000
  0
SEQEND
  8
gg1
  0
POLYLINE
  8
gg1
 62
1
 40
0.000000
 41
0.000000
 66
  1
  0
VERTEX
  8
gg1
 10
-2.200000
 20
-1.975000
  0
VERTEX
  8
gg1
 10
-2.200000
 20
-0.570000
  0
SEQEND
  8
gg1
  0
POLYLINE
  8
gg1
 62
1
 40
0.000000
 41
0.000000
 66
  1
  0
VERTEX
  8
gg1
 10
2.200000
 20
-1.975000
  0
VERTEX
  8
gg1
 10
2.200000
 20
-0.570000
  0
SEQEND
  8
gg1
  0
POLYLINE
  8
gg1
 62
1
 40
0.000000
 41
0.000000
 66
  1
  0
VERTEX
  8
gg1
 10
2.200000
 20
-2.160000
  0
VERTEX
  8
gg1
 10
2.200000
 20
-2.037500
  0
SEQEND
  8
gg1
  0
POLYLINE
  8
gg1
 62
1
 40
0.000000
 41
0.000000
 66
  1
  0
VERTEX
  8
gg1
 10
-2.200000
 20
-2.160000
  0
VERTEX
  8
gg1
 10
-2.200000
 20
-2.037500
  0
SEQEND
  8
gg1
  0
POLYLINE
  8
gg1
 62
1
 40
0.000000
 41
0.000000
 66
  1
  0
VERTEX
  8
gg1
 10
0.184900
 20
-2.150000
  0
VERTEX
  8
gg1
 10
2.200000
 20
-2.150000
  0
SEQEND
  8
gg1
  0
POLYLINE
  8
gg1
 62
1
 40
0.000000
 41
0.000000
 66
  1
  0
VERTEX
  8
gg1
 10
-2.200000
 20
-2.150000
  0
VERTEX
  8
gg1
 10
-0.216900
 20
-2.150000
  0
SEQEND
  8
gg1
  0
POLYLINE
  8
gg1
 62
1
 40
0.000000
 41
0.000000
 66
  1
  0
VERTEX
  8
gg1
 10
2.140000
 20
-2.130000
  0
VERTEX
  8
gg1
 10
2.200000
 20
-2.150000
  0
SEQEND
  8
gg1
  0
POLYLINE
  8
gg1
 62
1
 40
0.000000
 41
0.000000
 66
  1
  0
VERTEX
  8
gg1
 10
2.140000
 20
-2.170000
  0
VERTEX
  8
gg1
 10
2.200000
 20
-2.150000
  0
SEQEND
  8
gg1
  0
POLYLINE
  8
gg1
 62
1
 40
0.000000
 41
0.000000
 66
  1
  0
VERTEX
  8
gg1
 10
-2.200000
 20
-2.150000
  0
VERTEX
  8
gg1
 10
-2.140000
 20
-2.170000
  0
SEQEND
  8
gg1
  0
POLYLINE
  8
gg1
 62
1
 40
0.000000
 41
0.000000
 66
  1
  0
VERTEX
  8
gg1
 10
-2.200000
 20
-2.150000
  0
VERTEX
  8
gg1
 10
-2.140000
 20
-2.130000
  0
SEQEND
  8
gg1
  0
POLYLINE
  8
gg1
 62
1
 40
0.000000
 41
0.000000
 66
  1
  0
VERTEX
  8
gg1
 10
-2.475000
 20
1.275000
  0
VERTEX
  8
gg1
 10
-1.812500
 20
1.275000
  0
SEQEND
  8
gg1
  0
POLYLINE
  8
gg1
 62
1
 40
0.000000
 41
0.000000
 66
  1
  0
VERTEX
  8
gg1
 10
-2.475000
 20
-2.025000
  0
VERTEX
  8
gg1
 10
-2.212500
 20
-2.025000
  0
SEQEND
  8
gg1
  0
POLYLINE
  8
gg1
 62
1
 40
0.000000
 41
0.000000
 66
  1
  0
VERTEX
  8
gg1
 10
-2.465000
 20
-0.190100
  0
VERTEX
  8
gg1
 10
-2.465000
 20
1.275000
  0
SEQEND
  8
gg1
  0
POLYLINE
  8
gg1
 62
1
 40
0.000000
 41
0.000000
 66
  1
  0
VERTEX
  8
gg1
 10
-2.465000
 20
-2.025000
  0
VERTEX
  8
gg1
 10
-2.465000
 20
-0.591900
  0
SEQEND
  8
gg1
  0
POLYLINE
  8
gg1
 62
1
 40
0.000000
 41
0.000000
 66
  1
  0
VERTEX
  8
gg1
 10
-2.485000
 20
1.215000
  0
VERTEX
  8
gg1
 10
-2.465000
 20
1.275000
  0
VERTEX
  8
gg1
 10
-2.445000
 20
1.215000
  0
SEQEND
  8
gg1
  0
POLYLINE
  8
gg1
 62
1
 40
0.000000
 41
0.000000
 66
  1
  0
VERTEX
  8
gg1
 10
-2.465000
 20
-2.025000
  0
VERTEX
  8
gg1
 10
-2.445000
 20
-1.965000
  0
SEQEND
  8
gg1
  0
POLYLINE
  8
gg1
 62
1
 40
0.000000
 41
0.000000
 66
  1
  0
VERTEX
  8
gg1
 10
-2.485000
 20
-1.965000
  0
VERTEX
  8
gg1
 10
-2.465000
 20
-2.025000
  0
SEQEND
  8
gg1
  0
POLYLINE
  8
gg1
 62
1
 40
0.000000
 41
0.000000
 66
  1
  0
VERTEX
  8
gg1
 10
-0.170900
 20
-2.186000
  0
VERTEX
  8
gg1
 10
-0.170900
 20
-2.126000
  0
VERTEX
  8
gg1
 10
-0.200900
 20
-2.156000
  0
VERTEX
  8
gg1
 10
-0.161000
 20
-2.156000
  0
SEQEND
  8
gg1
  0
POLYLINE
  8
gg1
 62
1
 40
0.000000
 41
0.000000
 66
  1
  0
VERTEX
  8
gg1
 10
-0.111000
 20
-2.186000
  0
VERTEX
  8
gg1
 10
-0.111000
 20
-2.126000
  0
VERTEX
  8
gg1
 10
-0.141000
 20
-2.156000
  0
VERTEX
  8
gg1
 10
-0.101000
 20
-2.156000
  0
SEQEND
  8
gg1
  0
POLYLINE
  8
gg1
 62
1
 40
0.000000
 41
0.000000
 66
  1
  0
VERTEX
  8
gg1
 10
-0.081000
 20
-2.136000
  0
VERTEX
  8
gg1
 10
-0.071000
 20
-2.126000
  0
VERTEX
  8
gg1
 10
-0.051000
 20
-2.126000
  0
VERTEX
  8
gg1
 10
-0.041000
 20
-2.136000
  0
VERTEX
  8
gg1
 10
-0.041000
 20
-2.176000
  0
VERTEX
  8
gg1
 10
-0.051000
 20
-2.186000
  0
VERTEX
  8
gg1
 10
-0.071000
 20
-2.186000
  0
VERTEX
  8
gg1
 10
-0.081000
 20
-2.176000
  0
VERTEX
  8
gg1
 10
-0.081000
 20
-2.136000
  0
SEQEND
  8
gg1
  0
POLYLINE
  8
gg1
 62
1
 40
0.000000
 41
0.000000
 66
  1
  0
VERTEX
  8
gg1
 10
-0.021000
 20
-2.136000
  0
VERTEX
  8
gg1
 10
-0.011000
 20
-2.126000
  0
VERTEX
  8
gg1
 10
0.009000
 20
-2.126000
  0
VERTEX
  8
gg1
 10
0.019000
 20
-2.136000
  0
VERTEX
  8
gg1
 10
0.019000
 20
-2.176000
  0
VERTEX
  8
gg1
 10
0.009000
 20
-2.186000
  0
VERTEX
  8
gg1
 10
-0.011000
 20
-2.186000
  0
VERTEX
  8
gg1
 10
-0.021000
 20
-2.176000
  0
VERTEX
  8
gg1
 10
-0.021000
 20
-2.136000
  0
SEQEND
  8
gg1
  0
POLYLINE
  8
gg1
 62
1
 40
0.000000
 41
0.000000
 66
  1
  0
VERTEX
  8
gg1
 10
0.039000
 20
-2.186000
  0
VERTEX
  8
gg1
 10
0.039000
 20
-2.146000
  0
VERTEX
  8
gg1
 10
0.049000
 20
-2.146000
  0
VERTEX
  8
gg1
 10
0.059000
 20
-2.156000
  0
VERTEX
  8
gg1
 10
0.059000
 20
-2.186000
  0
VERTEX
  8
gg1
 10
0.059000
 20
-2.156000
  0
VERTEX
  8
gg1
 10
0.069000
 20
-2.146000
  0
VERTEX
  8
gg1
 10
0.079000
 20
-2.156000
  0
VERTEX
  8
gg1
 10
0.079000
 20
-2.186000
  0
SEQEND
  8
gg1
  0
POLYLINE
  8
gg1
 62
1
 40
0.000000
 41
0.000000
 66
  1
  0
VERTEX
  8
gg1
 10
0.099000
 20
-2.186000
  0
VERTEX
  8
gg1
 10
0.119000
 20
-2.186000
  0
VERTEX
  8
gg1
 10
0.109000
 20
-2.186000
  0
VERTEX
  8
gg1
 10
0.109000
 20
-2.146000
  0
VERTEX
  8
gg1
 10
0.099000
 20
-2.146000
  0
SEQEND
  8
gg1
  0
POLYLINE
  8
gg1
 62
1
 40
0.000000
 41
0.000000
 66
  1
  0
VERTEX
  8
gg1
 10
0.148900
 20
-2.186000
  0
VERTEX
  8
gg1
 10
0.168900
 20
-2.186000
  0
VERTEX
  8
gg1
 10
0.158900
 20
-2.186000
  0
VERTEX
  8
gg1
 10
0.158900
 20
-2.126000
  0
VERTEX
  8
gg1
 10
0.148900
 20
-2.126000
  0
SEQEND
  8
gg1
  0
POLYLINE
  8
gg1
 62
1
 40
0.000000
 41
0.000000
 66
  1
  0
VERTEX
  8
gg1
 10
-2.479000
 20
-0.575900
  0
VERTEX
  8
gg1
 10
-2.489000
 20
-0.565900
  0
VERTEX
  8
gg1
 10
-2.489000
 20
-0.545900
  0
VERTEX
  8
gg1
 10
-2.479000
 20
-0.536000
  0
VERTEX
  8
gg1
 10
-2.469000
 20
-0.536000
  0
VERTEX
  8
gg1
 10
-2.459000
 20
-0.545900
  0
VERTEX
  8
gg1
 10
-2.459000
 20
-0.555900
  0
VERTEX
  8
gg1
 10
-2.459000
 20
-0.545900
  0
VERTEX
  8
gg1
 10
-2.449000
 20
-0.536000
  0
VERTEX
  8
gg1
 10
-2.439000
 20
-0.536000
  0
VERTEX
  8
gg1
 10
-2.429000
 20
-0.545900
  0
VERTEX
  8
gg1
 10
-2.429000
 20
-0.565900
  0
VERTEX
  8
gg1
 10
-2.439000
 20
-0.575900
  0
SEQEND
  8
gg1
  0
POLYLINE
  8
gg1
 62
1
 40
0.000000
 41
0.000000
 66
  1
  0
VERTEX
  8
gg1
 10
-2.479000
 20
-0.516000
  0
VERTEX
  8
gg1
 10
-2.489000
 20
-0.506000
  0
VERTEX
  8
gg1
 10
-2.489000
 20
-0.486000
  0
VERTEX
  8
gg1
 10
-2.479000
 20
-0.476000
  0
VERTEX
  8
gg1
 10
-2.469000
 20
-0.476000
  0
VERTEX
  8
gg1
 10
-2.459000
 20
-0.486000
  0
VERTEX
  8
gg1
 10
-2.459000
 20
-0.496000
  0
VERTEX
  8
gg1
 10
-2.459000
 20
-0.486000
  0
VERTEX
  8
gg1
 10
-2.449000
 20
-0.476000
  0
VERTEX
  8
gg1
 10
-2.439000
 20
-0.476000
  0
VERTEX
  8
gg1
 10
-2.429000
 20
-0.486000
  0
VERTEX
  8
gg1
 10
-2.429000
 20
-0.506000
  0
VERTEX
  8
gg1
 10
-2.439000
 20
-0.516000
  0
SEQEND
  8
gg1
  0
POLYLINE
  8
gg1
 62
1
 40
0.000000
 41
0.000000
 66
  1
  0
VERTEX
  8
gg1
 10
-2.479000
 20
-0.456000
  0
VERTEX
  8
gg1
 10
-2.489000
 20
-0.446000
  0
VERTEX
  8
gg1
 10
-2.489000
 20
-0.426000
  0
VERTEX
  8
gg1
 10
-2.479000
 20
-0.416000
  0
VERTEX
  8
gg1
 10
-2.439000
 20
-0.416000
  0
VERTEX
  8
gg1
 10
-2.429000
 20
-0.426000
  0
VERTEX
  8
gg1
 10
-2.429000
 20
-0.446000
  0
VERTEX
  8
gg1
 10
-2.439000
 20
-0.456000
  0
VERTEX
  8
gg1
 10
-2.479000
 20
-0.456000
  0
SEQEND
  8
gg1
  0
POLYLINE
  8
gg1
 62
1
 40
0.000000
 41
0.000000
 66
  1
  0
VERTEX
  8
gg1
 10
-2.479000
 20
-0.396000
  0
VERTEX
  8
gg1
 10
-2.489000
 20
-0.386000
  0
VERTEX
  8
gg1
 10
-2.489000
 20
-0.366000
  0
VERTEX
  8
gg1
 10
-2.479000
 20
-0.356000
  0
VERTEX
  8
gg1
 10
-2.439000
 20
-0.356000
  0
VERTEX
  8
gg1
 10
-2.429000
 20
-0.366000
  0
VERTEX
  8
gg1
 10
-2.429000
 20
-0.386000
  0
VERTEX
  8
gg1
 10
-2.439000
 20
-0.396000
  0
VERTEX
  8
gg1
 10
-2.479000
 20
-0.396000
  0
SEQEND
  8
gg1
  0
POLYLINE
  8
gg1
 62
1
 40
0.000000
 41
0.000000
 66
  1
  0
VERTEX
  8
gg1
 10
-2.429000
 20
-0.336000
  0
VERTEX
  8
gg1
 10
-2.469000
 20
-0.336000
  0
VERTEX
  8
gg1
 10
-2.469000
 20
-0.326000
  0
VERTEX
  8
gg1
 10
-2.459000
 20
-0.316000
  0
VERTEX
  8
gg1
 10
-2.429000
 20
-0.316000
  0
VERTEX
  8
gg1
 10
-2.459000
 20
-0.316000
  0
VERTEX
  8
gg1
 10
-2.469000
 20
-0.306000
  0
VERTEX
  8
gg1
 10
-2.459000
 20
-0.296000
  0
VERTEX
  8
gg1
 10
-2.429000
 20
-0.296000
  0
SEQEND
  8
gg1
  0
POLYLINE
  8
gg1
 62
1
 40
0.000000
 41
0.000000
 66
  1
  0
VERTEX
  8
gg1
 10
-2.429000
 20
-0.276000
  0
VERTEX
  8
gg1
 10
-2.429000
 20
-0.256000
  0
VERTEX
  8
gg1
 10
-2.429000
 20
-0.266000
  0
VERTEX
  8
gg1
 10
-2.469000
 20
-0.266000
  0
VERTEX
  8
gg1
 10
-2.469000
 20
-0.276000
  0
SEQEND
  8
gg1
  0
POLYLINE
  8
gg1
 62
1
 40
0.000000
 41
0.000000
 66
  1
  0
VERTEX
  8
gg1
 10
-2.429000
 20
-0.226100
  0
VERTEX
  8
gg1
 10
-2.429000
 20
-0.206100
  0
VERTEX
  8
gg1
 10
-2.429000
 20
-0.216100
  0
VERTEX
  8
gg1
 10
-2.489000
 20
-0.216100
  0
VERTEX
  8
gg1
 10
-2.489000
 20
-0.226100
  0
SEQEND
  8
gg1
  0
POLYLINE
  8
gg1
 62
1
 40
0.000000
 41
0.000000
 66
  1
  0
VERTEX
  8
gg1
 10
-0.015000
 20
-1.525000
  0
VERTEX
  8
gg1
 10
0.005000
 20
-1.525000
  0
SEQEND
  8
gg1
  0
POLYLINE
  8
gg1
 62
1
 40
0.000000
 41
0.000000
 66
  1
  0
VERTEX
  8
gg1
 10
-0.005000
 20
-1.535000
  0
VERTEX
  8
gg1
 10
-0.005000
 20
-1.515000
  0
SEQEND
  8
gg1
  0
POLYLINE
  8
gg1
 62
1
 40
0.000000
 41
0.000000
 66
  1
  0
VERTEX
  8
gg1
 10
-1.017700
 20
1.141700
  0
VERTEX
  8
gg1
 10
-0.911400
 20
1.141700
  0
SEQEND
  8
gg1
  0
POLYLINE
  8
gg1
 62
1
 40
0.000000
 41
0.000000
 66
  1
  0
VERTEX
  8
gg1
 10
-0.964600
 20
1.088600
  0
VERTEX
  8
gg1
 10
-0.964600
 20
1.194900
  0
SEQEND
  8
gg1
  0
POLYLINE
  8
gg1
 62
1
 40
0.000000
 41
0.000000
 66
  1
  0
VERTEX
  8
gg1
 10
0.911400
 20
1.141700
  0
VERTEX
  8
gg1
 10
1.017700
 20
1.141700
  0
SEQEND
  8
gg1
  0
POLYLINE
  8
gg1
 62
1
 40
0.000000
 41
0.000000
 66
  1
  0
VERTEX
  8
gg1
 10
0.964600
 20
1.088600
  0
VERTEX
  8
gg1
 10
0.964600
 20
1.194900
  0
SEQEND
  8
gg1
  0
POLYLINE
  8
gg1
 62
1
 40
0.000000
 41
0.000000
 66
  1
  0
VERTEX
  8
gg1
 10
-0.765700
 20
0.848400
  0
VERTEX
  8
gg1
 10
-0.659400
 20
0.848400
  0
SEQEND
  8
gg1
  0
POLYLINE
  8
gg1
 62
1
 40
0.000000
 41
0.000000
 66
  1
  0
VERTEX
  8
gg1
 10
-0.712600
 20
0.795300
  0
VERTEX
  8
gg1
 10
-0.712600
 20
0.901600
  0
SEQEND
  8
gg1
  0
POLYLINE
  8
gg1
 62
1
 40
0.000000
 41
0.000000
 66
  1
  0
VERTEX
  8
gg1
 10
0.659400
 20
0.848400
  0
VERTEX
  8
gg1
 10
0.765700
 20
0.848400
  0
SEQEND
  8
gg1
  0
POLYLINE
  8
gg1
 62
1
 40
0.000000
 41
0.000000
 66
  1
  0
VERTEX
  8
gg1
 10
0.712600
 20
0.795300
  0
VERTEX
  8
gg1
 10
0.712600
 20
0.901600
  0
SEQEND
  8
gg1
  0
POLYLINE
  8
gg1
 62
1
 40
0.000000
 41
0.000000
 66
  1
  0
VERTEX
  8
gg1
 10
1.726400
 20
-1.151600
  0
VERTEX
  8
gg1
 10
1.816900
 20
-1.151600
  0
SEQEND
  8
gg1
  0
POLYLINE
  8
gg1
 62
1
 40
0.000000
 41
0.000000
 66
  1
  0
VERTEX
  8
gg1
 10
1.771700
 20
-1.196800
  0
VERTEX
  8
gg1
 10
1.771700
 20
-1.106300
  0
SEQEND
  8
gg1
  0
POLYLINE
  8
gg1
 62
1
 40
0.000000
 41
0.000000
 66
  1
  0
VERTEX
  8
gg1
 10
1.726400
 20
-1.633900
  0
VERTEX
  8
gg1
 10
1.816900
 20
-1.633900
  0
SEQEND
  8
gg1
  0
POLYLINE
  8
gg1
 62
1
 40
0.000000
 41
0.000000
 66
  1
  0
VERTEX
  8
gg1
 10
1.771700
 20
-1.679100
  0
VERTEX
  8
gg1
 10
1.771700
 20
-1.588600
  0
SEQEND
  8
gg1
  0
POLYLINE
  8
gg1
 62
1
 40
0.000000
 41
0.000000
 66
  1
  0
VERTEX
  8
gg1
 10
1.726400
 20
-0.669300
  0
VERTEX
  8
gg1
 10
1.816900
 20
-0.669300
  0
SEQEND
  8
gg1
  0
POLYLINE
  8
gg1
 62
1
 40
0.000000
 41
0.000000
 66
  1
  0
VERTEX
  8
gg1
 10
1.771700
 20
-0.714600
  0
VERTEX
  8
gg1
 10
1.771700
 20
-0.624000
  0
SEQEND
  8
gg1
  0
POLYLINE
  8
gg1
 62
1
 40
0.000000
 41
0.000000
 66
  1
  0
VERTEX
  8
gg1
 10
1.529500
 20
0.570900
  0
VERTEX
  8
gg1
 10
1.620100
 20
0.570900
  0
SEQEND
  8
gg1
  0
POLYLINE
  8
gg1
 62
1
 40
0.000000
 41
0.000000
 66
  1
  0
VERTEX
  8
gg1
 10
1.574800
 20
0.525600
  0
VERTEX
  8
gg1
 10
1.574800
 20
0.616100
  0
SEQEND
  8
gg1
  0
POLYLINE
  8
gg1
 62
1
 40
0.000000
 41
0.000000
 66
  1
  0
VERTEX
  8
gg1
 10
1.529500
 20
0.088600
  0
VERTEX
  8
gg1
 10
1.620100
 20
0.088600
  0
SEQEND
  8
gg1
  0
POLYLINE
  8
gg1
 62
1
 40
0.000000
 41
0.000000
 66
  1
  0
VERTEX
  8
gg1
 10
1.574800
 20
0.043300
  0
VERTEX
  8
gg1
 10
1.574800
 20
0.133900
  0
SEQEND
  8
gg1
  0
POLYLINE
  8
gg1
 62
1
 40
0.000000
 41
0.000000
 66
  1
  0
VERTEX
  8
gg1
 10
1.529500
 20
-0.393700
  0
VERTEX
  8
gg1
 10
1.620100
 20
-0.393700
  0
SEQEND
  8
gg1
  0
POLYLINE
  8
gg1
 62
1
 40
0.000000
 41
0.000000
 66
  1
  0
VERTEX
  8
gg1
 10
1.574800
 20
-0.439000
  0
VERTEX
  8
gg1
 10
1.574800
 20
-0.348400
  0
SEQEND
  8
gg1
  0
POLYLINE
  8
gg1
 62
1
 40
0.000000
 41
0.000000
 66
  1
  0
VERTEX
  8
gg1
 10
-1.620100
 20
-0.393700
  0
VERTEX
  8
gg1
 10
-1.529500
 20
-0.393700
  0
SEQEND
  8
gg1
  0
POLYLINE
  8
gg1
 62
1
 40
0.000000
 41
0.000000
 66
  1
  0
VERTEX
  8
gg1
 10
-1.574800
 20
-0.439000
  0
VERTEX
  8
gg1
 10
-1.574800
 20
-0.348400
  0
SEQEND
  8
gg1
  0
POLYLINE
  8
gg1
 62
1
 40
0.000000
 41
0.000000
 66
  1
  0
VERTEX
  8
gg1
 10
-1.620100
 20
0.088600
  0
VERTEX
  8
gg1
 10
-1.529500
 20
0.088600
  0
SEQEND
  8
gg1
  0
POLYLINE
  8
gg1
 62
1
 40
0.000000
 41
0.000000
 66
  1
  0
VERTEX
  8
gg1
 10
-1.574800
 20
0.043300
  0
VERTEX
  8
gg1
 10
-1.574800
 20
0.133900
  0
SEQEND
  8
gg1
  0
POLYLINE
  8
gg1
 62
1
 40
0.000000
 41
0.000000
 66
  1
  0
VERTEX
  8
gg1
 10
-1.620100
 20
0.570900
  0
VERTEX
  8
gg1
 10
-1.529500
 20
0.570900
  0
SEQEND
  8
gg1
  0
POLYLINE
  8
gg1
 62
1
 40
0.000000
 41
0.000000
 66
  1
  0
VERTEX
  8
gg1
 10
-1.574800
 20
0.525600
  0
VERTEX
  8
gg1
 10
-1.574800
 20
0.616100
  0
SEQEND
  8
gg1
  0
POLYLINE
  8
gg1
 62
1
 40
0.000000
 41
0.000000
 66
  1
  0
VERTEX
  8
gg1
 10
-0.439000
 20
0.570900
  0
VERTEX
  8
gg1
 10
-0.348400
 20
0.570900
  0
SEQEND
  8
gg1
  0
POLYLINE
  8
gg1
 62
1
 40
0.000000
 41
0.000000
 66
  1
  0
VERTEX
  8
gg1
 10
-0.393700
 20
0.525600
  0
VERTEX
  8
gg1
 10
-0.393700
 20
0.616100
  0
SEQEND
  8
gg1
  0
POLYLINE
  8
gg1
 62
1
 40
0.000000
 41
0.000000
 66
  1
  0
VERTEX
  8
gg1
 10
0.348400
 20
0.570900
  0
VERTEX
  8
gg1
 10
0.439000
 20
0.570900
  0
SEQEND
  8
gg1
  0
POLYLINE
  8
gg1
 62
1
 40
0.000000
 41
0.000000
 66
  1
  0
VERTEX
  8
gg1
 10
0.393700
 20
0.525600
  0
VERTEX
  8
gg1
 10
0.393700
 20
0.616100
  0
SEQEND
  8
gg1
  0
POLYLINE
  8
gg1
 62
1
 40
0.000000
 41
0.000000
 66
  1
  0
VERTEX
  8
gg1
 10
-1.029500
 20
-0.669300
  0
VERTEX
  8
gg1
 10
-0.939000
 20
-0.669300
  0
SEQEND
  8
gg1
  0
POLYLINE
  8
gg1
 62
1
 40
0.000000
 41
0.000000
 66
  1
  0
VERTEX
  8
gg1
 10
-0.984300
 20
-0.714600
  0
VERTEX
  8
gg1
 10
-0.984300
 20
-0.624000
  0
SEQEND
  8
gg1
  0
POLYLINE
  8
gg1
 62
1
 40
0.000000
 41
0.000000
 66
  1
  0
VERTEX
  8
gg1
 10
-1.423200
 20
-0.669300
  0
VERTEX
  8
gg1
 10
-1.332700
 20
-0.669300
  0
SEQEND
  8
gg1
  0
POLYLINE
  8
gg1
 62
1
 40
0.000000
 41
0.000000
 66
  1
  0
VERTEX
  8
gg1
 10
-1.378000
 20
-0.714600
  0
VERTEX
  8
gg1
 10
-1.378000
 20
-0.624000
  0
SEQEND
  8
gg1
  0
POLYLINE
  8
gg1
 62
1
 40
0.000000
 41
0.000000
 66
  1
  0
VERTEX
  8
gg1
 10
-1.816900
 20
-0.669300
  0
VERTEX
  8
gg1
 10
-1.726400
 20
-0.669300
  0
SEQEND
  8
gg1
  0
POLYLINE
  8
gg1
 62
1
 40
0.000000
 41
0.000000
 66
  1
  0
VERTEX
  8
gg1
 10
-1.771700
 20
-0.714600
  0
VERTEX
  8
gg1
 10
-1.771700
 20
-0.624000
  0
SEQEND
  8
gg1
  0
POLYLINE
  8
gg1
 62
1
 40
0.000000
 41
0.000000
 66
  1
  0
VERTEX
  8
gg1
 10
-0.635800
 20
-0.669300
  0
VERTEX
  8
gg1
 10
-0.545300
 20
-0.669300
  0
SEQEND
  8
gg1
  0
POLYLINE
  8
gg1
 62
1
 40
0.000000
 41
0.000000
 66
  1
  0
VERTEX
  8
gg1
 10
-0.590600
 20
-0.714600
  0
VERTEX
  8
gg1
 10
-0.590600
 20
-0.624000
  0
SEQEND
  8
gg1
  0
POLYLINE
  8
gg1
 62
1
 40
0.000000
 41
0.000000
 66
  1
  0
VERTEX
  8
gg1
 10
0.545300
 20
-0.669300
  0
VERTEX
  8
gg1
 10
0.635800
 20
-0.669300
  0
SEQEND
  8
gg1
  0
POLYLINE
  8
gg1
 62
1
 40
0.000000
 41
0.000000
 66
  1
  0
VERTEX
  8
gg1
 10
0.590600
 20
-0.714600
  0
VERTEX
  8
gg1
 10
0.590600
 20
-0.624000
  0
SEQEND
  8
gg1
  0
POLYLINE
  8
gg1
 62
1
 40
0.000000
 41
0.000000
 66
  1
  0
VERTEX
  8
gg1
 10
0.151600
 20
-0.669300
  0
VERTEX
  8
gg1
 10
0.242100
 20
-0.669300
  0
SEQEND
  8
gg1
  0
POLYLINE
  8
gg1
 62
1
 40
0.000000
 41
0.000000
 66
  1
  0
VERTEX
  8
gg1
 10
0.196900
 20
-0.714600
  0
VERTEX
  8
gg1
 10
0.196900
 20
-0.624000
  0
SEQEND
  8
gg1
  0
POLYLINE
  8
gg1
 62
1
 40
0.000000
 41
0.000000
 66
  1
  0
VERTEX
  8
gg1
 10
-0.242100
 20
-0.669300
  0
VERTEX
  8
gg1
 10
-0.151600
 20
-0.669300
  0
SEQEND
  8
gg1
  0
POLYLINE
  8
gg1
 62
1
 40
0.000000
 41
0.000000
 66
  1
  0
VERTEX
  8
gg1
 10
-0.196900
 20
-0.714600
  0
VERTEX
  8
gg1
 10
-0.196900
 20
-0.624000
  0
SEQEND
  8
gg1
  0
POLYLINE
  8
gg1
 62
1
 40
0.000000
 41
0.000000
 66
  1
  0
VERTEX
  8
gg1
 10
-1.423200
 20
-1.151600
  0
VERTEX
  8
gg1
 10
-1.332700
 20
-1.151600
  0
SEQEND
  8
gg1
  0
POLYLINE
  8
gg1
 62
1
 40
0.000000
 41
0.000000
 66
  1
  0
VERTEX
  8
gg1
 10
-1.378000
 20
-1.196800
  0
VERTEX
  8
gg1
 10
-1.378000
 20
-1.106300
  0
SEQEND
  8
gg1
  0
POLYLINE
  8
gg1
 62
1
 40
0.000000
 41
0.000000
 66
  1
  0
VERTEX
  8
gg1
 10
-1.816900
 20
-1.151600
  0
VERTEX
  8
gg1
 10
-1.726400
 20
-1.151600
  0
SEQEND
  8
gg1
  0
POLYLINE
  8
gg1
 62
1
 40
0.000000
 41
0.000000
 66
  1
  0
VERTEX
  8
gg1
 10
-1.771700
 20
-1.196800
  0
VERTEX
  8
gg1
 10
-1.771700
 20
-1.106300
  0
SEQEND
  8
gg1
  0
POLYLINE
  8
gg1
 62
1
 40
0.000000
 41
0.000000
 66
  1
  0
VERTEX
  8
gg1
 10
1.332700
 20
-0.669300
  0
VERTEX
  8
gg1
 10
1.423200
 20
-0.669300
  0
SEQEND
  8
gg1
  0
POLYLINE
  8
gg1
 62
1
 40
0.000000
 41
0.000000
 66
  1
  0
VERTEX
  8
gg1
 10
1.378000
 20
-0.714600
  0
VERTEX
  8
gg1
 10
1.378000
 20
-0.624000
  0
SEQEND
  8
gg1
  0
POLYLINE
  8
gg1
 62
1
 40
0.000000
 41
0.000000
 66
  1
  0
VERTEX
  8
gg1
 10
1.332700
 20
-1.151600
  0
VERTEX
  8
gg1
 10
1.423200
 20
-1.151600
  0
SEQEND
  8
gg1
  0
POLYLINE
  8
gg1
 62
1
 40
0.000000
 41
0.000000
 66
  1
  0
VERTEX
  8
gg1
 10
1.378000
 20
-1.196800
  0
VERTEX
  8
gg1
 10
1.378000
 20
-1.106300
  0
SEQEND
  8
gg1
  0
POLYLINE
  8
gg1
 62
1
 40
0.000000
 41
0.000000
 66
  1
  0
VERTEX
  8
gg1
 10
1.332700
 20
-1.633900
  0
VERTEX
  8
gg1
 10
1.423200
 20
-1.633900
  0
SEQEND
  8
gg1
  0
POLYLINE
  8
gg1
 62
1
 40
0.000000
 41
0.000000
 66
  1
  0
VERTEX
  8
gg1
 10
1.378000
 20
-1.679100
  0
VERTEX
  8
gg1
 10
1.378000
 20
-1.588600
  0
SEQEND
  8
gg1
  0
POLYLINE
  8
gg1
 62
1
 40
0.000000
 41
0.000000
 66
  1
  0
VERTEX
  8
gg1
 10
0.939000
 20
-1.633900
  0
VERTEX
  8
gg1
 10
1.029500
 20
-1.633900
  0
SEQEND
  8
gg1
  0
POLYLINE
  8
gg1
 62
1
 40
0.000000
 41
0.000000
 66
  1
  0
VERTEX
  8
gg1
 10
0.984300
 20
-1.679100
  0
VERTEX
  8
gg1
 10
0.984300
 20
-1.588600
  0
SEQEND
  8
gg1
  0
POLYLINE
  8
gg1
 62
1
 40
0.000000
 41
0.000000
 66
  1
  0
VERTEX
  8
gg1
 10
-0.242100
 20
-1.633900
  0
VERTEX
  8
gg1
 10
-0.151600
 20
-1.633900
  0
SEQEND
  8
gg1
  0
POLYLINE
  8
gg1
 62
1
 40
0.000000
 41
0.000000
 66
  1
  0
VERTEX
  8
gg1
 10
-0.196900
 20
-1.679100
  0
VERTEX
  8
gg1
 10
-0.196900
 20
-1.588600
  0
SEQEND
  8
gg1
  0
POLYLINE
  8
gg1
 62
1
 40
0.000000
 41
0.000000
 66
  1
  0
VERTEX
  8
gg1
 10
0.151600
 20
-1.633900
  0
VERTEX
  8
gg1
 10
0.242100
 20
-1.633900
  0
SEQEND
  8
gg1
  0
POLYLINE
  8
gg1
 62
1
 40
0.000000
 41
0.000000
 66
  1
  0
VERTEX
  8
gg1
 10
0.196900
 20
-1.679100
  0
VERTEX
  8
gg1
 10
0.196900
 20
-1.588600
  0
SEQEND
  8
gg1
  0
POLYLINE
  8
gg1
 62
1
 40
0.000000
 41
0.000000
 66
  1
  0
VERTEX
  8
gg1
 10
0.545300
 20
-1.633900
  0
VERTEX
  8
gg1
 10
0.635800
 20
-1.633900
  0
SEQEND
  8
gg1
  0
POLYLINE
  8
gg1
 62
1
 40
0.000000
 41
0.000000
 66
  1
  0
VERTEX
  8
gg1
 10
0.590600
 20
-1.679100
  0
VERTEX
  8
gg1
 10
0.590600
 20
-1.588600
  0
SEQEND
  8
gg1
  0
POLYLINE
  8
gg1
 62
1
 40
0.000000
 41
0.000000
 66
  1
  0
VERTEX
  8
gg1
 10
-0.635800
 20
-1.633900
  0
VERTEX
  8
gg1
 10
-0.545300
 20
-1.633900
  0
SEQEND
  8
gg1
  0
POLYLINE
  8
gg1
 62
1
 40
0.000000
 41
0.000000
 66
  1
  0
VERTEX
  8
gg1
 10
-0.590600
 20
-1.679100
  0
VERTEX
  8
gg1
 10
-0.590600
 20
-1.588600
  0
SEQEND
  8
gg1
  0
POLYLINE
  8
gg1
 62
1
 40
0.000000
 41
0.000000
 66
  1
  0
VERTEX
  8
gg1
 10
-1.816900
 20
-1.633900
  0
VERTEX
  8
gg1
 10
-1.726400
 20
-1.633900
  0
SEQEND
  8
gg1
  0
POLYLINE
  8
gg1
 62
1
 40
0.000000
 41
0.000000
 66
  1
  0
VERTEX
  8
gg1
 10
-1.771700
 20
-1.679100
  0
VERTEX
  8
gg1
 10
-1.771700
 20
-1.588600
  0
SEQEND
  8
gg1
  0
POLYLINE
  8
gg1
 62
1
 40
0.000000
 41
0.000000
 66
  1
  0
VERTEX
  8
gg1
 10
-1.423200
 20
-1.633900
  0
VERTEX
  8
gg1
 10
-1.332700
 20
-1.633900
  0
SEQEND
  8
gg1
  0
POLYLINE
  8
gg1
 62
1
 40
0.000000
 41
0.000000
 66
  1
  0
VERTEX
  8
gg1
 10
-1.378000
 20
-1.679100
  0
VERTEX
  8
gg1
 10
-1.378000
 20
-1.588600
  0
SEQEND
  8
gg1
  0
POLYLINE
  8
gg1
 62
1
 40
0.000000
 41
0.000000
 66
  1
  0
VERTEX
  8
gg1
 10
0.151600
 20
-1.151600
  0
VERTEX
  8
gg1
 10
0.242100
 20
-1.151600
  0
SEQEND
  8
gg1
  0
POLYLINE
  8
gg1
 62
1
 40
0.000000
 41
0.000000
 66
  1
  0
VERTEX
  8
gg1
 10
0.196900
 20
-1.196800
  0
VERTEX
  8
gg1
 10
0.196900
 20
-1.106300
  0
SEQEND
  8
gg1
  0
POLYLINE
  8
gg1
 62
1
 40
0.000000
 41
0.000000
 66
  1
  0
VERTEX
  8
gg1
 10
-0.242100
 20
-1.151600
  0
VERTEX
  8
gg1
 10
-0.151600
 20
-1.151600
  0
SEQEND
  8
gg1
  0
POLYLINE
  8
gg1
 62
1
 40
0.000000
 41
0.000000
 66
  1
  0
VERTEX
  8
gg1
 10
-0.196900
 20
-1.196800
  0
VERTEX
  8
gg1
 10
-0.196900
 20
-1.106300
  0
SEQEND
  8
gg1
  0
POLYLINE
  8
gg1
 62
1
 40
0.000000
 41
0.000000
 66
  1
  0
VERTEX
  8
gg1
 10
-1.027600
 20
-1.151600
  0
VERTEX
  8
gg1
 10
-0.921300
 20
-1.151600
  0
SEQEND
  8
gg1
  0
POLYLINE
  8
gg1
 62
1
 40
0.000000
 41
0.000000
 66
  1
  0
VERTEX
  8
gg1
 10
-0.974400
 20
-1.204700
  0
VERTEX
  8
gg1
 10
-0.974400
 20
-1.098400
  0
SEQEND
  8
gg1
  0
POLYLINE
  8
gg1
 62
1
 40
0.000000
 41
0.000000
 66
  1
  0
VERTEX
  8
gg1
 10
-0.635800
 20
-1.151600
  0
VERTEX
  8
gg1
 10
-0.545300
 20
-1.151600
  0
SEQEND
  8
gg1
  0
POLYLINE
  8
gg1
 62
1
 40
0.000000
 41
0.000000
 66
  1
  0
VERTEX
  8
gg1
 10
-0.590600
 20
-1.196800
  0
VERTEX
  8
gg1
 10
-0.590600
 20
-1.106300
  0
SEQEND
  8
gg1
  0
POLYLINE
  8
gg1
 62
1
 40
0.000000
 41
0.000000
 66
  1
  0
VERTEX
  8
gg1
 10
0.545300
 20
-1.151600
  0
VERTEX
  8
gg1
 10
0.635800
 20
-1.151600
  0
SEQEND
  8
gg1
  0
POLYLINE
  8
gg1
 62
1
 40
0.000000
 41
0.000000
 66
  1
  0
VERTEX
  8
gg1
 10
0.590600
 20
-1.196800
  0
VERTEX
  8
gg1
 10
0.590600
 20
-1.106300
  0
SEQEND
  8
gg1
  0
POLYLINE
  8
gg1
 62
1
 40
0.000000
 41
0.000000
 66
  1
  0
VERTEX
  8
gg1
 10
0.921300
 20
-1.151600
  0
VERTEX
  8
gg1
 10
1.027600
 20
-1.151600
  0
SEQEND
  8
gg1
  0
POLYLINE
  8
gg1
 62
1
 40
0.000000
 41
0.000000
 66
  1
  0
VERTEX
  8
gg1
 10
0.974400
 20
-1.204700
  0
VERTEX
  8
gg1
 10
0.974400
 20
-1.098400
  0
SEQEND
  8
gg1
  0
POLYLINE
  8
gg1
 62
1
 40
0.000000
 41
0.000000
 66
  1
  0
VERTEX
  8
gg1
 10
-0.370000
 20
1.225000
  0
VERTEX
  8
gg1
 10
-0.330000
 20
1.225000
  0
SEQEND
  8
gg1
  0
POLYLINE
  8
gg1
 62
1
 40
0.000000
 41
0.000000
 66
  1
  0
VERTEX
  8
gg1
 10
-0.350000
 20
1.205000
  0
VERTEX
  8
gg1
 10
-0.350000
 20
1.245000
  0
SEQEND
  8
gg1
  0
POLYLINE
  8
gg1
 62
1
 40
0.000000
 41
0.000000
 66
  1
  0
VERTEX
  8
gg1
 10
-0.270000
 20
1.225000
  0
VERTEX
  8
gg1
 10
-0.230000
 20
1.225000
  0
SEQEND
  8
gg1
  0
POLYLINE
  8
gg1
 62
1
 40
0.000000
 41
0.000000
 66
  1
  0
VERTEX
  8
gg1
 10
-0.250000
 20
1.205000
  0
VERTEX
  8
gg1
 10
-0.250000
 20
1.245000
  0
SEQEND
  8
gg1
  0
POLYLINE
  8
gg1
 62
1
 40
0.000000
 41
0.000000
 66
  1
  0
VERTEX
  8
gg1
 10
-0.170000
 20
1.225000
  0
VERTEX
  8
gg1
 10
-0.130000
 20
1.225000
  0
SEQEND
  8
gg1
  0
POLYLINE
  8
gg1
 62
1
 40
0.000000
 41
0.000000
 66
  1
  0
VERTEX
  8
gg1
 10
-0.150000
 20
1.205000
  0
VERTEX
  8
gg1
 10
-0.150000
 20
1.245000
  0
SEQEND
  8
gg1
  0
POLYLINE
  8
gg1
 62
1
 40
0.000000
 41
0.000000
 66
  1
  0
VERTEX
  8
gg1
 10
-0.070000
 20
1.225000
  0
VERTEX
  8
gg1
 10
-0.030000
 20
1.225000
  0
SEQEND
  8
gg1
  0
POLYLINE
  8
gg1
 62
1
 40
0.000000
 41
0.000000
 66
  1
  0
VERTEX
  8
gg1
 10
-0.050000
 20
1.205000
  0
VERTEX
  8
gg1
 10
-0.050000
 20
1.245000
  0
SEQEND
  8
gg1
  0
POLYLINE
  8
gg1
 62
1
 40
0.000000
 41
0.000000
 66
  1
  0
VERTEX
  8
gg1
 10
0.430000
 20
1.225000
  0
VERTEX
  8
gg1
 10
0.470000
 20
1.225000
  0
SEQEND
  8
gg1
  0
POLYLINE
  8
gg1
 62
1
 40
0.000000
 41
0.000000
 66
  1
  0
VERTEX
  8
gg1
 10
0.450000
 20
1.205000
  0
VERTEX
  8
gg1
 10
0.450000
 20
1.245000
  0
SEQEND
  8
gg1
  0
POLYLINE
  8
gg1
 62
1
 40
0.000000
 41
0.000000
 66
  1
  0
VERTEX
  8
gg1
 10
0.330000
 20
1.225000
  0
VERTEX
  8
gg1
 10
0.370000
 20
1.225000
  0
SEQEND
  8
gg1
  0
POLYLINE
  8
gg1
 62
1
 40
0.000000
 41
0.000000
 66
  1
  0
VERTEX
  8
gg1
 10
0.350000
 20
1.205000
  0
VERTEX
  8
gg1
 10
0.350000
 20
1.245000
  0
SEQEND
  8
gg1
  0
POLYLINE
  8
gg1
 62
1
 40
0.000000
 41
0.000000
 66
  1
  0
VERTEX
  8
gg1
 10
0.230000
 20
1.225000
  0
VERTEX
  8
gg1
 10
0.270000
 20
1.225000
  0
SEQEND
  8
gg1
  0
POLYLINE
  8
gg1
 62
1
 40
0.000000
 41
0.000000
 66
  1
  0
VERTEX
  8
gg1
 10
0.250000
 20
1.205000
  0
VERTEX
  8
gg1
 10
0.250000
 20
1.245000
  0
SEQEND
  8
gg1
  0
POLYLINE
  8
gg1
 62
1
 40
0.000000
 41
0.000000
 66
  1
  0
VERTEX
  8
gg1
 10
0.130000
 20
1.225000
  0
VERTEX
  8
gg1
 10
0.170000
 20
1.225000
  0
SEQEND
  8
gg1
  0
POLYLINE
  8
gg1
 62
1
 40
0.000000
 41
0.000000
 66
  1
  0
VERTEX
  8
gg1
 10
0.150000
 20
1.205000
  0
VERTEX
  8
gg1
 10
0.150000
 20
1.245000
  0
SEQEND
  8
gg1
  0
POLYLINE
  8
gg1
 62
1
 40
0.000000
 41
0.000000
 66
  1
  0
VERTEX
  8
gg1
 10
0.030000
 20
1.225000
  0
VERTEX
  8
gg1
 10
0.070000
 20
1.225000
  0
SEQEND
  8
gg1
  0
POLYLINE
  8
gg1
 62
1
 40
0.000000
 41
0.000000
 66
  1
  0
VERTEX
  8
gg1
 10
0.050000
 20
1.205000
  0
VERTEX
  8
gg1
 10
0.050000
 20
1.245000
  0
SEQEND
  8
gg1
  0
POLYLINE
  8
gg1
 62
1
 40
0.000000
 41
0.000000
 66
  1
  0
VERTEX
  8
gg1
 10
-0.470000
 20
1.225000
  0
VERTEX
  8
gg1
 10
-0.430000
 20
1.225000
  0
SEQEND
  8
gg1
  0
POLYLINE
  8
gg1
 62
1
 40
0.000000
 41
0.000000
 66
  1
  0
VERTEX
  8
gg1
 10
-0.450000
 20
1.205000
  0
VERTEX
  8
gg1
 10
-0.450000
 20
1.245000
  0
SEQEND
  8
gg1
  0
POLYLINE
  8
gg1
 62
1
 40
0.000000
 41
0.000000
 66
  1
  0
VERTEX
  8
gg1
 10
0.430000
 20
1.125000
  0
VERTEX
  8
gg1
 10
0.470000
 20
1.125000
  0
SEQEND
  8
gg1
  0
POLYLINE
  8
gg1
 62
1
 40
0.000000
 41
0.000000
 66
  1
  0
VERTEX
  8
gg1
 10
0.450000
 20
1.105000
  0
VERTEX
  8
gg1
 10
0.450000
 20
1.145000
  0
SEQEND
  8
gg1
  0
POLYLINE
  8
gg1
 62
1
 40
0.000000
 41
0.000000
 66
  1
  0
VERTEX
  8
gg1
 10
0.330000
 20
1.125000
  0
VERTEX
  8
gg1
 10
0.370000
 20
1.125000
  0
SEQEND
  8
gg1
  0
POLYLINE
  8
gg1
 62
1
 40
0.000000
 41
0.000000
 66
  1
  0
VERTEX
  8
gg1
 10
0.350000
 20
1.105000
  0
VERTEX
  8
gg1
 10
0.350000
 20
1.145000
  0
SEQEND
  8
gg1
  0
POLYLINE
  8
gg1
 62
1
 40
0.000000
 41
0.000000
 66
  1
  0
VERTEX
  8
gg1
 10
0.230000
 20
1.125000
  0
VERTEX
  8
gg1
 10
0.270000
 20
1.125000
  0
SEQEND
  8
gg1
  0
POLYLINE
  8
gg1
 62
1
 40
0.000000
 41
0.000000
 66
  1
  0
VERTEX
  8
gg1
 10
0.250000
 20
1.105000
  0
VERTEX
  8
gg1
 10
0.250000
 20
1.145000
  0
SEQEND
  8
gg1
  0
POLYLINE
  8
gg1
 62
1
 40
0.000000
 41
0.000000
 66
  1
  0
VERTEX
  8
gg1
 10
0.130000
 20
1.125000
  0
VERTEX
  8
gg1
 10
0.170000
 20
1.125000
  0
SEQEND
  8
gg1
  0
POLYLINE
  8
gg1
 62
1
 40
0.000000
 41
0.000000
 66
  1
  0
VERTEX
  8
gg1
 10
0.150000
 20
1.105000
  0
VERTEX
  8
gg1
 10
0.150000
 20
1.145000
  0
SEQEND
  8
gg1
  0
POLYLINE
  8
gg1
 62
1
 40
0.000000
 41
0.000000
 66
  1
  0
VERTEX
  8
gg1
 10
0.030000
 20
1.125000
  0
VERTEX
  8
gg1
 10
0.070000
 20
1.125000
  0
SEQEND
  8
gg1
  0
POLYLINE
  8
gg1
 62
1
 40
0.000000
 41
0.000000
 66
  1
  0
VERTEX
  8
gg1
 10
0.050000
 20
1.105000
  0
VERTEX
  8
gg1
 10
0.050000
 20
1.145000
  0
SEQEND
  8
gg1
  0
POLYLINE
  8
gg1
 62
1
 40
0.000000
 41
0.000000
 66
  1
  0
VERTEX
  8
gg1
 10
-0.070000
 20
1.125000
  0
VERTEX
  8
gg1
 10
-0.030000
 20
1.125000
  0
SEQEND
  8
gg1
  0
POLYLINE
  8
gg1
 62
1
 40
0.000000
 41
0.000000
 66
  1
  0
VERTEX
  8
gg1
 10
-0.050000
 20
1.105000
  0
VERTEX
  8
gg1
 10
-0.050000
 20
1.145000
  0
SEQEND
  8
gg1
  0
POLYLINE
  8
gg1
 62
1
 40
0.000000
 41
0.000000
 66
  1
  0
VERTEX
  8
gg1
 10
-0.170000
 20
1.125000
  0
VERTEX
  8
gg1
 10
-0.130000
 20
1.125000
  0
SEQEND
  8
gg1
  0
POLYLINE
  8
gg1
 62
1
 40
0.000000
 41
0.000000
 66
  1
  0
VERTEX
  8
gg1
 10
-0.150000
 20
1.105000
  0
VERTEX
  8
gg1
 10
-0.150000
 20
1.145000
  0
SEQEND
  8
gg1
  0
POLYLINE
  8
gg1
 62
1
 40
0.000000
 41
0.000000
 66
  1
  0
VERTEX
  8
gg1
 10
-0.270000
 20
1.125000
  0
VERTEX
  8
gg1
 10
-0.230000
 20
1.125000
  0
SEQEND
  8
gg1
  0
POLYLINE
  8
gg1
 62
1
 40
0.000000
 41
0.000000
 66
  1
  0
VERTEX
  8
gg1
 10
-0.250000
 20
1.105000
  0
VERTEX
  8
gg1
 10
-0.250000
 20
1.145000
  0
SEQEND
  8
gg1
  0
POLYLINE
  8
gg1
 62
1
 40
0.000000
 41
0.000000
 66
  1
  0
VERTEX
  8
gg1
 10
-0.370000
 20
1.125000
  0
VERTEX
  8
gg1
 10
-0.330000
 20
1.125000
  0
SEQEND
  8
gg1
  0
POLYLINE
  8
gg1
 62
1
 40
0.000000
 41
0.000000
 66
  1
  0
VERTEX
  8
gg1
 10
-0.350000
 20
1.105000
  0
VERTEX
  8
gg1
 10
-0.350000
 20
1.145000
  0
SEQEND
  8
gg1
  0
POLYLINE
  8
gg1
 62
1
 40
0.000000
 41
0.000000
 66
  1
  0
VERTEX
  8
gg1
 10
1.130000
 20
-1.375000
  0
VERTEX
  8
gg1
 10
1.170000
 20
-1.375000
  0
SEQEND
  8
gg1
  0
POLYLINE
  8
gg1
 62
1
 40
0.000000
 41
0.000000
 66
  1
  0
VERTEX
  8
gg1
 10
1.150000
 20
-1.395000
  0
VERTEX
  8
gg1
 10
1.150000
 20
-1.355000
  0
SEQEND
  8
gg1
  0
POLYLINE
  8
gg1
 62
1
 40
0.000000
 41
0.000000
 66
  1
  0
VERTEX
  8
gg1
 10
1.230000
 20
-1.375000
  0
VERTEX
  8
gg1
 10
1.270000
 20
-1.375000
  0
SEQEND
  8
gg1
  0
POLYLINE
  8
gg1
 62
1
 40
0.000000
 41
0.000000
 66
  1
  0
VERTEX
  8
gg1
 10
1.250000
 20
-1.395000
  0
VERTEX
  8
gg1
 10
1.250000
 20
-1.355000
  0
SEQEND
  8
gg1
  0
POLYLINE
  8
gg1
 62
1
 40
0.000000
 41
0.000000
 66
  1
  0
VERTEX
  8
gg1
 10
1.330000
 20
-1.375000
  0
VERTEX
  8
gg1
 10
1.370000
 20
-1.375000
  0
SEQEND
  8
gg1
  0
POLYLINE
  8
gg1
 62
1
 40
0.000000
 41
0.000000
 66
  1
  0
VERTEX
  8
gg1
 10
1.350000
 20
-1.395000
  0
VERTEX
  8
gg1
 10
1.350000
 20
-1.355000
  0
SEQEND
  8
gg1
  0
POLYLINE
  8
gg1
 62
1
 40
0.000000
 41
0.000000
 66
  1
  0
VERTEX
  8
gg1
 10
1.430000
 20
-1.375000
  0
VERTEX
  8
gg1
 10
1.470000
 20
-1.375000
  0
SEQEND
  8
gg1
  0
POLYLINE
  8
gg1
 62
1
 40
0.000000
 41
0.000000
 66
  1
  0
VERTEX
  8
gg1
 10
1.450000
 20
-1.395000
  0
VERTEX
  8
gg1
 10
1.450000
 20
-1.355000
  0
SEQEND
  8
gg1
  0
POLYLINE
  8
gg1
 62
1
 40
0.000000
 41
0.000000
 66
  1
  0
VERTEX
  8
gg1
 10
1.530000
 20
-1.375000
  0
VERTEX
  8
gg1
 10
1.570000
 20
-1.375000
  0
SEQEND
  8
gg1
  0
POLYLINE
  8
gg1
 62
1
 40
0.000000
 41
0.000000
 66
  1
  0
VERTEX
  8
gg1
 10
1.550000
 20
-1.395000
  0
VERTEX
  8
gg1
 10
1.550000
 20
-1.355000
  0
SEQEND
  8
gg1
  0
POLYLINE
  8
gg1
 62
1
 40
0.000000
 41
0.000000
 66
  1
  0
VERTEX
  8
gg1
 10
1.130000
 20
-1.475000
  0
VERTEX
  8
gg1
 10
1.170000
 20
-1.475000
  0
SEQEND
  8
gg1
  0
POLYLINE
  8
gg1
 62
1
 40
0.000000
 41
0.000000
 66
  1
  0
VERTEX
  8
gg1
 10
1.150000
 20
-1.495000
  0
VERTEX
  8
gg1
 10
1.150000
 20
-1.455000
  0
SEQEND
  8
gg1
  0
POLYLINE
  8
gg1
 62
1
 40
0.000000
 41
0.000000
 66
  1
  0
VERTEX
  8
gg1
 10
1.230000
 20
-1.475000
  0
VERTEX
  8
gg1
 10
1.270000
 20
-1.475000
  0
SEQEND
  8
gg1
  0
POLYLINE
  8
gg1
 62
1
 40
0.000000
 41
0.000000
 66
  1
  0
VERTEX
  8
gg1
 10
1.250000
 20
-1.495000
  0
VERTEX
  8
gg1
 10
1.250000
 20
-1.455000
  0
SEQEND
  8
gg1
  0
POLYLINE
  8
gg1
 62
1
 40
0.000000
 41
0.000000
 66
  1
  0
VERTEX
  8
gg1
 10
1.330000
 20
-1.475000
  0
VERTEX
  8
gg1
 10
1.370000
 20
-1.475000
  0
SEQEND
  8
gg1
  0
POLYLINE
  8
gg1
 62
1
 40
0.000000
 41
0.000000
 66
  1
  0
VERTEX
  8
gg1
 10
1.350000
 20
-1.495000
  0
VERTEX
  8
gg1
 10
1.350000
 20
-1.455000
  0
SEQEND
  8
gg1
  0
POLYLINE
  8
gg1
 62
1
 40
0.000000
 41
0.000000
 66
  1
  0
VERTEX
  8
gg1
 10
1.430000
 20
-1.475000
  0
VERTEX
  8
gg1
 10
1.470000
 20
-1.475000
  0
SEQEND
  8
gg1
  0
POLYLINE
  8
gg1
 62
1
 40
0.000000
 41
0.000000
 66
  1
  0
VERTEX
  8
gg1
 10
1.450000
 20
-1.495000
  0
VERTEX
  8
gg1
 10
1.450000
 20
-1.455000
  0
SEQEND
  8
gg1
  0
POLYLINE
  8
gg1
 62
1
 40
0.000000
 41
0.000000
 66
  1
  0
VERTEX
  8
gg1
 10
1.530000
 20
-1.475000
  0
VERTEX
  8
gg1
 10
1.570000
 20
-1.475000
  0
SEQEND
  8
gg1
  0
POLYLINE
  8
gg1
 62
1
 40
0.000000
 41
0.000000
 66
  1
  0
VERTEX
  8
gg1
 10
1.550000
 20
-1.495000
  0
VERTEX
  8
gg1
 10
1.550000
 20
-1.455000
  0
SEQEND
  8
gg1
  0
POLYLINE
  8
gg1
 62
1
 40
0.000000
 41
0.000000
 66
  1
  0
VERTEX
  8
gg1
 10
2.030000
 20
-1.875000
  0
VERTEX
  8
gg1
 10
2.070000
 20
-1.875000
  0
SEQEND
  8
gg1
  0
POLYLINE
  8
gg1
 62
1
 40
0.000000
 41
0.000000
 66
  1
  0
VERTEX
  8
gg1
 10
2.050000
 20
-1.895000
  0
VERTEX
  8
gg1
 10
2.050000
 20
-1.855000
  0
SEQEND
  8
gg1
  0
POLYLINE
  8
gg1
 62
1
 40
0.000000
 41
0.000000
 66
  1
  0
VERTEX
  8
gg1
 10
1.930000
 20
-1.875000
  0
VERTEX
  8
gg1
 10
1.970000
 20
-1.875000
  0
SEQEND
  8
gg1
  0
POLYLINE
  8
gg1
 62
1
 40
0.000000
 41
0.000000
 66
  1
  0
VERTEX
  8
gg1
 10
1.950000
 20
-1.895000
  0
VERTEX
  8
gg1
 10
1.950000
 20
-1.855000
  0
SEQEND
  8
gg1
  0
POLYLINE
  8
gg1
 62
1
 40
0.000000
 41
0.000000
 66
  1
  0
VERTEX
  8
gg1
 10
1.830000
 20
-1.875000
  0
VERTEX
  8
gg1
 10
1.870000
 20
-1.875000
  0
SEQEND
  8
gg1
  0
POLYLINE
  8
gg1
 62
1
 40
0.000000
 41
0.000000
 66
  1
  0
VERTEX
  8
gg1
 10
1.850000
 20
-1.895000
  0
VERTEX
  8
gg1
 10
1.850000
 20
-1.855000
  0
SEQEND
  8
gg1
  0
POLYLINE
  8
gg1
 62
1
 40
0.000000
 41
0.000000
 66
  1
  0
VERTEX
  8
gg1
 10
1.730000
 20
-1.875000
  0
VERTEX
  8
gg1
 10
1.770000
 20
-1.875000
  0
SEQEND
  8
gg1
  0
POLYLINE
  8
gg1
 62
1
 40
0.000000
 41
0.000000
 66
  1
  0
VERTEX
  8
gg1
 10
1.750000
 20
-1.895000
  0
VERTEX
  8
gg1
 10
1.750000
 20
-1.855000
  0
SEQEND
  8
gg1
  0
POLYLINE
  8
gg1
 62
1
 40
0.000000
 41
0.000000
 66
  1
  0
VERTEX
  8
gg1
 10
1.230000
 20
-1.875000
  0
VERTEX
  8
gg1
 10
1.270000
 20
-1.875000
  0
SEQEND
  8
gg1
  0
POLYLINE
  8
gg1
 62
1
 40
0.000000
 41
0.000000
 66
  1
  0
VERTEX
  8
gg1
 10
1.250000
 20
-1.895000
  0
VERTEX
  8
gg1
 10
1.250000
 20
-1.855000
  0
SEQEND
  8
gg1
  0
POLYLINE
  8
gg1
 62
1
 40
0.000000
 41
0.000000
 66
  1
  0
VERTEX
  8
gg1
 10
1.330000
 20
-1.875000
  0
VERTEX
  8
gg1
 10
1.370000
 20
-1.875000
  0
SEQEND
  8
gg1
  0
POLYLINE
  8
gg1
 62
1
 40
0.000000
 41
0.000000
 66
  1
  0
VERTEX
  8
gg1
 10
1.350000
 20
-1.895000
  0
VERTEX
  8
gg1
 10
1.350000
 20
-1.855000
  0
SEQEND
  8
gg1
  0
POLYLINE
  8
gg1
 62
1
 40
0.000000
 41
0.000000
 66
  1
  0
VERTEX
  8
gg1
 10
1.430000
 20
-1.875000
  0
VERTEX
  8
gg1
 10
1.470000
 20
-1.875000
  0
SEQEND
  8
gg1
  0
POLYLINE
  8
gg1
 62
1
 40
0.000000
 41
0.000000
 66
  1
  0
VERTEX
  8
gg1
 10
1.450000
 20
-1.895000
  0
VERTEX
  8
gg1
 10
1.450000
 20
-1.855000
  0
SEQEND
  8
gg1
  0
POLYLINE
  8
gg1
 62
1
 40
0.000000
 41
0.000000
 66
  1
  0
VERTEX
  8
gg1
 10
1.530000
 20
-1.875000
  0
VERTEX
  8
gg1
 10
1.570000
 20
-1.875000
  0
SEQEND
  8
gg1
  0
POLYLINE
  8
gg1
 62
1
 40
0.000000
 41
0.000000
 66
  1
  0
VERTEX
  8
gg1
 10
1.550000
 20
-1.895000
  0
VERTEX
  8
gg1
 10
1.550000
 20
-1.855000
  0
SEQEND
  8
gg1
  0
POLYLINE
  8
gg1
 62
1
 40
0.000000
 41
0.000000
 66
  1
  0
VERTEX
  8
gg1
 10
1.630000
 20
-1.875000
  0
VERTEX
  8
gg1
 10
1.670000
 20
-1.875000
  0
SEQEND
  8
gg1
  0
POLYLINE
  8
gg1
 62
1
 40
0.000000
 41
0.000000
 66
  1
  0
VERTEX
  8
gg1
 10
1.650000
 20
-1.895000
  0
VERTEX
  8
gg1
 10
1.650000
 20
-1.855000
  0
SEQEND
  8
gg1
  0
POLYLINE
  8
gg1
 62
1
 40
0.000000
 41
0.000000
 66
  1
  0
VERTEX
  8
gg1
 10
2.130000
 20
-1.875000
  0
VERTEX
  8
gg1
 10
2.170000
 20
-1.875000
  0
SEQEND
  8
gg1
  0
POLYLINE
  8
gg1
 62
1
 40
0.000000
 41
0.000000
 66
  1
  0
VERTEX
  8
gg1
 10
2.150000
 20
-1.895000
  0
VERTEX
  8
gg1
 10
2.150000
 20
-1.855000
  0
SEQEND
  8
gg1
  0
POLYLINE
  8
gg1
 62
1
 40
0.000000
 41
0.000000
 66
  1
  0
VERTEX
  8
gg1
 10
2.030000
 20
-1.975000
  0
VERTEX
  8
gg1
 10
2.070000
 20
-1.975000
  0
SEQEND
  8
gg1
  0
POLYLINE
  8
gg1
 62
1
 40
0.000000
 41
0.000000
 66
  1
  0
VERTEX
  8
gg1
 10
2.050000
 20
-1.995000
  0
VERTEX
  8
gg1
 10
2.050000
 20
-1.955000
  0
SEQEND
  8
gg1
  0
POLYLINE
  8
gg1
 62
1
 40
0.000000
 41
0.000000
 66
  1
  0
VERTEX
  8
gg1
 10
1.930000
 20
-1.975000
  0
VERTEX
  8
gg1
 10
1.970000
 20
-1.975000
  0
SEQEND
  8
gg1
  0
POLYLINE
  8
gg1
 62
1
 40
0.000000
 41
0.000000
 66
  1
  0
VERTEX
  8
gg1
 10
1.950000
 20
-1.995000
  0
VERTEX
  8
gg1
 10
1.950000
 20
-1.955000
  0
SEQEND
  8
gg1
  0
POLYLINE
  8
gg1
 62
1
 40
0.000000
 41
0.000000
 66
  1
  0
VERTEX
  8
gg1
 10
1.830000
 20
-1.975000
  0
VERTEX
  8
gg1
 10
1.870000
 20
-1.975000
  0
SEQEND
  8
gg1
  0
POLYLINE
  8
gg1
 62
1
 40
0.000000
 41
0.000000
 66
  1
  0
VERTEX
  8
gg1
 10
1.850000
 20
-1.995000
  0
VERTEX
  8
gg1
 10
1.850000
 20
-1.955000
  0
SEQEND
  8
gg1
  0
POLYLINE
  8
gg1
 62
1
 40
0.000000
 41
0.000000
 66
  1
  0
VERTEX
  8
gg1
 10
1.730000
 20
-1.975000
  0
VERTEX
  8
gg1
 10
1.770000
 20
-1.975000
  0
SEQEND
  8
gg1
  0
POLYLINE
  8
gg1
 62
1
 40
0.000000
 41
0.000000
 66
  1
  0
VERTEX
  8
gg1
 10
1.750000
 20
-1.995000
  0
VERTEX
  8
gg1
 10
1.750000
 20
-1.955000
  0
SEQEND
  8
gg1
  0
POLYLINE
  8
gg1
 62
1
 40
0.000000
 41
0.000000
 66
  1
  0
VERTEX
  8
gg1
 10
1.230000
 20
-1.975000
  0
VERTEX
  8
gg1
 10
1.270000
 20
-1.975000
  0
SEQEND
  8
gg1
  0
POLYLINE
  8
gg1
 62
1
 40
0.000000
 41
0.000000
 66
  1
  0
VERTEX
  8
gg1
 10
1.250000
 20
-1.995000
  0
VERTEX
  8
gg1
 10
1.250000
 20
-1.955000
  0
SEQEND
  8
gg1
  0
POLYLINE
  8
gg1
 62
1
 40
0.000000
 41
0.000000
 66
  1
  0
VERTEX
  8
gg1
 10
1.330000
 20
-1.975000
  0
VERTEX
  8
gg1
 10
1.370000
 20
-1.975000
  0
SEQEND
  8
gg1
  0
POLYLINE
  8
gg1
 62
1
 40
0.000000
 41
0.000000
 66
  1
  0
VERTEX
  8
gg1
 10
1.350000
 20
-1.995000
  0
VERTEX
  8
gg1
 10
1.350000
 20
-1.955000
  0
SEQEND
  8
gg1
  0
POLYLINE
  8
gg1
 62
1
 40
0.000000
 41
0.000000
 66
  1
  0
VERTEX
  8
gg1
 10
1.430000
 20
-1.975000
  0
VERTEX
  8
gg1
 10
1.470000
 20
-1.975000
  0
SEQEND
  8
gg1
  0
POLYLINE
  8
gg1
 62
1
 40
0.000000
 41
0.000000
 66
  1
  0
VERTEX
  8
gg1
 10
1.450000
 20
-1.995000
  0
VERTEX
  8
gg1
 10
1.450000
 20
-1.955000
  0
SEQEND
  8
gg1
  0
POLYLINE
  8
gg1
 62
1
 40
0.000000
 41
0.000000
 66
  1
  0
VERTEX
  8
gg1
 10
1.530000
 20
-1.975000
  0
VERTEX
  8
gg1
 10
1.570000
 20
-1.975000
  0
SEQEND
  8
gg1
  0
POLYLINE
  8
gg1
 62
1
 40
0.000000
 41
0.000000
 66
  1
  0
VERTEX
  8
gg1
 10
1.550000
 20
-1.995000
  0
VERTEX
  8
gg1
 10
1.550000
 20
-1.955000
  0
SEQEND
  8
gg1
  0
POLYLINE
  8
gg1
 62
1
 40
0.000000
 41
0.000000
 66
  1
  0
VERTEX
  8
gg1
 10
1.630000
 20
-1.975000
  0
VERTEX
  8
gg1
 10
1.670000
 20
-1.975000
  0
SEQEND
  8
gg1
  0
POLYLINE
  8
gg1
 62
1
 40
0.000000
 41
0.000000
 66
  1
  0
VERTEX
  8
gg1
 10
1.650000
 20
-1.995000
  0
VERTEX
  8
gg1
 10
1.650000
 20
-1.955000
  0
SEQEND
  8
gg1
  0
POLYLINE
  8
gg1
 62
1
 40
0.000000
 41
0.000000
 66
  1
  0
VERTEX
  8
gg1
 10
2.130000
 20
-1.975000
  0
VERTEX
  8
gg1
 10
2.170000
 20
-1.975000
  0
SEQEND
  8
gg1
  0
POLYLINE
  8
gg1
 62
1
 40
0.000000
 41
0.000000
 66
  1
  0
VERTEX
  8
gg1
 10
2.150000
 20
-1.995000
  0
VERTEX
  8
gg1
 10
2.150000
 20
-1.955000
  0
SEQEND
  8
gg1
  0
POLYLINE
  8
gg1
 62
1
 40
0.000000
 41
0.000000
 66
  1
  0
VERTEX
  8
gg1
 10
-0.770000
 20
-1.475000
  0
VERTEX
  8
gg1
 10
-0.730000
 20
-1.475000
  0
SEQEND
  8
gg1
  0
POLYLINE
  8
gg1
 62
1
 40
0.000000
 41
0.000000
 66
  1
  0
VERTEX
  8
gg1
 10
-0.750000
 20
-1.495000
  0
VERTEX
  8
gg1
 10
-0.750000
 20
-1.455000
  0
SEQEND
  8
gg1
  0
POLYLINE
  8
gg1
 62
1
 40
0.000000
 41
0.000000
 66
  1
  0
VERTEX
  8
gg1
 10
-1.470000
 20
-1.975000
  0
VERTEX
  8
gg1
 10
-1.430000
 20
-1.975000
  0
SEQEND
  8
gg1
  0
POLYLINE
  8
gg1
 62
1
 40
0.000000
 41
0.000000
 66
  1
  0
VERTEX
  8
gg1
 10
-1.450000
 20
-1.995000
  0
VERTEX
  8
gg1
 10
-1.450000
 20
-1.955000
  0
SEQEND
  8
gg1
  0
POLYLINE
  8
gg1
 62
1
 40
0.000000
 41
0.000000
 66
  1
  0
VERTEX
  8
gg1
 10
-1.122400
 20
0.374000
  0
VERTEX
  8
gg1
 10
-1.082400
 20
0.374000
  0
SEQEND
  8
gg1
  0
POLYLINE
  8
gg1
 62
1
 40
0.000000
 41
0.000000
 66
  1
  0
VERTEX
  8
gg1
 10
-1.102400
 20
0.354000
  0
VERTEX
  8
gg1
 10
-1.102400
 20
0.394000
  0
SEQEND
  8
gg1
  0
POLYLINE
  8
gg1
 62
1
 40
0.000000
 41
0.000000
 66
  1
  0
VERTEX
  8
gg1
 10
-1.122400
 20
-0.196900
  0
VERTEX
  8
gg1
 10
-1.082400
 20
-0.196900
  0
SEQEND
  8
gg1
  0
POLYLINE
  8
gg1
 62
1
 40
0.000000
 41
0.000000
 66
  1
  0
VERTEX
  8
gg1
 10
-1.102400
 20
-0.216800
  0
VERTEX
  8
gg1
 10
-1.102400
 20
-0.176900
  0
SEQEND
  8
gg1
  0
POLYLINE
  8
gg1
 62
1
 40
0.000000
 41
0.000000
 66
  1
  0
VERTEX
  8
gg1
 10
-2.131200
 20
-1.437000
  0
VERTEX
  8
gg1
 10
-2.091200
 20
-1.437000
  0
SEQEND
  8
gg1
  0
POLYLINE
  8
gg1
 62
1
 40
0.000000
 41
0.000000
 66
  1
  0
VERTEX
  8
gg1
 10
-2.111200
 20
-1.457000
  0
VERTEX
  8
gg1
 10
-2.111200
 20
-1.417000
  0
SEQEND
  8
gg1
  0
POLYLINE
  8
gg1
 62
1
 40
0.000000
 41
0.000000
 66
  1
  0
VERTEX
  8
gg1
 10
-2.131200
 20
-0.866100
  0
VERTEX
  8
gg1
 10
-2.091200
 20
-0.866100
  0
SEQEND
  8
gg1
  0
POLYLINE
  8
gg1
 62
1
 40
0.000000
 41
0.000000
 66
  1
  0
VERTEX
  8
gg1
 10
-2.111200
 20
-0.886100
  0
VERTEX
  8
gg1
 10
-2.111200
 20
-0.846100
  0
SEQEND
  8
gg1
  0
POLYLINE
  8
gg1
 62
1
 40
0.000000
 41
0.000000
 66
  1
  0
VERTEX
  8
gg1
 10
0.025000
 20
0.410000
  0
VERTEX
  8
gg1
 10
0.060000
 20
0.410000
  0
SEQEND
  8
gg1
  0
POLYLINE
  8
gg1
 62
1
 40
0.000000
 41
0.000000
 66
  1
  0
VERTEX
  8
gg1
 10
0.042500
 20
0.392500
  0
VERTEX
  8
gg1
 10
0.042500
 20
0.427500
  0
SEQEND
  8
gg1
  0
POLYLINE
  8
gg1
 62
1
 40
0.000000
 41
0.000000
 66
  1
  0
VERTEX
  8
gg1
 10
0.172500
 20
0.410000
  0
VERTEX
  8
gg1
 10
0.207500
 20
0.410000
  0
SEQEND
  8
gg1
  0
POLYLINE
  8
gg1
 62
1
 40
0.000000
 41
0.000000
 66
  1
  0
VERTEX
  8
gg1
 10
0.190000
 20
0.392500
  0
VERTEX
  8
gg1
 10
0.190000
 20
0.427500
  0
SEQEND
  8
gg1
  0
POLYLINE
  8
gg1
 62
1
 40
0.000000
 41
0.000000
 66
  1
  0
VERTEX
  8
gg1
 10
-0.670000
 20
1.225000
  0
VERTEX
  8
gg1
 10
-0.630000
 20
1.225000
  0
SEQEND
  8
gg1
  0
POLYLINE
  8
gg1
 62
1
 40
0.000000
 41
0.000000
 66
  1
  0
VERTEX
  8
gg1
 10
-0.650000
 20
1.205000
  0
VERTEX
  8
gg1
 10
-0.650000
 20
1.245000
  0
SEQEND
  8
gg1
  0
POLYLINE
  8
gg1
 62
1
 40
0.000000
 41
0.000000
 66
  1
  0
VERTEX
  8
gg1
 10
-0.570000
 20
1.125000
  0
VERTEX
  8
gg1
 10
-0.530000
 20
1.125000
  0
SEQEND
  8
gg1
  0
POLYLINE
  8
gg1
 62
1
 40
0.000000
 41
0.000000
 66
  1
  0
VERTEX
  8
gg1
 10
-0.550000
 20
1.105000
  0
VERTEX
  8
gg1
 10
-0.550000
 20
1.145000
  0
SEQEND
  8
gg1
  0
POLYLINE
  8
gg1
 62
1
 40
0.000000
 41
0.000000
 66
  1
  0
VERTEX
  8
gg1
 10
-0.570000
 20
1.225000
  0
VERTEX
  8
gg1
 10
-0.530000
 20
1.225000
  0
SEQEND
  8
gg1
  0
POLYLINE
  8
gg1
 62
1
 40
0.000000
 41
0.000000
 66
  1
  0
VERTEX
  8
gg1
 10
-0.550000
 20
1.205000
  0
VERTEX
  8
gg1
 10
-0.550000
 20
1.245000
  0
SEQEND
  8
gg1
  0
POLYLINE
  8
gg1
 62
1
 40
0.000000
 41
0.000000
 66
  1
  0
VERTEX
  8
gg1
 10
-0.670000
 20
1.125000
  0
VERTEX
  8
gg1
 10
-0.630000
 20
1.125000
  0
SEQEND
  8
gg1
  0
POLYLINE
  8
gg1
 62
1
 40
0.000000
 41
0.000000
 66
  1
  0
VERTEX
  8
gg1
 10
-0.650000
 20
1.105000
  0
VERTEX
  8
gg1
 10
-0.650000
 20
1.145000
  0
SEQEND
  8
gg1
  0
POLYLINE
  8
gg1
 62
1
 40
0.000000
 41
0.000000
 66
  1
  0
VERTEX
  8
gg1
 10
-0.770000
 20
1.225000
  0
VERTEX
  8
gg1
 10
-0.730000
 20
1.225000
  0
SEQEND
  8
gg1
  0
POLYLINE
  8
gg1
 62
1
 40
0.000000
 41
0.000000
 66
  1
  0
VERTEX
  8
gg1
 10
-0.750000
 20
1.205000
  0
VERTEX
  8
gg1
 10
-0.750000
 20
1.245000
  0
SEQEND
  8
gg1
  0
POLYLINE
  8
gg1
 62
1
 40
0.000000
 41
0.000000
 66
  1
  0
VERTEX
  8
gg1
 10
-0.770000
 20
1.125000
  0
VERTEX
  8
gg1
 10
-0.730000
 20
1.125000
  0
SEQEND
  8
gg1
  0
POLYLINE
  8
gg1
 62
1
 40
0.000000
 41
0.000000
 66
  1
  0
VERTEX
  8
gg1
 10
-0.750000
 20
1.105000
  0
VERTEX
  8
gg1
 10
-0.750000
 20
1.145000
  0
SEQEND
  8
gg1
  0
POLYLINE
  8
gg1
 62
1
 40
0.000000
 41
0.000000
 66
  1
  0
VERTEX
  8
gg1
 10
0.127000
 20
-1.971300
  0
VERTEX
  8
gg1
 10
0.148600
 20
-1.971300
  0
SEQEND
  8
gg1
  0
POLYLINE
  8
gg1
 62
1
 40
0.000000
 41
0.000000
 66
  1
  0
VERTEX
  8
gg1
 10
0.137800
 20
-1.982100
  0
VERTEX
  8
gg1
 10
0.137800
 20
-1.960500
  0
SEQEND
  8
gg1
  0
POLYLINE
  8
gg1
 62
1
 40
0.000000
 41
0.000000
 66
  1
  0
VERTEX
  8
gg1
 10
-0.109300
 20
-1.865000
  0
VERTEX
  8
gg1
 10
-0.087600
 20
-1.865000
  0
SEQEND
  8
gg1
  0
POLYLINE
  8
gg1
 62
1
 40
0.000000
 41
0.000000
 66
  1
  0
VERTEX
  8
gg1
 10
-0.098400
 20
-1.875800
  0
VERTEX
  8
gg1
 10
-0.098400
 20
-1.854200
  0
SEQEND
  8
gg1
  0
POLYLINE
  8
gg1
 62
1
 40
0.000000
 41
0.000000
 66
  1
  0
VERTEX
  8
gg1
 10
-0.148600
 20
-1.971300
  0
VERTEX
  8
gg1
 10
-0.127000
 20
-1.971300
  0
SEQEND
  8
gg1
  0
POLYLINE
  8
gg1
 62
1
 40
0.000000
 41
0.000000
 66
  1
  0
VERTEX
  8
gg1
 10
-0.137800
 20
-1.982100
  0
VERTEX
  8
gg1
 10
-0.137800
 20
-1.960500
  0
SEQEND
  8
gg1
  0
POLYLINE
  8
gg1
 62
1
 40
0.000000
 41
0.000000
 66
  1
  0
VERTEX
  8
gg1
 10
0.087600
 20
-1.865000
  0
VERTEX
  8
gg1
 10
0.109300
 20
-1.865000
  0
SEQEND
  8
gg1
  0
POLYLINE
  8
gg1
 62
1
 40
0.000000
 41
0.000000
 66
  1
  0
VERTEX
  8
gg1
 10
0.098400
 20
-1.875800
  0
VERTEX
  8
gg1
 10
0.098400
 20
-1.854200
  0
SEQEND
  8
gg1
  0
POLYLINE
  8
gg1
 62
1
 40
0.000000
 41
0.000000
 66
  1
  0
VERTEX
  8
gg1
 10
-0.670000
 20
-1.475000
  0
VERTEX
  8
gg1
 10
-0.630000
 20
-1.475000
  0
SEQEND
  8
gg1
  0
POLYLINE
  8
gg1
 62
1
 40
0.000000
 41
0.000000
 66
  1
  0
VERTEX
  8
gg1
 10
-0.650000
 20
-1.495000
  0
VERTEX
  8
gg1
 10
-0.650000
 20
-1.455000
  0
SEQEND
  8
gg1
  0
POLYLINE
  8
gg1
 62
1
 40
0.000000
 41
0.000000
 66
  1
  0
VERTEX
  8
gg1
 10
-0.570000
 20
-1.475000
  0
VERTEX
  8
gg1
 10
-0.530000
 20
-1.475000
  0
SEQEND
  8
gg1
  0
POLYLINE
  8
gg1
 62
1
 40
0.000000
 41
0.000000
 66
  1
  0
VERTEX
  8
gg1
 10
-0.550000
 20
-1.495000
  0
VERTEX
  8
gg1
 10
-0.550000
 20
-1.455000
  0
SEQEND
  8
gg1
  0
POLYLINE
  8
gg1
 62
1
 40
0.000000
 41
0.000000
 66
  1
  0
VERTEX
  8
gg1
 10
-0.470000
 20
-1.475000
  0
VERTEX
  8
gg1
 10
-0.430000
 20
-1.475000
  0
SEQEND
  8
gg1
  0
POLYLINE
  8
gg1
 62
1
 40
0.000000
 41
0.000000
 66
  1
  0
VERTEX
  8
gg1
 10
-0.450000
 20
-1.495000
  0
VERTEX
  8
gg1
 10
-0.450000
 20
-1.455000
  0
SEQEND
  8
gg1
  0
POLYLINE
  8
gg1
 62
1
 40
0.000000
 41
0.000000
 66
  1
  0
VERTEX
  8
gg1
 10
-0.370000
 20
-1.475000
  0
VERTEX
  8
gg1
 10
-0.330000
 20
-1.475000
  0
SEQEND
  8
gg1
  0
POLYLINE
  8
gg1
 62
1
 40
0.000000
 41
0.000000
 66
  1
  0
VERTEX
  8
gg1
 10
-0.350000
 20
-1.495000
  0
VERTEX
  8
gg1
 10
-0.350000
 20
-1.455000
  0
SEQEND
  8
gg1
  0
POLYLINE
  8
gg1
 62
1
 40
0.000000
 41
0.000000
 66
  1
  0
VERTEX
  8
gg1
 10
-0.970000
 20
-1.975000
  0
VERTEX
  8
gg1
 10
-0.930000
 20
-1.975000
  0
SEQEND
  8
gg1
  0
POLYLINE
  8
gg1
 62
1
 40
0.000000
 41
0.000000
 66
  1
  0
VERTEX
  8
gg1
 10
-0.950000
 20
-1.995000
  0
VERTEX
  8
gg1
 10
-0.950000
 20
-1.955000
  0
SEQEND
  8
gg1
  0
POLYLINE
  8
gg1
 62
1
 40
0.000000
 41
0.000000
 66
  1
  0
VERTEX
  8
gg1
 10
-1.370000
 20
-1.975000
  0
VERTEX
  8
gg1
 10
-1.330000
 20
-1.975000
  0
SEQEND
  8
gg1
  0
POLYLINE
  8
gg1
 62
1
 40
0.000000
 41
0.000000
 66
  1
  0
VERTEX
  8
gg1
 10
-1.350000
 20
-1.995000
  0
VERTEX
  8
gg1
 10
-1.350000
 20
-1.955000
  0
SEQEND
  8
gg1
  0
POLYLINE
  8
gg1
 62
1
 40
0.000000
 41
0.000000
 66
  1
  0
VERTEX
  8
gg1
 10
-0.870000
 20
-1.975000
  0
VERTEX
  8
gg1
 10
-0.830000
 20
-1.975000
  0
SEQEND
  8
gg1
  0
POLYLINE
  8
gg1
 62
1
 40
0.000000
 41
0.000000
 66
  1
  0
VERTEX
  8
gg1
 10
-0.850000
 20
-1.995000
  0
VERTEX
  8
gg1
 10
-0.850000
 20
-1.955000
  0
SEQEND
  8
gg1
  0
POLYLINE
  8
gg1
 62
1
 40
0.000000
 41
0.000000
 66
  1
  0
VERTEX
  8
gg1
 10
-1.270000
 20
-1.975000
  0
VERTEX
  8
gg1
 10
-1.230000
 20
-1.975000
  0
SEQEND
  8
gg1
  0
POLYLINE
  8
gg1
 62
1
 40
0.000000
 41
0.000000
 66
  1
  0
VERTEX
  8
gg1
 10
-1.250000
 20
-1.995000
  0
VERTEX
  8
gg1
 10
-1.250000
 20
-1.955000
  0
SEQEND
  8
gg1
  0
POLYLINE
  8
gg1
 62
1
 40
0.000000
 41
0.000000
 66
  1
  0
VERTEX
  8
gg1
 10
-1.170000
 20
-1.975000
  0
VERTEX
  8
gg1
 10
-1.130000
 20
-1.975000
  0
SEQEND
  8
gg1
  0
POLYLINE
  8
gg1
 62
1
 40
0.000000
 41
0.000000
 66
  1
  0
VERTEX
  8
gg1
 10
-1.150000
 20
-1.995000
  0
VERTEX
  8
gg1
 10
-1.150000
 20
-1.955000
  0
SEQEND
  8
gg1
  0
POLYLINE
  8
gg1
 62
1
 40
0.000000
 41
0.000000
 66
  1
  0
VERTEX
  8
gg1
 10
-1.070000
 20
-1.975000
  0
VERTEX
  8
gg1
 10
-1.030000
 20
-1.975000
  0
SEQEND
  8
gg1
  0
POLYLINE
  8
gg1
 62
1
 40
0.000000
 41
0.000000
 66
  1
  0
VERTEX
  8
gg1
 10
-1.050000
 20
-1.995000
  0
VERTEX
  8
gg1
 10
-1.050000
 20
-1.955000
  0
SEQEND
  8
gg1
  0
POLYLINE
  8
gg1
 62
1
 40
0.000000
 41
0.000000
 66
  1
  0
VERTEX
  8
gg1
 10
-1.570000
 20
-1.375000
  0
VERTEX
  8
gg1
 10
-1.530000
 20
-1.375000
  0
SEQEND
  8
gg1
  0
POLYLINE
  8
gg1
 62
1
 40
0.000000
 41
0.000000
 66
  1
  0
VERTEX
  8
gg1
 10
-1.550000
 20
-1.395000
  0
VERTEX
  8
gg1
 10
-1.550000
 20
-1.355000
  0
SEQEND
  8
gg1
  0
POLYLINE
  8
gg1
 62
1
 40
0.000000
 41
0.000000
 66
  1
  0
VERTEX
  8
gg1
 10
-1.470000
 20
-1.375000
  0
VERTEX
  8
gg1
 10
-1.430000
 20
-1.375000
  0
SEQEND
  8
gg1
  0
POLYLINE
  8
gg1
 62
1
 40
0.000000
 41
0.000000
 66
  1
  0
VERTEX
  8
gg1
 10
-1.450000
 20
-1.395000
  0
VERTEX
  8
gg1
 10
-1.450000
 20
-1.355000
  0
SEQEND
  8
gg1
  0
POLYLINE
  8
gg1
 62
1
 40
0.000000
 41
0.000000
 66
  1
  0
VERTEX
  8
gg1
 10
-1.370000
 20
-1.375000
  0
VERTEX
  8
gg1
 10
-1.330000
 20
-1.375000
  0
SEQEND
  8
gg1
  0
POLYLINE
  8
gg1
 62
1
 40
0.000000
 41
0.000000
 66
  1
  0
VERTEX
  8
gg1
 10
-1.350000
 20
-1.395000
  0
VERTEX
  8
gg1
 10
-1.350000
 20
-1.355000
  0
SEQEND
  8
gg1
  0
POLYLINE
  8
gg1
 62
1
 40
0.000000
 41
0.000000
 66
  1
  0
VERTEX
  8
gg1
 10
-1.270000
 20
-1.375000
  0
VERTEX
  8
gg1
 10
-1.230000
 20
-1.375000
  0
SEQEND
  8
gg1
  0
POLYLINE
  8
gg1
 62
1
 40
0.000000
 41
0.000000
 66
  1
  0
VERTEX
  8
gg1
 10
-1.250000
 20
-1.395000
  0
VERTEX
  8
gg1
 10
-1.250000
 20
-1.355000
  0
SEQEND
  8
gg1
  0
POLYLINE
  8
gg1
 62
1
 40
0.000000
 41
0.000000
 66
  1
  0
VERTEX
  8
gg1
 10
-1.170000
 20
-1.375000
  0
VERTEX
  8
gg1
 10
-1.130000
 20
-1.375000
  0
SEQEND
  8
gg1
  0
POLYLINE
  8
gg1
 62
1
 40
0.000000
 41
0.000000
 66
  1
  0
VERTEX
  8
gg1
 10
-1.150000
 20
-1.395000
  0
VERTEX
  8
gg1
 10
-1.150000
 20
-1.355000
  0
SEQEND
  8
gg1
  0
POLYLINE
  8
gg1
 62
1
 40
0.000000
 41
0.000000
 66
  1
  0
VERTEX
  8
gg1
 10
-1.570000
 20
-1.475000
  0
VERTEX
  8
gg1
 10
-1.530000
 20
-1.475000
  0
SEQEND
  8
gg1
  0
POLYLINE
  8
gg1
 62
1
 40
0.000000
 41
0.000000
 66
  1
  0
VERTEX
  8
gg1
 10
-1.550000
 20
-1.495000
  0
VERTEX
  8
gg1
 10
-1.550000
 20
-1.455000
  0
SEQEND
  8
gg1
  0
POLYLINE
  8
gg1
 62
1
 40
0.000000
 41
0.000000
 66
  1
  0
VERTEX
  8
gg1
 10
-1.470000
 20
-1.475000
  0
VERTEX
  8
gg1
 10
-1.430000
 20
-1.475000
  0
SEQEND
  8
gg1
  0
POLYLINE
  8
gg1
 62
1
 40
0.000000
 41
0.000000
 66
  1
  0
VERTEX
  8
gg1
 10
-1.450000
 20
-1.495000
  0
VERTEX
  8
gg1
 10
-1.450000
 20
-1.455000
  0
SEQEND
  8
gg1
  0
POLYLINE
  8
gg1
 62
1
 40
0.000000
 41
0.000000
 66
  1
  0
VERTEX
  8
gg1
 10
-1.370000
 20
-1.475000
  0
VERTEX
  8
gg1
 10
-1.330000
 20
-1.475000
  0
SEQEND
  8
gg1
  0
POLYLINE
  8
gg1
 62
1
 40
0.000000
 41
0.000000
 66
  1
  0
VERTEX
  8
gg1
 10
-1.350000
 20
-1.495000
  0
VERTEX
  8
gg1
 10
-1.350000
 20
-1.455000
  0
SEQEND
  8
gg1
  0
POLYLINE
  8
gg1
 62
1
 40
0.000000
 41
0.000000
 66
  1
  0
VERTEX
  8
gg1
 10
-1.270000
 20
-1.475000
  0
VERTEX
  8
gg1
 10
-1.230000
 20
-1.475000
  0
SEQEND
  8
gg1
  0
POLYLINE
  8
gg1
 62
1
 40
0.000000
 41
0.000000
 66
  1
  0
VERTEX
  8
gg1
 10
-1.250000
 20
-1.495000
  0
VERTEX
  8
gg1
 10
-1.250000
 20
-1.455000
  0
SEQEND
  8
gg1
  0
POLYLINE
  8
gg1
 62
1
 40
0.000000
 41
0.000000
 66
  1
  0
VERTEX
  8
gg1
 10
-1.170000
 20
-1.475000
  0
VERTEX
  8
gg1
 10
-1.130000
 20
-1.475000
  0
SEQEND
  8
gg1
  0
POLYLINE
  8
gg1
 62
1
 40
0.000000
 41
0.000000
 66
  1
  0
VERTEX
  8
gg1
 10
-1.150000
 20
-1.495000
  0
VERTEX
  8
gg1
 10
-1.150000
 20
-1.455000
  0
SEQEND
  8
gg1
  0
POLYLINE
  8
gg1
 62
1
 40
0.000000
 41
0.000000
 66
  1
  0
VERTEX
  8
gg1
 10
-0.370000
 20
-1.375000
  0
VERTEX
  8
gg1
 10
-0.330000
 20
-1.375000
  0
SEQEND
  8
gg1
  0
POLYLINE
  8
gg1
 62
1
 40
0.000000
 41
0.000000
 66
  1
  0
VERTEX
  8
gg1
 10
-0.350000
 20
-1.395000
  0
VERTEX
  8
gg1
 10
-0.350000
 20
-1.355000
  0
SEQEND
  8
gg1
  0
POLYLINE
  8
gg1
 62
1
 40
0.000000
 41
0.000000
 66
  1
  0
VERTEX
  8
gg1
 10
-0.470000
 20
-1.375000
  0
VERTEX
  8
gg1
 10
-0.430000
 20
-1.375000
  0
SEQEND
  8
gg1
  0
POLYLINE
  8
gg1
 62
1
 40
0.000000
 41
0.000000
 66
  1
  0
VERTEX
  8
gg1
 10
-0.450000
 20
-1.395000
  0
VERTEX
  8
gg1
 10
-0.450000
 20
-1.355000
  0
SEQEND
  8
gg1
  0
POLYLINE
  8
gg1
 62
1
 40
0.000000
 41
0.000000
 66
  1
  0
VERTEX
  8
gg1
 10
-0.570000
 20
-1.375000
  0
VERTEX
  8
gg1
 10
-0.530000
 20
-1.375000
  0
SEQEND
  8
gg1
  0
POLYLINE
  8
gg1
 62
1
 40
0.000000
 41
0.000000
 66
  1
  0
VERTEX
  8
gg1
 10
-0.550000
 20
-1.395000
  0
VERTEX
  8
gg1
 10
-0.550000
 20
-1.355000
  0
SEQEND
  8
gg1
  0
POLYLINE
  8
gg1
 62
1
 40
0.000000
 41
0.000000
 66
  1
  0
VERTEX
  8
gg1
 10
-0.670000
 20
-1.375000
  0
VERTEX
  8
gg1
 10
-0.630000
 20
-1.375000
  0
SEQEND
  8
gg1
  0
POLYLINE
  8
gg1
 62
1
 40
0.000000
 41
0.000000
 66
  1
  0
VERTEX
  8
gg1
 10
-0.650000
 20
-1.395000
  0
VERTEX
  8
gg1
 10
-0.650000
 20
-1.355000
  0
SEQEND
  8
gg1
  0
POLYLINE
  8
gg1
 62
1
 40
0.000000
 41
0.000000
 66
  1
  0
VERTEX
  8
gg1
 10
-0.770000
 20
-1.375000
  0
VERTEX
  8
gg1
 10
-0.730000
 20
-1.375000
  0
SEQEND
  8
gg1
  0
POLYLINE
  8
gg1
 62
1
 40
0.000000
 41
0.000000
 66
  1
  0
VERTEX
  8
gg1
 10
-0.750000
 20
-1.395000
  0
VERTEX
  8
gg1
 10
-0.750000
 20
-1.355000
  0
SEQEND
  8
gg1
  0
POLYLINE
  8
gg1
 62
1
 40
0.000000
 41
0.000000
 66
  1
  0
VERTEX
  8
gg1
 10
1.430000
 20
1.125000
  0
VERTEX
  8
gg1
 10
1.470000
 20
1.125000
  0
SEQEND
  8
gg1
  0
POLYLINE
  8
gg1
 62
1
 40
0.000000
 41
0.000000
 66
  1
  0
VERTEX
  8
gg1
 10
1.450000
 20
1.105000
  0
VERTEX
  8
gg1
 10
1.450000
 20
1.145000
  0
SEQEND
  8
gg1
  0
POLYLINE
  8
gg1
 62
1
 40
0.000000
 41
0.000000
 66
  1
  0
VERTEX
  8
gg1
 10
1.530000
 20
1.225000
  0
VERTEX
  8
gg1
 10
1.570000
 20
1.225000
  0
SEQEND
  8
gg1
  0
POLYLINE
  8
gg1
 62
1
 40
0.000000
 41
0.000000
 66
  1
  0
VERTEX
  8
gg1
 10
1.550000
 20
1.205000
  0
VERTEX
  8
gg1
 10
1.550000
 20
1.245000
  0
SEQEND
  8
gg1
  0
POLYLINE
  8
gg1
 62
1
 40
0.000000
 41
0.000000
 66
  1
  0
VERTEX
  8
gg1
 10
1.330000
 20
1.225000
  0
VERTEX
  8
gg1
 10
1.370000
 20
1.225000
  0
SEQEND
  8
gg1
  0
POLYLINE
  8
gg1
 62
1
 40
0.000000
 41
0.000000
 66
  1
  0
VERTEX
  8
gg1
 10
1.350000
 20
1.205000
  0
VERTEX
  8
gg1
 10
1.350000
 20
1.245000
  0
SEQEND
  8
gg1
  0
POLYLINE
  8
gg1
 62
1
 40
0.000000
 41
0.000000
 66
  1
  0
VERTEX
  8
gg1
 10
1.430000
 20
1.225000
  0
VERTEX
  8
gg1
 10
1.470000
 20
1.225000
  0
SEQEND
  8
gg1
  0
POLYLINE
  8
gg1
 62
1
 40
0.000000
 41
0.000000
 66
  1
  0
VERTEX
  8
gg1
 10
1.450000
 20
1.205000
  0
VERTEX
  8
gg1
 10
1.450000
 20
1.245000
  0
SEQEND
  8
gg1
  0
POLYLINE
  8
gg1
 62
1
 40
0.000000
 41
0.000000
 66
  1
  0
VERTEX
  8
gg1
 10
1.530000
 20
1.125000
  0
VERTEX
  8
gg1
 10
1.570000
 20
1.125000
  0
SEQEND
  8
gg1
  0
POLYLINE
  8
gg1
 62
1
 40
0.000000
 41
0.000000
 66
  1
  0
VERTEX
  8
gg1
 10
1.550000
 20
1.105000
  0
VERTEX
  8
gg1
 10
1.550000
 20
1.145000
  0
SEQEND
  8
gg1
  0
POLYLINE
  8
gg1
 62
1
 40
0.000000
 41
0.000000
 66
  1
  0
VERTEX
  8
gg1
 10
1.630000
 20
1.125000
  0
VERTEX
  8
gg1
 10
1.670000
 20
1.125000
  0
SEQEND
  8
gg1
  0
POLYLINE
  8
gg1
 62
1
 40
0.000000
 41
0.000000
 66
  1
  0
VERTEX
  8
gg1
 10
1.650000
 20
1.105000
  0
VERTEX
  8
gg1
 10
1.650000
 20
1.145000
  0
SEQEND
  8
gg1
  0
POLYLINE
  8
gg1
 62
1
 40
0.000000
 41
0.000000
 66
  1
  0
VERTEX
  8
gg1
 10
1.230000
 20
1.125000
  0
VERTEX
  8
gg1
 10
1.270000
 20
1.125000
  0
SEQEND
  8
gg1
  0
POLYLINE
  8
gg1
 62
1
 40
0.000000
 41
0.000000
 66
  1
  0
VERTEX
  8
gg1
 10
1.250000
 20
1.105000
  0
VERTEX
  8
gg1
 10
1.250000
 20
1.145000
  0
SEQEND
  8
gg1
  0
POLYLINE
  8
gg1
 62
1
 40
0.000000
 41
0.000000
 66
  1
  0
VERTEX
  8
gg1
 10
1.730000
 20
1.225000
  0
VERTEX
  8
gg1
 10
1.770000
 20
1.225000
  0
SEQEND
  8
gg1
  0
POLYLINE
  8
gg1
 62
1
 40
0.000000
 41
0.000000
 66
  1
  0
VERTEX
  8
gg1
 10
1.750000
 20
1.205000
  0
VERTEX
  8
gg1
 10
1.750000
 20
1.245000
  0
SEQEND
  8
gg1
  0
POLYLINE
  8
gg1
 62
1
 40
0.000000
 41
0.000000
 66
  1
  0
VERTEX
  8
gg1
 10
1.330000
 20
1.125000
  0
VERTEX
  8
gg1
 10
1.370000
 20
1.125000
  0
SEQEND
  8
gg1
  0
POLYLINE
  8
gg1
 62
1
 40
0.000000
 41
0.000000
 66
  1
  0
VERTEX
  8
gg1
 10
1.350000
 20
1.105000
  0
VERTEX
  8
gg1
 10
1.350000
 20
1.145000
  0
SEQEND
  8
gg1
  0
POLYLINE
  8
gg1
 62
1
 40
0.000000
 41
0.000000
 66
  1
  0
VERTEX
  8
gg1
 10
1.630000
 20
1.225000
  0
VERTEX
  8
gg1
 10
1.670000
 20
1.225000
  0
SEQEND
  8
gg1
  0
POLYLINE
  8
gg1
 62
1
 40
0.000000
 41
0.000000
 66
  1
  0
VERTEX
  8
gg1
 10
1.650000
 20
1.205000
  0
VERTEX
  8
gg1
 10
1.650000
 20
1.245000
  0
SEQEND
  8
gg1
  0
POLYLINE
  8
gg1
 62
1
 40
0.000000
 41
0.000000
 66
  1
  0
VERTEX
  8
gg1
 10
1.730000
 20
1.125000
  0
VERTEX
  8
gg1
 10
1.770000
 20
1.125000
  0
SEQEND
  8
gg1
  0
POLYLINE
  8
gg1
 62
1
 40
0.000000
 41
0.000000
 66
  1
  0
VERTEX
  8
gg1
 10
1.750000
 20
1.105000
  0
VERTEX
  8
gg1
 10
1.750000
 20
1.145000
  0
SEQEND
  8
gg1
  0
POLYLINE
  8
gg1
 62
1
 40
0.000000
 41
0.000000
 66
  1
  0
VERTEX
  8
gg1
 10
-1.778700
 20
-1.950000
  0
VERTEX
  8
gg1
 10
-1.743200
 20
-1.950000
  0
SEQEND
  8
gg1
  0
POLYLINE
  8
gg1
 62
1
 40
0.000000
 41
0.000000
 66
  1
  0
VERTEX
  8
gg1
 10
-1.760900
 20
-1.967700
  0
VERTEX
  8
gg1
 10
-1.760900
 20
-1.932300
  0
SEQEND
  8
gg1
  0
POLYLINE
  8
gg1
 62
1
 40
0.000000
 41
0.000000
 66
  1
  0
VERTEX
  8
gg1
 10
-1.896800
 20
-1.950000
  0
VERTEX
  8
gg1
 10
-1.861300
 20
-1.950000
  0
SEQEND
  8
gg1
  0
POLYLINE
  8
gg1
 62
1
 40
0.000000
 41
0.000000
 66
  1
  0
VERTEX
  8
gg1
 10
-1.879100
 20
-1.967700
  0
VERTEX
  8
gg1
 10
-1.879100
 20
-1.932300
  0
SEQEND
  8
gg1
  0
POLYLINE
  8
gg1
 62
1
 40
0.000000
 41
0.000000
 66
  1
  0
VERTEX
  8
gg1
 10
0.896700
 20
-1.940000
  0
VERTEX
  8
gg1
 10
0.924200
 20
-1.940000
  0
SEQEND
  8
gg1
  0
POLYLINE
  8
gg1
 62
1
 40
0.000000
 41
0.000000
 66
  1
  0
VERTEX
  8
gg1
 10
0.910400
 20
-1.953800
  0
VERTEX
  8
gg1
 10
0.910400
 20
-1.926200
  0
SEQEND
  8
gg1
  0
POLYLINE
  8
gg1
 62
1
 40
0.000000
 41
0.000000
 66
  1
  0
VERTEX
  8
gg1
 10
0.825800
 20
-1.940000
  0
VERTEX
  8
gg1
 10
0.853300
 20
-1.940000
  0
SEQEND
  8
gg1
  0
POLYLINE
  8
gg1
 62
1
 40
0.000000
 41
0.000000
 66
  1
  0
VERTEX
  8
gg1
 10
0.839600
 20
-1.953800
  0
VERTEX
  8
gg1
 10
0.839600
 20
-1.926200
  0
SEQEND
  8
gg1
  0
POLYLINE
  8
gg1
 62
1
 40
0.000000
 41
0.000000
 66
  1
  0
VERTEX
  8
gg1
 10
0.861200
 20
-1.975400
  0
VERTEX
  8
gg1
 10
0.888800
 20
-1.975400
  0
SEQEND
  8
gg1
  0
POLYLINE
  8
gg1
 62
1
 40
0.000000
 41
0.000000
 66
  1
  0
VERTEX
  8
gg1
 10
0.875000
 20
-1.989200
  0
VERTEX
  8
gg1
 10
0.875000
 20
-1.961700
  0
SEQEND
  8
gg1
  0
POLYLINE
  8
gg1
 62
1
 40
0.000000
 41
0.000000
 66
  1
  0
VERTEX
  8
gg1
 10
0.861200
 20
-1.904600
  0
VERTEX
  8
gg1
 10
0.888800
 20
-1.904600
  0
SEQEND
  8
gg1
  0
POLYLINE
  8
gg1
 62
1
 40
0.000000
 41
0.000000
 66
  1
  0
VERTEX
  8
gg1
 10
0.875000
 20
-1.918300
  0
VERTEX
  8
gg1
 10
0.875000
 20
-1.890800
  0
SEQEND
  8
gg1
  0
POLYLINE
  8
gg1
 62
1
 40
0.000000
 41
0.000000
 66
  1
  0
VERTEX
  8
gg1
 10
-0.574200
 20
-1.940000
  0
VERTEX
  8
gg1
 10
-0.546700
 20
-1.940000
  0
SEQEND
  8
gg1
  0
POLYLINE
  8
gg1
 62
1
 40
0.000000
 41
0.000000
 66
  1
  0
VERTEX
  8
gg1
 10
-0.560400
 20
-1.953800
  0
VERTEX
  8
gg1
 10
-0.560400
 20
-1.926200
  0
SEQEND
  8
gg1
  0
POLYLINE
  8
gg1
 62
1
 40
0.000000
 41
0.000000
 66
  1
  0
VERTEX
  8
gg1
 10
-0.503300
 20
-1.940000
  0
VERTEX
  8
gg1
 10
-0.475800
 20
-1.940000
  0
SEQEND
  8
gg1
  0
POLYLINE
  8
gg1
 62
1
 40
0.000000
 41
0.000000
 66
  1
  0
VERTEX
  8
gg1
 10
-0.489600
 20
-1.953800
  0
VERTEX
  8
gg1
 10
-0.489600
 20
-1.926200
  0
SEQEND
  8
gg1
  0
POLYLINE
  8
gg1
 62
1
 40
0.000000
 41
0.000000
 66
  1
  0
VERTEX
  8
gg1
 10
-0.538800
 20
-1.904600
  0
VERTEX
  8
gg1
 10
-0.511200
 20
-1.904600
  0
SEQEND
  8
gg1
  0
POLYLINE
  8
gg1
 62
1
 40
0.000000
 41
0.000000
 66
  1
  0
VERTEX
  8
gg1
 10
-0.525000
 20
-1.918300
  0
VERTEX
  8
gg1
 10
-0.525000
 20
-1.890800
  0
SEQEND
  8
gg1
  0
POLYLINE
  8
gg1
 62
1
 40
0.000000
 41
0.000000
 66
  1
  0
VERTEX
  8
gg1
 10
-0.538800
 20
-1.975400
  0
VERTEX
  8
gg1
 10
-0.511200
 20
-1.975400
  0
SEQEND
  8
gg1
  0
POLYLINE
  8
gg1
 62
1
 40
0.000000
 41
0.000000
 66
  1
  0
VERTEX
  8
gg1
 10
-0.525000
 20
-1.989200
  0
VERTEX
  8
gg1
 10
-0.525000
 20
-1.961700
  0
SEQEND
  8
gg1
  0
POLYLINE
  8
gg1
 62
1
 40
0.000000
 41
0.000000
 66
  1
  0
VERTEX
  8
gg1
 10
0.425800
 20
-1.940000
  0
VERTEX
  8
gg1
 10
0.453300
 20
-1.940000
  0
SEQEND
  8
gg1
  0
POLYLINE
  8
gg1
 62
1
 40
0.000000
 41
0.000000
 66
  1
  0
VERTEX
  8
gg1
 10
0.439600
 20
-1.953800
  0
VERTEX
  8
gg1
 10
0.439600
 20
-1.926200
  0
SEQEND
  8
gg1
  0
POLYLINE
  8
gg1
 62
1
 40
0.000000
 41
0.000000
 66
  1
  0
VERTEX
  8
gg1
 10
0.496700
 20
-1.940000
  0
VERTEX
  8
gg1
 10
0.524200
 20
-1.940000
  0
SEQEND
  8
gg1
  0
POLYLINE
  8
gg1
 62
1
 40
0.000000
 41
0.000000
 66
  1
  0
VERTEX
  8
gg1
 10
0.510400
 20
-1.953800
  0
VERTEX
  8
gg1
 10
0.510400
 20
-1.926200
  0
SEQEND
  8
gg1
  0
POLYLINE
  8
gg1
 62
1
 40
0.000000
 41
0.000000
 66
  1
  0
VERTEX
  8
gg1
 10
0.461200
 20
-1.904600
  0
VERTEX
  8
gg1
 10
0.488800
 20
-1.904600
  0
SEQEND
  8
gg1
  0
POLYLINE
  8
gg1
 62
1
 40
0.000000
 41
0.000000
 66
  1
  0
VERTEX
  8
gg1
 10
0.475000
 20
-1.918300
  0
VERTEX
  8
gg1
 10
0.475000
 20
-1.890800
  0
SEQEND
  8
gg1
  0
POLYLINE
  8
gg1
 62
1
 40
0.000000
 41
0.000000
 66
  1
  0
VERTEX
  8
gg1
 10
0.461200
 20
-1.975400
  0
VERTEX
  8
gg1
 10
0.488800
 20
-1.975400
  0
SEQEND
  8
gg1
  0
POLYLINE
  8
gg1
 62
1
 40
0.000000
 41
0.000000
 66
  1
  0
VERTEX
  8
gg1
 10
0.475000
 20
-1.989200
  0
VERTEX
  8
gg1
 10
0.475000
 20
-1.961700
  0
SEQEND
  8
gg1
  0
POLYLINE
  8
gg1
 62
1
 40
0.000000
 41
0.000000
 66
  1
  0
VERTEX
  8
gg1
 10
0.530000
 20
-1.375000
  0
VERTEX
  8
gg1
 10
0.570000
 20
-1.375000
  0
SEQEND
  8
gg1
  0
POLYLINE
  8
gg1
 62
1
 40
0.000000
 41
0.000000
 66
  1
  0
VERTEX
  8
gg1
 10
0.550000
 20
-1.395000
  0
VERTEX
  8
gg1
 10
0.550000
 20
-1.355000
  0
SEQEND
  8
gg1
  0
POLYLINE
  8
gg1
 62
1
 40
0.000000
 41
0.000000
 66
  1
  0
VERTEX
  8
gg1
 10
0.430000
 20
-1.375000
  0
VERTEX
  8
gg1
 10
0.470000
 20
-1.375000
  0
SEQEND
  8
gg1
  0
POLYLINE
  8
gg1
 62
1
 40
0.000000
 41
0.000000
 66
  1
  0
VERTEX
  8
gg1
 10
0.450000
 20
-1.395000
  0
VERTEX
  8
gg1
 10
0.450000
 20
-1.355000
  0
SEQEND
  8
gg1
  0
POLYLINE
  8
gg1
 62
1
 40
0.000000
 41
0.000000
 66
  1
  0
VERTEX
  8
gg1
 10
0.330000
 20
-1.375000
  0
VERTEX
  8
gg1
 10
0.370000
 20
-1.375000
  0
SEQEND
  8
gg1
  0
POLYLINE
  8
gg1
 62
1
 40
0.000000
 41
0.000000
 66
  1
  0
VERTEX
  8
gg1
 10
0.350000
 20
-1.395000
  0
VERTEX
  8
gg1
 10
0.350000
 20
-1.355000
  0
SEQEND
  8
gg1
  0
POLYLINE
  8
gg1
 62
1
 40
0.000000
 41
0.000000
 66
  1
  0
VERTEX
  8
gg1
 10
0.530000
 20
-1.475000
  0
VERTEX
  8
gg1
 10
0.570000
 20
-1.475000
  0
SEQEND
  8
gg1
  0
POLYLINE
  8
gg1
 62
1
 40
0.000000
 41
0.000000
 66
  1
  0
VERTEX
  8
gg1
 10
0.550000
 20
-1.495000
  0
VERTEX
  8
gg1
 10
0.550000
 20
-1.455000
  0
SEQEND
  8
gg1
  0
POLYLINE
  8
gg1
 62
1
 40
0.000000
 41
0.000000
 66
  1
  0
VERTEX
  8
gg1
 10
0.430000
 20
-1.475000
  0
VERTEX
  8
gg1
 10
0.470000
 20
-1.475000
  0
SEQEND
  8
gg1
  0
POLYLINE
  8
gg1
 62
1
 40
0.000000
 41
0.000000
 66
  1
  0
VERTEX
  8
gg1
 10
0.450000
 20
-1.495000
  0
VERTEX
  8
gg1
 10
0.450000
 20
-1.455000
  0
SEQEND
  8
gg1
  0
POLYLINE
  8
gg1
 62
1
 40
0.000000
 41
0.000000
 66
  1
  0
VERTEX
  8
gg1
 10
0.330000
 20
-1.475000
  0
VERTEX
  8
gg1
 10
0.370000
 20
-1.475000
  0
SEQEND
  8
gg1
  0
POLYLINE
  8
gg1
 62
1
 40
0.000000
 41
0.000000
 66
  1
  0
VERTEX
  8
gg1
 10
0.350000
 20
-1.495000
  0
VERTEX
  8
gg1
 10
0.350000
 20
-1.455000
  0
SEQEND
  8
gg1
  0
POLYLINE
  8
gg1
 62
1
 40
0.000000
 41
0.000000
 66
  1
  0
VERTEX
  8
gg1
 10
-1.385000
 20
-0.410000
  0
VERTEX
  8
gg1
 10
-1.365000
 20
-0.410000
  0
SEQEND
  8
gg1
  0
POLYLINE
  8
gg1
 62
1
 40
0.000000
 41
0.000000
 66
  1
  0
VERTEX
  8
gg1
 10
-1.375000
 20
-0.420000
  0
VERTEX
  8
gg1
 10
-1.375000
 20
-0.400000
  0
SEQEND
  8
gg1
  0
POLYLINE
  8
gg1
 62
1
 40
0.000000
 41
0.000000
 66
  1
  0
VERTEX
  8
gg1
 10
-1.770000
 20
0.825000
  0
VERTEX
  8
gg1
 10
-1.730000
 20
0.825000
  0
SEQEND
  8
gg1
  0
POLYLINE
  8
gg1
 62
1
 40
0.000000
 41
0.000000
 66
  1
  0
VERTEX
  8
gg1
 10
-1.750000
 20
0.805000
  0
VERTEX
  8
gg1
 10
-1.750000
 20
0.845000
  0
SEQEND
  8
gg1
  0
POLYLINE
  8
gg1
 62
1
 40
0.000000
 41
0.000000
 66
  1
  0
VERTEX
  8
gg1
 10
-1.670000
 20
0.825000
  0
VERTEX
  8
gg1
 10
-1.630000
 20
0.825000
  0
SEQEND
  8
gg1
  0
POLYLINE
  8
gg1
 62
1
 40
0.000000
 41
0.000000
 66
  1
  0
VERTEX
  8
gg1
 10
-1.650000
 20
0.805000
  0
VERTEX
  8
gg1
 10
-1.650000
 20
0.845000
  0
SEQEND
  8
gg1
  0
POLYLINE
  8
gg1
 62
1
 40
0.000000
 41
0.000000
 66
  1
  0
VERTEX
  8
gg1
 10
-1.570000
 20
0.825000
  0
VERTEX
  8
gg1
 10
-1.530000
 20
0.825000
  0
SEQEND
  8
gg1
  0
POLYLINE
  8
gg1
 62
1
 40
0.000000
 41
0.000000
 66
  1
  0
VERTEX
  8
gg1
 10
-1.550000
 20
0.805000
  0
VERTEX
  8
gg1
 10
-1.550000
 20
0.845000
  0
SEQEND
  8
gg1
  0
POLYLINE
  8
gg1
 62
1
 40
0.000000
 41
0.000000
 66
  1
  0
VERTEX
  8
gg1
 10
-1.070000
 20
0.825000
  0
VERTEX
  8
gg1
 10
-1.030000
 20
0.825000
  0
SEQEND
  8
gg1
  0
POLYLINE
  8
gg1
 62
1
 40
0.000000
 41
0.000000
 66
  1
  0
VERTEX
  8
gg1
 10
-1.050000
 20
0.805000
  0
VERTEX
  8
gg1
 10
-1.050000
 20
0.845000
  0
SEQEND
  8
gg1
  0
POLYLINE
  8
gg1
 62
1
 40
0.000000
 41
0.000000
 66
  1
  0
VERTEX
  8
gg1
 10
-1.170000
 20
0.825000
  0
VERTEX
  8
gg1
 10
-1.130000
 20
0.825000
  0
SEQEND
  8
gg1
  0
POLYLINE
  8
gg1
 62
1
 40
0.000000
 41
0.000000
 66
  1
  0
VERTEX
  8
gg1
 10
-1.150000
 20
0.805000
  0
VERTEX
  8
gg1
 10
-1.150000
 20
0.845000
  0
SEQEND
  8
gg1
  0
POLYLINE
  8
gg1
 62
1
 40
0.000000
 41
0.000000
 66
  1
  0
VERTEX
  8
gg1
 10
-1.270000
 20
0.825000
  0
VERTEX
  8
gg1
 10
-1.230000
 20
0.825000
  0
SEQEND
  8
gg1
  0
POLYLINE
  8
gg1
 62
1
 40
0.000000
 41
0.000000
 66
  1
  0
VERTEX
  8
gg1
 10
-1.250000
 20
0.805000
  0
VERTEX
  8
gg1
 10
-1.250000
 20
0.845000
  0
SEQEND
  8
gg1
  0
POLYLINE
  8
gg1
 62
1
 40
0.000000
 41
0.000000
 66
  1
  0
VERTEX
  8
gg1
 10
-1.370000
 20
0.825000
  0
VERTEX
  8
gg1
 10
-1.330000
 20
0.825000
  0
SEQEND
  8
gg1
  0
POLYLINE
  8
gg1
 62
1
 40
0.000000
 41
0.000000
 66
  1
  0
VERTEX
  8
gg1
 10
-1.350000
 20
0.805000
  0
VERTEX
  8
gg1
 10
-1.350000
 20
0.845000
  0
SEQEND
  8
gg1
  0
POLYLINE
  8
gg1
 62
1
 40
0.000000
 41
0.000000
 66
  1
  0
VERTEX
  8
gg1
 10
-1.470000
 20
0.825000
  0
VERTEX
  8
gg1
 10
-1.430000
 20
0.825000
  0
SEQEND
  8
gg1
  0
POLYLINE
  8
gg1
 62
1
 40
0.000000
 41
0.000000
 66
  1
  0
VERTEX
  8
gg1
 10
-1.450000
 20
0.805000
  0
VERTEX
  8
gg1
 10
-1.450000
 20
0.845000
  0
SEQEND
  8
gg1
  0
POLYLINE
  8
gg1
 62
1
 40
0.000000
 41
0.000000
 66
  1
  0
VERTEX
  8
gg1
 10
-1.770000
 20
0.925000
  0
VERTEX
  8
gg1
 10
-1.730000
 20
0.925000
  0
SEQEND
  8
gg1
  0
POLYLINE
  8
gg1
 62
1
 40
0.000000
 41
0.000000
 66
  1
  0
VERTEX
  8
gg1
 10
-1.750000
 20
0.905000
  0
VERTEX
  8
gg1
 10
-1.750000
 20
0.945000
  0
SEQEND
  8
gg1
  0
POLYLINE
  8
gg1
 62
1
 40
0.000000
 41
0.000000
 66
  1
  0
VERTEX
  8
gg1
 10
-1.670000
 20
0.925000
  0
VERTEX
  8
gg1
 10
-1.630000
 20
0.925000
  0
SEQEND
  8
gg1
  0
POLYLINE
  8
gg1
 62
1
 40
0.000000
 41
0.000000
 66
  1
  0
VERTEX
  8
gg1
 10
-1.650000
 20
0.905000
  0
VERTEX
  8
gg1
 10
-1.650000
 20
0.945000
  0
SEQEND
  8
gg1
  0
POLYLINE
  8
gg1
 62
1
 40
0.000000
 41
0.000000
 66
  1
  0
VERTEX
  8
gg1
 10
-1.570000
 20
0.925000
  0
VERTEX
  8
gg1
 10
-1.530000
 20
0.925000
  0
SEQEND
  8
gg1
  0
POLYLINE
  8
gg1
 62
1
 40
0.000000
 41
0.000000
 66
  1
  0
VERTEX
  8
gg1
 10
-1.550000
 20
0.905000
  0
VERTEX
  8
gg1
 10
-1.550000
 20
0.945000
  0
SEQEND
  8
gg1
  0
POLYLINE
  8
gg1
 62
1
 40
0.000000
 41
0.000000
 66
  1
  0
VERTEX
  8
gg1
 10
-1.070000
 20
0.925000
  0
VERTEX
  8
gg1
 10
-1.030000
 20
0.925000
  0
SEQEND
  8
gg1
  0
POLYLINE
  8
gg1
 62
1
 40
0.000000
 41
0.000000
 66
  1
  0
VERTEX
  8
gg1
 10
-1.050000
 20
0.905000
  0
VERTEX
  8
gg1
 10
-1.050000
 20
0.945000
  0
SEQEND
  8
gg1
  0
POLYLINE
  8
gg1
 62
1
 40
0.000000
 41
0.000000
 66
  1
  0
VERTEX
  8
gg1
 10
-1.170000
 20
0.925000
  0
VERTEX
  8
gg1
 10
-1.130000
 20
0.925000
  0
SEQEND
  8
gg1
  0
POLYLINE
  8
gg1
 62
1
 40
0.000000
 41
0.000000
 66
  1
  0
VERTEX
  8
gg1
 10
-1.150000
 20
0.905000
  0
VERTEX
  8
gg1
 10
-1.150000
 20
0.945000
  0
SEQEND
  8
gg1
  0
POLYLINE
  8
gg1
 62
1
 40
0.000000
 41
0.000000
 66
  1
  0
VERTEX
  8
gg1
 10
-1.270000
 20
0.925000
  0
VERTEX
  8
gg1
 10
-1.230000
 20
0.925000
  0
SEQEND
  8
gg1
  0
POLYLINE
  8
gg1
 62
1
 40
0.000000
 41
0.000000
 66
  1
  0
VERTEX
  8
gg1
 10
-1.250000
 20
0.905000
  0
VERTEX
  8
gg1
 10
-1.250000
 20
0.945000
  0
SEQEND
  8
gg1
  0
POLYLINE
  8
gg1
 62
1
 40
0.000000
 41
0.000000
 66
  1
  0
VERTEX
  8
gg1
 10
-1.370000
 20
0.925000
  0
VERTEX
  8
gg1
 10
-1.330000
 20
0.925000
  0
SEQEND
  8
gg1
  0
POLYLINE
  8
gg1
 62
1
 40
0.000000
 41
0.000000
 66
  1
  0
VERTEX
  8
gg1
 10
-1.350000
 20
0.905000
  0
VERTEX
  8
gg1
 10
-1.350000
 20
0.945000
  0
SEQEND
  8
gg1
  0
POLYLINE
  8
gg1
 62
1
 40
0.000000
 41
0.000000
 66
  1
  0
VERTEX
  8
gg1
 10
-1.470000
 20
0.925000
  0
VERTEX
  8
gg1
 10
-1.430000
 20
0.925000
  0
SEQEND
  8
gg1
  0
POLYLINE
  8
gg1
 62
1
 40
0.000000
 41
0.000000
 66
  1
  0
VERTEX
  8
gg1
 10
-1.450000
 20
0.905000
  0
VERTEX
  8
gg1
 10
-1.450000
 20
0.945000
  0
SEQEND
  8
gg1
  0
POLYLINE
  8
gg1
 62
1
 40
0.000000
 41
0.000000
 66
  1
  0
VERTEX
  8
gg1
 10
-0.370000
 20
0.825000
  0
VERTEX
  8
gg1
 10
-0.330000
 20
0.825000
  0
SEQEND
  8
gg1
  0
POLYLINE
  8
gg1
 62
1
 40
0.000000
 41
0.000000
 66
  1
  0
VERTEX
  8
gg1
 10
-0.350000
 20
0.805000
  0
VERTEX
  8
gg1
 10
-0.350000
 20
0.845000
  0
SEQEND
  8
gg1
  0
POLYLINE
  8
gg1
 62
1
 40
0.000000
 41
0.000000
 66
  1
  0
VERTEX
  8
gg1
 10
-0.270000
 20
0.825000
  0
VERTEX
  8
gg1
 10
-0.230000
 20
0.825000
  0
SEQEND
  8
gg1
  0
POLYLINE
  8
gg1
 62
1
 40
0.000000
 41
0.000000
 66
  1
  0
VERTEX
  8
gg1
 10
-0.250000
 20
0.805000
  0
VERTEX
  8
gg1
 10
-0.250000
 20
0.845000
  0
SEQEND
  8
gg1
  0
POLYLINE
  8
gg1
 62
1
 40
0.000000
 41
0.000000
 66
  1
  0
VERTEX
  8
gg1
 10
-0.170000
 20
0.825000
  0
VERTEX
  8
gg1
 10
-0.130000
 20
0.825000
  0
SEQEND
  8
gg1
  0
POLYLINE
  8
gg1
 62
1
 40
0.000000
 41
0.000000
 66
  1
  0
VERTEX
  8
gg1
 10
-0.150000
 20
0.805000
  0
VERTEX
  8
gg1
 10
-0.150000
 20
0.845000
  0
SEQEND
  8
gg1
  0
POLYLINE
  8
gg1
 62
1
 40
0.000000
 41
0.000000
 66
  1
  0
VERTEX
  8
gg1
 10
-0.070000
 20
0.825000
  0
VERTEX
  8
gg1
 10
-0.030000
 20
0.825000
  0
SEQEND
  8
gg1
  0
POLYLINE
  8
gg1
 62
1
 40
0.000000
 41
0.000000
 66
  1
  0
VERTEX
  8
gg1
 10
-0.050000
 20
0.805000
  0
VERTEX
  8
gg1
 10
-0.050000
 20
0.845000
  0
SEQEND
  8
gg1
  0
POLYLINE
  8
gg1
 62
1
 40
0.000000
 41
0.000000
 66
  1
  0
VERTEX
  8
gg1
 10
0.430000
 20
0.825000
  0
VERTEX
  8
gg1
 10
0.470000
 20
0.825000
  0
SEQEND
  8
gg1
  0
POLYLINE
  8
gg1
 62
1
 40
0.000000
 41
0.000000
 66
  1
  0
VERTEX
  8
gg1
 10
0.450000
 20
0.805000
  0
VERTEX
  8
gg1
 10
0.450000
 20
0.845000
  0
SEQEND
  8
gg1
  0
POLYLINE
  8
gg1
 62
1
 40
0.000000
 41
0.000000
 66
  1
  0
VERTEX
  8
gg1
 10
0.330000
 20
0.825000
  0
VERTEX
  8
gg1
 10
0.370000
 20
0.825000
  0
SEQEND
  8
gg1
  0
POLYLINE
  8
gg1
 62
1
 40
0.000000
 41
0.000000
 66
  1
  0
VERTEX
  8
gg1
 10
0.350000
 20
0.805000
  0
VERTEX
  8
gg1
 10
0.350000
 20
0.845000
  0
SEQEND
  8
gg1
  0
POLYLINE
  8
gg1
 62
1
 40
0.000000
 41
0.000000
 66
  1
  0
VERTEX
  8
gg1
 10
0.230000
 20
0.825000
  0
VERTEX
  8
gg1
 10
0.270000
 20
0.825000
  0
SEQEND
  8
gg1
  0
POLYLINE
  8
gg1
 62
1
 40
0.000000
 41
0.000000
 66
  1
  0
VERTEX
  8
gg1
 10
0.250000
 20
0.805000
  0
VERTEX
  8
gg1
 10
0.250000
 20
0.845000
  0
SEQEND
  8
gg1
  0
POLYLINE
  8
gg1
 62
1
 40
0.000000
 41
0.000000
 66
  1
  0
VERTEX
  8
gg1
 10
0.130000
 20
0.825000
  0
VERTEX
  8
gg1
 10
0.170000
 20
0.825000
  0
SEQEND
  8
gg1
  0
POLYLINE
  8
gg1
 62
1
 40
0.000000
 41
0.000000
 66
  1
  0
VERTEX
  8
gg1
 10
0.150000
 20
0.805000
  0
VERTEX
  8
gg1
 10
0.150000
 20
0.845000
  0
SEQEND
  8
gg1
  0
POLYLINE
  8
gg1
 62
1
 40
0.000000
 41
0.000000
 66
  1
  0
VERTEX
  8
gg1
 10
0.030000
 20
0.825000
  0
VERTEX
  8
gg1
 10
0.070000
 20
0.825000
  0
SEQEND
  8
gg1
  0
POLYLINE
  8
gg1
 62
1
 40
0.000000
 41
0.000000
 66
  1
  0
VERTEX
  8
gg1
 10
0.050000
 20
0.805000
  0
VERTEX
  8
gg1
 10
0.050000
 20
0.845000
  0
SEQEND
  8
gg1
  0
POLYLINE
  8
gg1
 62
1
 40
0.000000
 41
0.000000
 66
  1
  0
VERTEX
  8
gg1
 10
-0.470000
 20
0.825000
  0
VERTEX
  8
gg1
 10
-0.430000
 20
0.825000
  0
SEQEND
  8
gg1
  0
POLYLINE
  8
gg1
 62
1
 40
0.000000
 41
0.000000
 66
  1
  0
VERTEX
  8
gg1
 10
-0.450000
 20
0.805000
  0
VERTEX
  8
gg1
 10
-0.450000
 20
0.845000
  0
SEQEND
  8
gg1
  0
POLYLINE
  8
gg1
 62
1
 40
0.000000
 41
0.000000
 66
  1
  0
VERTEX
  8
gg1
 10
-1.670000
 20
1.025000
  0
VERTEX
  8
gg1
 10
-1.630000
 20
1.025000
  0
SEQEND
  8
gg1
  0
POLYLINE
  8
gg1
 62
1
 40
0.000000
 41
0.000000
 66
  1
  0
VERTEX
  8
gg1
 10
-1.650000
 20
1.005000
  0
VERTEX
  8
gg1
 10
-1.650000
 20
1.045000
  0
SEQEND
  8
gg1
  0
POLYLINE
  8
gg1
 62
1
 40
0.000000
 41
0.000000
 66
  1
  0
VERTEX
  8
gg1
 10
-1.570000
 20
1.025000
  0
VERTEX
  8
gg1
 10
-1.530000
 20
1.025000
  0
SEQEND
  8
gg1
  0
POLYLINE
  8
gg1
 62
1
 40
0.000000
 41
0.000000
 66
  1
  0
VERTEX
  8
gg1
 10
-1.550000
 20
1.005000
  0
VERTEX
  8
gg1
 10
-1.550000
 20
1.045000
  0
SEQEND
  8
gg1
  0
POLYLINE
  8
gg1
 62
1
 40
0.000000
 41
0.000000
 66
  1
  0
VERTEX
  8
gg1
 10
-1.470000
 20
1.025000
  0
VERTEX
  8
gg1
 10
-1.430000
 20
1.025000
  0
SEQEND
  8
gg1
  0
POLYLINE
  8
gg1
 62
1
 40
0.000000
 41
0.000000
 66
  1
  0
VERTEX
  8
gg1
 10
-1.450000
 20
1.005000
  0
VERTEX
  8
gg1
 10
-1.450000
 20
1.045000
  0
SEQEND
  8
gg1
  0
POLYLINE
  8
gg1
 62
1
 40
0.000000
 41
0.000000
 66
  1
  0
VERTEX
  8
gg1
 10
-1.370000
 20
1.025000
  0
VERTEX
  8
gg1
 10
-1.330000
 20
1.025000
  0
SEQEND
  8
gg1
  0
POLYLINE
  8
gg1
 62
1
 40
0.000000
 41
0.000000
 66
  1
  0
VERTEX
  8
gg1
 10
-1.350000
 20
1.005000
  0
VERTEX
  8
gg1
 10
-1.350000
 20
1.045000
  0
SEQEND
  8
gg1
  0
POLYLINE
  8
gg1
 62
1
 40
0.000000
 41
0.000000
 66
  1
  0
VERTEX
  8
gg1
 10
-1.270000
 20
1.025000
  0
VERTEX
  8
gg1
 10
-1.230000
 20
1.025000
  0
SEQEND
  8
gg1
  0
POLYLINE
  8
gg1
 62
1
 40
0.000000
 41
0.000000
 66
  1
  0
VERTEX
  8
gg1
 10
-1.250000
 20
1.005000
  0
VERTEX
  8
gg1
 10
-1.250000
 20
1.045000
  0
SEQEND
  8
gg1
  0
POLYLINE
  8
gg1
 62
1
 40
0.000000
 41
0.000000
 66
  1
  0
VERTEX
  8
gg1
 10
-1.770000
 20
1.025000
  0
VERTEX
  8
gg1
 10
-1.730000
 20
1.025000
  0
SEQEND
  8
gg1
  0
POLYLINE
  8
gg1
 62
1
 40
0.000000
 41
0.000000
 66
  1
  0
VERTEX
  8
gg1
 10
-1.750000
 20
1.005000
  0
VERTEX
  8
gg1
 10
-1.750000
 20
1.045000
  0
SEQEND
  8
gg1
  0
POLYLINE
  8
gg1
 62
1
 40
0.000000
 41
0.000000
 66
  1
  0
VERTEX
  8
gg1
 10
-0.370000
 20
0.925000
  0
VERTEX
  8
gg1
 10
-0.330000
 20
0.925000
  0
SEQEND
  8
gg1
  0
POLYLINE
  8
gg1
 62
1
 40
0.000000
 41
0.000000
 66
  1
  0
VERTEX
  8
gg1
 10
-0.350000
 20
0.905000
  0
VERTEX
  8
gg1
 10
-0.350000
 20
0.945000
  0
SEQEND
  8
gg1
  0
POLYLINE
  8
gg1
 62
1
 40
0.000000
 41
0.000000
 66
  1
  0
VERTEX
  8
gg1
 10
-0.270000
 20
0.925000
  0
VERTEX
  8
gg1
 10
-0.230000
 20
0.925000
  0
SEQEND
  8
gg1
  0
POLYLINE
  8
gg1
 62
1
 40
0.000000
 41
0.000000
 66
  1
  0
VERTEX
  8
gg1
 10
-0.250000
 20
0.905000
  0
VERTEX
  8
gg1
 10
-0.250000
 20
0.945000
  0
SEQEND
  8
gg1
  0
POLYLINE
  8
gg1
 62
1
 40
0.000000
 41
0.000000
 66
  1
  0
VERTEX
  8
gg1
 10
-0.170000
 20
0.925000
  0
VERTEX
  8
gg1
 10
-0.130000
 20
0.925000
  0
SEQEND
  8
gg1
  0
POLYLINE
  8
gg1
 62
1
 40
0.000000
 41
0.000000
 66
  1
  0
VERTEX
  8
gg1
 10
-0.150000
 20
0.905000
  0
VERTEX
  8
gg1
 10
-0.150000
 20
0.945000
  0
SEQEND
  8
gg1
  0
POLYLINE
  8
gg1
 62
1
 40
0.000000
 41
0.000000
 66
  1
  0
VERTEX
  8
gg1
 10
-0.070000
 20
0.925000
  0
VERTEX
  8
gg1
 10
-0.030000
 20
0.925000
  0
SEQEND
  8
gg1
  0
POLYLINE
  8
gg1
 62
1
 40
0.000000
 41
0.000000
 66
  1
  0
VERTEX
  8
gg1
 10
-0.050000
 20
0.905000
  0
VERTEX
  8
gg1
 10
-0.050000
 20
0.945000
  0
SEQEND
  8
gg1
  0
POLYLINE
  8
gg1
 62
1
 40
0.000000
 41
0.000000
 66
  1
  0
VERTEX
  8
gg1
 10
0.430000
 20
0.925000
  0
VERTEX
  8
gg1
 10
0.470000
 20
0.925000
  0
SEQEND
  8
gg1
  0
POLYLINE
  8
gg1
 62
1
 40
0.000000
 41
0.000000
 66
  1
  0
VERTEX
  8
gg1
 10
0.450000
 20
0.905000
  0
VERTEX
  8
gg1
 10
0.450000
 20
0.945000
  0
SEQEND
  8
gg1
  0
POLYLINE
  8
gg1
 62
1
 40
0.000000
 41
0.000000
 66
  1
  0
VERTEX
  8
gg1
 10
0.330000
 20
0.925000
  0
VERTEX
  8
gg1
 10
0.370000
 20
0.925000
  0
SEQEND
  8
gg1
  0
POLYLINE
  8
gg1
 62
1
 40
0.000000
 41
0.000000
 66
  1
  0
VERTEX
  8
gg1
 10
0.350000
 20
0.905000
  0
VERTEX
  8
gg1
 10
0.350000
 20
0.945000
  0
SEQEND
  8
gg1
  0
POLYLINE
  8
gg1
 62
1
 40
0.000000
 41
0.000000
 66
  1
  0
VERTEX
  8
gg1
 10
0.230000
 20
0.925000
  0
VERTEX
  8
gg1
 10
0.270000
 20
0.925000
  0
SEQEND
  8
gg1
  0
POLYLINE
  8
gg1
 62
1
 40
0.000000
 41
0.000000
 66
  1
  0
VERTEX
  8
gg1
 10
0.250000
 20
0.905000
  0
VERTEX
  8
gg1
 10
0.250000
 20
0.945000
  0
SEQEND
  8
gg1
  0
POLYLINE
  8
gg1
 62
1
 40
0.000000
 41
0.000000
 66
  1
  0
VERTEX
  8
gg1
 10
0.130000
 20
0.925000
  0
VERTEX
  8
gg1
 10
0.170000
 20
0.925000
  0
SEQEND
  8
gg1
  0
POLYLINE
  8
gg1
 62
1
 40
0.000000
 41
0.000000
 66
  1
  0
VERTEX
  8
gg1
 10
0.150000
 20
0.905000
  0
VERTEX
  8
gg1
 10
0.150000
 20
0.945000
  0
SEQEND
  8
gg1
  0
POLYLINE
  8
gg1
 62
1
 40
0.000000
 41
0.000000
 66
  1
  0
VERTEX
  8
gg1
 10
0.030000
 20
0.925000
  0
VERTEX
  8
gg1
 10
0.070000
 20
0.925000
  0
SEQEND
  8
gg1
  0
POLYLINE
  8
gg1
 62
1
 40
0.000000
 41
0.000000
 66
  1
  0
VERTEX
  8
gg1
 10
0.050000
 20
0.905000
  0
VERTEX
  8
gg1
 10
0.050000
 20
0.945000
  0
SEQEND
  8
gg1
  0
POLYLINE
  8
gg1
 62
1
 40
0.000000
 41
0.000000
 66
  1
  0
VERTEX
  8
gg1
 10
-0.470000
 20
0.925000
  0
VERTEX
  8
gg1
 10
-0.430000
 20
0.925000
  0
SEQEND
  8
gg1
  0
POLYLINE
  8
gg1
 62
1
 40
0.000000
 41
0.000000
 66
  1
  0
VERTEX
  8
gg1
 10
-0.450000
 20
0.905000
  0
VERTEX
  8
gg1
 10
-0.450000
 20
0.945000
  0
SEQEND
  8
gg1
  0
POLYLINE
  8
gg1
 62
1
 40
0.000000
 41
0.000000
 66
  1
  0
VERTEX
  8
gg1
 10
-0.370000
 20
1.025000
  0
VERTEX
  8
gg1
 10
-0.330000
 20
1.025000
  0
SEQEND
  8
gg1
  0
POLYLINE
  8
gg1
 62
1
 40
0.000000
 41
0.000000
 66
  1
  0
VERTEX
  8
gg1
 10
-0.350000
 20
1.005000
  0
VERTEX
  8
gg1
 10
-0.350000
 20
1.045000
  0
SEQEND
  8
gg1
  0
POLYLINE
  8
gg1
 62
1
 40
0.000000
 41
0.000000
 66
  1
  0
VERTEX
  8
gg1
 10
-0.270000
 20
1.025000
  0
VERTEX
  8
gg1
 10
-0.230000
 20
1.025000
  0
SEQEND
  8
gg1
  0
POLYLINE
  8
gg1
 62
1
 40
0.000000
 41
0.000000
 66
  1
  0
VERTEX
  8
gg1
 10
-0.250000
 20
1.005000
  0
VERTEX
  8
gg1
 10
-0.250000
 20
1.045000
  0
SEQEND
  8
gg1
  0
POLYLINE
  8
gg1
 62
1
 40
0.000000
 41
0.000000
 66
  1
  0
VERTEX
  8
gg1
 10
-0.170000
 20
1.025000
  0
VERTEX
  8
gg1
 10
-0.130000
 20
1.025000
  0
SEQEND
  8
gg1
  0
POLYLINE
  8
gg1
 62
1
 40
0.000000
 41
0.000000
 66
  1
  0
VERTEX
  8
gg1
 10
-0.150000
 20
1.005000
  0
VERTEX
  8
gg1
 10
-0.150000
 20
1.045000
  0
SEQEND
  8
gg1
  0
POLYLINE
  8
gg1
 62
1
 40
0.000000
 41
0.000000
 66
  1
  0
VERTEX
  8
gg1
 10
-0.070000
 20
1.025000
  0
VERTEX
  8
gg1
 10
-0.030000
 20
1.025000
  0
SEQEND
  8
gg1
  0
POLYLINE
  8
gg1
 62
1
 40
0.000000
 41
0.000000
 66
  1
  0
VERTEX
  8
gg1
 10
-0.050000
 20
1.005000
  0
VERTEX
  8
gg1
 10
-0.050000
 20
1.045000
  0
SEQEND
  8
gg1
  0
POLYLINE
  8
gg1
 62
1
 40
0.000000
 41
0.000000
 66
  1
  0
VERTEX
  8
gg1
 10
0.430000
 20
1.025000
  0
VERTEX
  8
gg1
 10
0.470000
 20
1.025000
  0
SEQEND
  8
gg1
  0
POLYLINE
  8
gg1
 62
1
 40
0.000000
 41
0.000000
 66
  1
  0
VERTEX
  8
gg1
 10
0.450000
 20
1.005000
  0
VERTEX
  8
gg1
 10
0.450000
 20
1.045000
  0
SEQEND
  8
gg1
  0
POLYLINE
  8
gg1
 62
1
 40
0.000000
 41
0.000000
 66
  1
  0
VERTEX
  8
gg1
 10
0.330000
 20
1.025000
  0
VERTEX
  8
gg1
 10
0.370000
 20
1.025000
  0
SEQEND
  8
gg1
  0
POLYLINE
  8
gg1
 62
1
 40
0.000000
 41
0.000000
 66
  1
  0
VERTEX
  8
gg1
 10
0.350000
 20
1.005000
  0
VERTEX
  8
gg1
 10
0.350000
 20
1.045000
  0
SEQEND
  8
gg1
  0
POLYLINE
  8
gg1
 62
1
 40
0.000000
 41
0.000000
 66
  1
  0
VERTEX
  8
gg1
 10
0.230000
 20
1.025000
  0
VERTEX
  8
gg1
 10
0.270000
 20
1.025000
  0
SEQEND
  8
gg1
  0
POLYLINE
  8
gg1
 62
1
 40
0.000000
 41
0.000000
 66
  1
  0
VERTEX
  8
gg1
 10
0.250000
 20
1.005000
  0
VERTEX
  8
gg1
 10
0.250000
 20
1.045000
  0
SEQEND
  8
gg1
  0
POLYLINE
  8
gg1
 62
1
 40
0.000000
 41
0.000000
 66
  1
  0
VERTEX
  8
gg1
 10
0.130000
 20
1.025000
  0
VERTEX
  8
gg1
 10
0.170000
 20
1.025000
  0
SEQEND
  8
gg1
  0
POLYLINE
  8
gg1
 62
1
 40
0.000000
 41
0.000000
 66
  1
  0
VERTEX
  8
gg1
 10
0.150000
 20
1.005000
  0
VERTEX
  8
gg1
 10
0.150000
 20
1.045000
  0
SEQEND
  8
gg1
  0
POLYLINE
  8
gg1
 62
1
 40
0.000000
 41
0.000000
 66
  1
  0
VERTEX
  8
gg1
 10
0.030000
 20
1.025000
  0
VERTEX
  8
gg1
 10
0.070000
 20
1.025000
  0
SEQEND
  8
gg1
  0
POLYLINE
  8
gg1
 62
1
 40
0.000000
 41
0.000000
 66
  1
  0
VERTEX
  8
gg1
 10
0.050000
 20
1.005000
  0
VERTEX
  8
gg1
 10
0.050000
 20
1.045000
  0
SEQEND
  8
gg1
  0
POLYLINE
  8
gg1
 62
1
 40
0.000000
 41
0.000000
 66
  1
  0
VERTEX
  8
gg1
 10
-0.470000
 20
1.025000
  0
VERTEX
  8
gg1
 10
-0.430000
 20
1.025000
  0
SEQEND
  8
gg1
  0
POLYLINE
  8
gg1
 62
1
 40
0.000000
 41
0.000000
 66
  1
  0
VERTEX
  8
gg1
 10
-0.450000
 20
1.005000
  0
VERTEX
  8
gg1
 10
-0.450000
 20
1.045000
  0
SEQEND
  8
gg1
  0
POLYLINE
  8
gg1
 62
1
 40
0.000000
 41
0.000000
 66
  1
  0
VERTEX
  8
gg1
 10
-1.670000
 20
1.125000
  0
VERTEX
  8
gg1
 10
-1.630000
 20
1.125000
  0
SEQEND
  8
gg1
  0
POLYLINE
  8
gg1
 62
1
 40
0.000000
 41
0.000000
 66
  1
  0
VERTEX
  8
gg1
 10
-1.650000
 20
1.105000
  0
VERTEX
  8
gg1
 10
-1.650000
 20
1.145000
  0
SEQEND
  8
gg1
  0
POLYLINE
  8
gg1
 62
1
 40
0.000000
 41
0.000000
 66
  1
  0
VERTEX
  8
gg1
 10
-1.570000
 20
1.125000
  0
VERTEX
  8
gg1
 10
-1.530000
 20
1.125000
  0
SEQEND
  8
gg1
  0
POLYLINE
  8
gg1
 62
1
 40
0.000000
 41
0.000000
 66
  1
  0
VERTEX
  8
gg1
 10
-1.550000
 20
1.105000
  0
VERTEX
  8
gg1
 10
-1.550000
 20
1.145000
  0
SEQEND
  8
gg1
  0
POLYLINE
  8
gg1
 62
1
 40
0.000000
 41
0.000000
 66
  1
  0
VERTEX
  8
gg1
 10
-1.470000
 20
1.125000
  0
VERTEX
  8
gg1
 10
-1.430000
 20
1.125000
  0
SEQEND
  8
gg1
  0
POLYLINE
  8
gg1
 62
1
 40
0.000000
 41
0.000000
 66
  1
  0
VERTEX
  8
gg1
 10
-1.450000
 20
1.105000
  0
VERTEX
  8
gg1
 10
-1.450000
 20
1.145000
  0
SEQEND
  8
gg1
  0
POLYLINE
  8
gg1
 62
1
 40
0.000000
 41
0.000000
 66
  1
  0
VERTEX
  8
gg1
 10
-1.370000
 20
1.125000
  0
VERTEX
  8
gg1
 10
-1.330000
 20
1.125000
  0
SEQEND
  8
gg1
  0
POLYLINE
  8
gg1
 62
1
 40
0.000000
 41
0.000000
 66
  1
  0
VERTEX
  8
gg1
 10
-1.350000
 20
1.105000
  0
VERTEX
  8
gg1
 10
-1.350000
 20
1.145000
  0
SEQEND
  8
gg1
  0
POLYLINE
  8
gg1
 62
1
 40
0.000000
 41
0.000000
 66
  1
  0
VERTEX
  8
gg1
 10
-1.270000
 20
1.125000
  0
VERTEX
  8
gg1
 10
-1.230000
 20
1.125000
  0
SEQEND
  8
gg1
  0
POLYLINE
  8
gg1
 62
1
 40
0.000000
 41
0.000000
 66
  1
  0
VERTEX
  8
gg1
 10
-1.250000
 20
1.105000
  0
VERTEX
  8
gg1
 10
-1.250000
 20
1.145000
  0
SEQEND
  8
gg1
  0
POLYLINE
  8
gg1
 62
1
 40
0.000000
 41
0.000000
 66
  1
  0
VERTEX
  8
gg1
 10
-1.770000
 20
1.125000
  0
VERTEX
  8
gg1
 10
-1.730000
 20
1.125000
  0
SEQEND
  8
gg1
  0
POLYLINE
  8
gg1
 62
1
 40
0.000000
 41
0.000000
 66
  1
  0
VERTEX
  8
gg1
 10
-1.750000
 20
1.105000
  0
VERTEX
  8
gg1
 10
-1.750000
 20
1.145000
  0
SEQEND
  8
gg1
  0
POLYLINE
  8
gg1
 62
1
 40
0.000000
 41
0.000000
 66
  1
  0
VERTEX
  8
gg1
 10
-1.670000
 20
1.225000
  0
VERTEX
  8
gg1
 10
-1.630000
 20
1.225000
  0
SEQEND
  8
gg1
  0
POLYLINE
  8
gg1
 62
1
 40
0.000000
 41
0.000000
 66
  1
  0
VERTEX
  8
gg1
 10
-1.650000
 20
1.205000
  0
VERTEX
  8
gg1
 10
-1.650000
 20
1.245000
  0
SEQEND
  8
gg1
  0
POLYLINE
  8
gg1
 62
1
 40
0.000000
 41
0.000000
 66
  1
  0
VERTEX
  8
gg1
 10
-1.570000
 20
1.225000
  0
VERTEX
  8
gg1
 10
-1.530000
 20
1.225000
  0
SEQEND
  8
gg1
  0
POLYLINE
  8
gg1
 62
1
 40
0.000000
 41
0.000000
 66
  1
  0
VERTEX
  8
gg1
 10
-1.550000
 20
1.205000
  0
VERTEX
  8
gg1
 10
-1.550000
 20
1.245000
  0
SEQEND
  8
gg1
  0
POLYLINE
  8
gg1
 62
1
 40
0.000000
 41
0.000000
 66
  1
  0
VERTEX
  8
gg1
 10
-1.470000
 20
1.225000
  0
VERTEX
  8
gg1
 10
-1.430000
 20
1.225000
  0
SEQEND
  8
gg1
  0
POLYLINE
  8
gg1
 62
1
 40
0.000000
 41
0.000000
 66
  1
  0
VERTEX
  8
gg1
 10
-1.450000
 20
1.205000
  0
VERTEX
  8
gg1
 10
-1.450000
 20
1.245000
  0
SEQEND
  8
gg1
  0
POLYLINE
  8
gg1
 62
1
 40
0.000000
 41
0.000000
 66
  1
  0
VERTEX
  8
gg1
 10
-1.370000
 20
1.225000
  0
VERTEX
  8
gg1
 10
-1.330000
 20
1.225000
  0
SEQEND
  8
gg1
  0
POLYLINE
  8
gg1
 62
1
 40
0.000000
 41
0.000000
 66
  1
  0
VERTEX
  8
gg1
 10
-1.350000
 20
1.205000
  0
VERTEX
  8
gg1
 10
-1.350000
 20
1.245000
  0
SEQEND
  8
gg1
  0
POLYLINE
  8
gg1
 62
1
 40
0.000000
 41
0.000000
 66
  1
  0
VERTEX
  8
gg1
 10
-1.270000
 20
1.225000
  0
VERTEX
  8
gg1
 10
-1.230000
 20
1.225000
  0
SEQEND
  8
gg1
  0
POLYLINE
  8
gg1
 62
1
 40
0.000000
 41
0.000000
 66
  1
  0
VERTEX
  8
gg1
 10
-1.250000
 20
1.205000
  0
VERTEX
  8
gg1
 10
-1.250000
 20
1.245000
  0
SEQEND
  8
gg1
  0
POLYLINE
  8
gg1
 62
1
 40
0.000000
 41
0.000000
 66
  1
  0
VERTEX
  8
gg1
 10
-1.770000
 20
1.225000
  0
VERTEX
  8
gg1
 10
-1.730000
 20
1.225000
  0
SEQEND
  8
gg1
  0
POLYLINE
  8
gg1
 62
1
 40
0.000000
 41
0.000000
 66
  1
  0
VERTEX
  8
gg1
 10
-1.750000
 20
1.205000
  0
VERTEX
  8
gg1
 10
-1.750000
 20
1.245000
  0
SEQEND
  8
gg1
  0
POLYLINE
  8
gg1
 62
1
 40
0.000000
 41
0.000000
 66
  1
  0
VERTEX
  8
gg1
 10
-0.045000
 20
-0.865000
  0
VERTEX
  8
gg1
 10
-0.025000
 20
-0.865000
  0
SEQEND
  8
gg1
  0
POLYLINE
  8
gg1
 62
1
 40
0.000000
 41
0.000000
 66
  1
  0
VERTEX
  8
gg1
 10
-0.035000
 20
-0.875000
  0
VERTEX
  8
gg1
 10
-0.035000
 20
-0.855000
  0
SEQEND
  8
gg1
  0
POLYLINE
  8
gg1
 62
1
 40
0.000000
 41
0.000000
 66
  1
  0
VERTEX
  8
gg1
 10
0.630000
 20
0.390000
  0
VERTEX
  8
gg1
 10
0.650000
 20
0.390000
  0
SEQEND
  8
gg1
  0
POLYLINE
  8
gg1
 62
1
 40
0.000000
 41
0.000000
 66
  1
  0
VERTEX
  8
gg1
 10
0.640000
 20
0.380000
  0
VERTEX
  8
gg1
 10
0.640000
 20
0.400000
  0
SEQEND
  8
gg1
  0
POLYLINE
  8
gg1
 62
1
 40
0.000000
 41
0.000000
 66
  1
  0
VERTEX
  8
gg1
 10
-2.128800
 20
-1.854600
  0
VERTEX
  8
gg1
 10
-2.101200
 20
-1.854600
  0
SEQEND
  8
gg1
  0
POLYLINE
  8
gg1
 62
1
 40
0.000000
 41
0.000000
 66
  1
  0
VERTEX
  8
gg1
 10
-2.115000
 20
-1.868300
  0
VERTEX
  8
gg1
 10
-2.115000
 20
-1.840800
  0
SEQEND
  8
gg1
  0
POLYLINE
  8
gg1
 62
1
 40
0.000000
 41
0.000000
 66
  1
  0
VERTEX
  8
gg1
 10
-2.128800
 20
-1.925400
  0
VERTEX
  8
gg1
 10
-2.101200
 20
-1.925400
  0
SEQEND
  8
gg1
  0
POLYLINE
  8
gg1
 62
1
 40
0.000000
 41
0.000000
 66
  1
  0
VERTEX
  8
gg1
 10
-2.115000
 20
-1.939200
  0
VERTEX
  8
gg1
 10
-2.115000
 20
-1.911700
  0
SEQEND
  8
gg1
  0
POLYLINE
  8
gg1
 62
1
 40
0.000000
 41
0.000000
 66
  1
  0
VERTEX
  8
gg1
 10
-2.093300
 20
-1.890000
  0
VERTEX
  8
gg1
 10
-2.065800
 20
-1.890000
  0
SEQEND
  8
gg1
  0
POLYLINE
  8
gg1
 62
1
 40
0.000000
 41
0.000000
 66
  1
  0
VERTEX
  8
gg1
 10
-2.079600
 20
-1.903800
  0
VERTEX
  8
gg1
 10
-2.079600
 20
-1.876200
  0
SEQEND
  8
gg1
  0
POLYLINE
  8
gg1
 62
1
 40
0.000000
 41
0.000000
 66
  1
  0
VERTEX
  8
gg1
 10
-2.164200
 20
-1.890000
  0
VERTEX
  8
gg1
 10
-2.136700
 20
-1.890000
  0
SEQEND
  8
gg1
  0
POLYLINE
  8
gg1
 62
1
 40
0.000000
 41
0.000000
 66
  1
  0
VERTEX
  8
gg1
 10
-2.150400
 20
-1.903800
  0
VERTEX
  8
gg1
 10
-2.150400
 20
-1.876200
  0
SEQEND
  8
gg1
  0
POLYLINE
  8
gg1
 62
1
 40
0.000000
 41
0.000000
 66
  1
  0
VERTEX
  8
gg1
 10
-0.970000
 20
0.825000
  0
VERTEX
  8
gg1
 10
-0.930000
 20
0.825000
  0
SEQEND
  8
gg1
  0
POLYLINE
  8
gg1
 62
1
 40
0.000000
 41
0.000000
 66
  1
  0
VERTEX
  8
gg1
 10
-0.950000
 20
0.805000
  0
VERTEX
  8
gg1
 10
-0.950000
 20
0.845000
  0
SEQEND
  8
gg1
  0
POLYLINE
  8
gg1
 62
1
 40
0.000000
 41
0.000000
 66
  1
  0
VERTEX
  8
gg1
 10
-0.970000
 20
0.925000
  0
VERTEX
  8
gg1
 10
-0.930000
 20
0.925000
  0
SEQEND
  8
gg1
  0
POLYLINE
  8
gg1
 62
1
 40
0.000000
 41
0.000000
 66
  1
  0
VERTEX
  8
gg1
 10
-0.950000
 20
0.905000
  0
VERTEX
  8
gg1
 10
-0.950000
 20
0.945000
  0
SEQEND
  8
gg1
  0
POLYLINE
  8
gg1
 62
1
 40
0.000000
 41
0.000000
 66
  1
  0
VERTEX
  8
gg1
 10
-0.470000
 20
1.125000
  0
VERTEX
  8
gg1
 10
-0.430000
 20
1.125000
  0
SEQEND
  8
gg1
  0
POLYLINE
  8
gg1
 62
1
 40
0.000000
 41
0.000000
 66
  1
  0
VERTEX
  8
gg1
 10
-0.450000
 20
1.105000
  0
VERTEX
  8
gg1
 10
-0.450000
 20
1.145000
  0
SEQEND
  8
gg1
  0
POLYLINE
  8
gg1
 62
1
 40
0.000000
 41
0.000000
 66
  1
  0
VERTEX
  8
gg1
 10
1.701200
 20
0.745400
  0
VERTEX
  8
gg1
 10
1.728800
 20
0.745400
  0
SEQEND
  8
gg1
  0
POLYLINE
  8
gg1
 62
1
 40
0.000000
 41
0.000000
 66
  1
  0
VERTEX
  8
gg1
 10
1.715000
 20
0.731700
  0
VERTEX
  8
gg1
 10
1.715000
 20
0.759200
  0
SEQEND
  8
gg1
  0
POLYLINE
  8
gg1
 62
1
 40
0.000000
 41
0.000000
 66
  1
  0
VERTEX
  8
gg1
 10
1.701200
 20
0.674600
  0
VERTEX
  8
gg1
 10
1.728800
 20
0.674600
  0
SEQEND
  8
gg1
  0
POLYLINE
  8
gg1
 62
1
 40
0.000000
 41
0.000000
 66
  1
  0
VERTEX
  8
gg1
 10
1.715000
 20
0.660800
  0
VERTEX
  8
gg1
 10
1.715000
 20
0.688300
  0
SEQEND
  8
gg1
  0
POLYLINE
  8
gg1
 62
1
 40
0.000000
 41
0.000000
 66
  1
  0
VERTEX
  8
gg1
 10
1.736700
 20
0.710000
  0
VERTEX
  8
gg1
 10
1.764200
 20
0.710000
  0
SEQEND
  8
gg1
  0
POLYLINE
  8
gg1
 62
1
 40
0.000000
 41
0.000000
 66
  1
  0
VERTEX
  8
gg1
 10
1.750400
 20
0.696200
  0
VERTEX
  8
gg1
 10
1.750400
 20
0.723800
  0
SEQEND
  8
gg1
  0
POLYLINE
  8
gg1
 62
1
 40
0.000000
 41
0.000000
 66
  1
  0
VERTEX
  8
gg1
 10
1.665800
 20
0.710000
  0
VERTEX
  8
gg1
 10
1.693300
 20
0.710000
  0
SEQEND
  8
gg1
  0
POLYLINE
  8
gg1
 62
1
 40
0.000000
 41
0.000000
 66
  1
  0
VERTEX
  8
gg1
 10
1.679600
 20
0.696200
  0
VERTEX
  8
gg1
 10
1.679600
 20
0.723800
  0
SEQEND
  8
gg1
  0
POLYLINE
  8
gg1
 62
1
 40
0.000000
 41
0.000000
 66
  1
  0
VERTEX
  8
gg1
 10
1.400000
 20
0.510000
  0
VERTEX
  8
gg1
 10
1.420000
 20
0.510000
  0
SEQEND
  8
gg1
  0
POLYLINE
  8
gg1
 62
1
 40
0.000000
 41
0.000000
 66
  1
  0
VERTEX
  8
gg1
 10
1.410000
 20
0.500000
  0
VERTEX
  8
gg1
 10
1.410000
 20
0.520000
  0
SEQEND
  8
gg1
  0
POLYLINE
  8
gg1
 62
1
 40
0.000000
 41
0.000000
 66
  1
  0
VERTEX
  8
gg1
 10
1.230000
 20
1.225000
  0
VERTEX
  8
gg1
 10
1.270000
 20
1.225000
  0
SEQEND
  8
gg1
  0
POLYLINE
  8
gg1
 62
1
 40
0.000000
 41
0.000000
 66
  1
  0
VERTEX
  8
gg1
 10
1.250000
 20
1.205000
  0
VERTEX
  8
gg1
 10
1.250000
 20
1.245000
  0
SEQEND
  8
gg1
  0
POLYLINE
  8
gg1
 62
1
 40
0.000000
 41
0.000000
 66
  1
  0
VERTEX
  8
gg1
 10
1.415400
 20
-0.150000
  0
VERTEX
  8
gg1
 10
1.455400
 20
-0.150000
  0
SEQEND
  8
gg1
  0
POLYLINE
  8
gg1
 62
1
 40
0.000000
 41
0.000000
 66
  1
  0
VERTEX
  8
gg1
 10
1.435400
 20
-0.170000
  0
VERTEX
  8
gg1
 10
1.435400
 20
-0.130000
  0
SEQEND
  8
gg1
  0
POLYLINE
  8
gg1
 62
1
 40
0.000000
 41
0.000000
 66
  1
  0
VERTEX
  8
gg1
 10
1.415400
 20
-0.050000
  0
VERTEX
  8
gg1
 10
1.455400
 20
-0.050000
  0
SEQEND
  8
gg1
  0
POLYLINE
  8
gg1
 62
1
 40
0.000000
 41
0.000000
 66
  1
  0
VERTEX
  8
gg1
 10
1.435400
 20
-0.070000
  0
VERTEX
  8
gg1
 10
1.435400
 20
-0.030000
  0
SEQEND
  8
gg1
  0
POLYLINE
  8
gg1
 62
1
 40
0.000000
 41
0.000000
 66
  1
  0
VERTEX
  8
gg1
 10
1.415400
 20
0.050000
  0
VERTEX
  8
gg1
 10
1.455400
 20
0.050000
  0
SEQEND
  8
gg1
  0
POLYLINE
  8
gg1
 62
1
 40
0.000000
 41
0.000000
 66
  1
  0
VERTEX
  8
gg1
 10
1.435400
 20
0.030000
  0
VERTEX
  8
gg1
 10
1.435400
 20
0.070000
  0
SEQEND
  8
gg1
  0
POLYLINE
  8
gg1
 62
1
 40
0.000000
 41
0.000000
 66
  1
  0
VERTEX
  8
gg1
 10
1.415400
 20
0.150000
  0
VERTEX
  8
gg1
 10
1.455400
 20
0.150000
  0
SEQEND
  8
gg1
  0
POLYLINE
  8
gg1
 62
1
 40
0.000000
 41
0.000000
 66
  1
  0
VERTEX
  8
gg1
 10
1.435400
 20
0.130000
  0
VERTEX
  8
gg1
 10
1.435400
 20
0.170000
  0
SEQEND
  8
gg1
  0
POLYLINE
  8
gg1
 62
1
 40
0.000000
 41
0.000000
 66
  1
  0
VERTEX
  8
gg1
 10
1.415400
 20
0.250000
  0
VERTEX
  8
gg1
 10
1.455400
 20
0.250000
  0
SEQEND
  8
gg1
  0
POLYLINE
  8
gg1
 62
1
 40
0.000000
 41
0.000000
 66
  1
  0
VERTEX
  8
gg1
 10
1.435400
 20
0.230000
  0
VERTEX
  8
gg1
 10
1.435400
 20
0.270000
  0
SEQEND
  8
gg1
  0
POLYLINE
  8
gg1
 62
1
 40
0.000000
 41
0.000000
 66
  1
  0
VERTEX
  8
gg1
 10
1.415400
 20
-0.250000
  0
VERTEX
  8
gg1
 10
1.455400
 20
-0.250000
  0
SEQEND
  8
gg1
  0
POLYLINE
  8
gg1
 62
1
 40
0.000000
 41
0.000000
 66
  1
  0
VERTEX
  8
gg1
 10
1.435400
 20
-0.270000
  0
VERTEX
  8
gg1
 10
1.435400
 20
-0.230000
  0
SEQEND
  8
gg1
  0
POLYLINE
  8
gg1
 62
1
 40
0.000000
 41
0.000000
 66
  1
  0
VERTEX
  8
gg1
 10
1.245400
 20
-0.150000
  0
VERTEX
  8
gg1
 10
1.285400
 20
-0.150000
  0
SEQEND
  8
gg1
  0
POLYLINE
  8
gg1
 62
1
 40
0.000000
 41
0.000000
 66
  1
  0
VERTEX
  8
gg1
 10
1.265400
 20
-0.170000
  0
VERTEX
  8
gg1
 10
1.265400
 20
-0.130000
  0
SEQEND
  8
gg1
  0
POLYLINE
  8
gg1
 62
1
 40
0.000000
 41
0.000000
 66
  1
  0
VERTEX
  8
gg1
 10
1.245400
 20
-0.050000
  0
VERTEX
  8
gg1
 10
1.285400
 20
-0.050000
  0
SEQEND
  8
gg1
  0
POLYLINE
  8
gg1
 62
1
 40
0.000000
 41
0.000000
 66
  1
  0
VERTEX
  8
gg1
 10
1.265400
 20
-0.070000
  0
VERTEX
  8
gg1
 10
1.265400
 20
-0.030000
  0
SEQEND
  8
gg1
  0
POLYLINE
  8
gg1
 62
1
 40
0.000000
 41
0.000000
 66
  1
  0
VERTEX
  8
gg1
 10
1.245400
 20
0.050000
  0
VERTEX
  8
gg1
 10
1.285400
 20
0.050000
  0
SEQEND
  8
gg1
  0
POLYLINE
  8
gg1
 62
1
 40
0.000000
 41
0.000000
 66
  1
  0
VERTEX
  8
gg1
 10
1.265400
 20
0.030000
  0
VERTEX
  8
gg1
 10
1.265400
 20
0.070000
  0
SEQEND
  8
gg1
  0
POLYLINE
  8
gg1
 62
1
 40
0.000000
 41
0.000000
 66
  1
  0
VERTEX
  8
gg1
 10
1.245400
 20
0.150000
  0
VERTEX
  8
gg1
 10
1.285400
 20
0.150000
  0
SEQEND
  8
gg1
  0
POLYLINE
  8
gg1
 62
1
 40
0.000000
 41
0.000000
 66
  1
  0
VERTEX
  8
gg1
 10
1.265400
 20
0.130000
  0
VERTEX
  8
gg1
 10
1.265400
 20
0.170000
  0
SEQEND
  8
gg1
  0
POLYLINE
  8
gg1
 62
1
 40
0.000000
 41
0.000000
 66
  1
  0
VERTEX
  8
gg1
 10
1.245400
 20
0.250000
  0
VERTEX
  8
gg1
 10
1.285400
 20
0.250000
  0
SEQEND
  8
gg1
  0
POLYLINE
  8
gg1
 62
1
 40
0.000000
 41
0.000000
 66
  1
  0
VERTEX
  8
gg1
 10
1.265400
 20
0.230000
  0
VERTEX
  8
gg1
 10
1.265400
 20
0.270000
  0
SEQEND
  8
gg1
  0
POLYLINE
  8
gg1
 62
1
 40
0.000000
 41
0.000000
 66
  1
  0
VERTEX
  8
gg1
 10
1.245400
 20
-0.250000
  0
VERTEX
  8
gg1
 10
1.285400
 20
-0.250000
  0
SEQEND
  8
gg1
  0
POLYLINE
  8
gg1
 62
1
 40
0.000000
 41
0.000000
 66
  1
  0
VERTEX
  8
gg1
 10
1.265400
 20
-0.270000
  0
VERTEX
  8
gg1
 10
1.265400
 20
-0.230000
  0
SEQEND
  8
gg1
  0
POLYLINE
  8
gg1
 62
1
 40
0.000000
 41
0.000000
 66
  1
  0
VERTEX
  8
gg1
 10
0.295000
 20
0.280000
  0
VERTEX
  8
gg1
 10
0.315000
 20
0.280000
  0
SEQEND
  8
gg1
  0
POLYLINE
  8
gg1
 62
1
 40
0.000000
 41
0.000000
 66
  1
  0
VERTEX
  8
gg1
 10
0.305000
 20
0.270000
  0
VERTEX
  8
gg1
 10
0.305000
 20
0.290000
  0
SEQEND
  8
gg1
  0
POLYLINE
  8
gg1
 62
1
 40
0.000000
 41
0.000000
 66
  1
  0
VERTEX
  8
gg1
 10
0.939000
 20
0.890200
  0
VERTEX
  8
gg1
 10
0.990200
 20
0.890200
  0
SEQEND
  8
gg1
  0
POLYLINE
  8
gg1
 62
1
 40
0.000000
 41
0.000000
 66
  1
  0
VERTEX
  8
gg1
 10
0.964600
 20
0.864600
  0
VERTEX
  8
gg1
 10
0.964600
 20
0.915700
  0
SEQEND
  8
gg1
  0
POLYLINE
  8
gg1
 62
1
 40
0.000000
 41
0.000000
 66
  1
  0
VERTEX
  8
gg1
 10
0.939000
 20
-0.909800
  0
VERTEX
  8
gg1
 10
0.990200
 20
-0.909800
  0
SEQEND
  8
gg1
  0
POLYLINE
  8
gg1
 62
1
 40
0.000000
 41
0.000000
 66
  1
  0
VERTEX
  8
gg1
 10
0.964600
 20
-0.935400
  0
VERTEX
  8
gg1
 10
0.964600
 20
-0.884300
  0
SEQEND
  8
gg1
  0
POLYLINE
  8
gg1
 62
1
 40
0.000000
 41
0.000000
 66
  1
  0
VERTEX
  8
gg1
 10
-1.455400
 20
0.150000
  0
VERTEX
  8
gg1
 10
-1.415400
 20
0.150000
  0
SEQEND
  8
gg1
  0
POLYLINE
  8
gg1
 62
1
 40
0.000000
 41
0.000000
 66
  1
  0
VERTEX
  8
gg1
 10
-1.435400
 20
0.130000
  0
VERTEX
  8
gg1
 10
-1.435400
 20
0.170000
  0
SEQEND
  8
gg1
  0
POLYLINE
  8
gg1
 62
1
 40
0.000000
 41
0.000000
 66
  1
  0
VERTEX
  8
gg1
 10
-1.455400
 20
0.050000
  0
VERTEX
  8
gg1
 10
-1.415400
 20
0.050000
  0
SEQEND
  8
gg1
  0
POLYLINE
  8
gg1
 62
1
 40
0.000000
 41
0.000000
 66
  1
  0
VERTEX
  8
gg1
 10
-1.435400
 20
0.030000
  0
VERTEX
  8
gg1
 10
-1.435400
 20
0.070000
  0
SEQEND
  8
gg1
  0
POLYLINE
  8
gg1
 62
1
 40
0.000000
 41
0.000000
 66
  1
  0
VERTEX
  8
gg1
 10
-1.455400
 20
-0.050000
  0
VERTEX
  8
gg1
 10
-1.415400
 20
-0.050000
  0
SEQEND
  8
gg1
  0
POLYLINE
  8
gg1
 62
1
 40
0.000000
 41
0.000000
 66
  1
  0
VERTEX
  8
gg1
 10
-1.435400
 20
-0.070000
  0
VERTEX
  8
gg1
 10
-1.435400
 20
-0.030000
  0
SEQEND
  8
gg1
  0
POLYLINE
  8
gg1
 62
1
 40
0.000000
 41
0.000000
 66
  1
  0
VERTEX
  8
gg1
 10
-1.455400
 20
-0.150000
  0
VERTEX
  8
gg1
 10
-1.415400
 20
-0.150000
  0
SEQEND
  8
gg1
  0
POLYLINE
  8
gg1
 62
1
 40
0.000000
 41
0.000000
 66
  1
  0
VERTEX
  8
gg1
 10
-1.435400
 20
-0.170000
  0
VERTEX
  8
gg1
 10
-1.435400
 20
-0.130000
  0
SEQEND
  8
gg1
  0
POLYLINE
  8
gg1
 62
1
 40
0.000000
 41
0.000000
 66
  1
  0
VERTEX
  8
gg1
 10
-1.455400
 20
-0.250000
  0
VERTEX
  8
gg1
 10
-1.415400
 20
-0.250000
  0
SEQEND
  8
gg1
  0
POLYLINE
  8
gg1
 62
1
 40
0.000000
 41
0.000000
 66
  1
  0
VERTEX
  8
gg1
 10
-1.435400
 20
-0.270000
  0
VERTEX
  8
gg1
 10
-1.435400
 20
-0.230000
  0
SEQEND
  8
gg1
  0
POLYLINE
  8
gg1
 62
1
 40
0.000000
 41
0.000000
 66
  1
  0
VERTEX
  8
gg1
 10
-1.455400
 20
0.250000
  0
VERTEX
  8
gg1
 10
-1.415400
 20
0.250000
  0
SEQEND
  8
gg1
  0
POLYLINE
  8
gg1
 62
1
 40
0.000000
 41
0.000000
 66
  1
  0
VERTEX
  8
gg1
 10
-1.435400
 20
0.230000
  0
VERTEX
  8
gg1
 10
-1.435400
 20
0.270000
  0
SEQEND
  8
gg1
  0
POLYLINE
  8
gg1
 62
1
 40
0.000000
 41
0.000000
 66
  1
  0
VERTEX
  8
gg1
 10
-1.285400
 20
0.150000
  0
VERTEX
  8
gg1
 10
-1.245400
 20
0.150000
  0
SEQEND
  8
gg1
  0
POLYLINE
  8
gg1
 62
1
 40
0.000000
 41
0.000000
 66
  1
  0
VERTEX
  8
gg1
 10
-1.265400
 20
0.130000
  0
VERTEX
  8
gg1
 10
-1.265400
 20
0.170000
  0
SEQEND
  8
gg1
  0
POLYLINE
  8
gg1
 62
1
 40
0.000000
 41
0.000000
 66
  1
  0
VERTEX
  8
gg1
 10
-1.285400
 20
0.050000
  0
VERTEX
  8
gg1
 10
-1.245400
 20
0.050000
  0
SEQEND
  8
gg1
  0
POLYLINE
  8
gg1
 62
1
 40
0.000000
 41
0.000000
 66
  1
  0
VERTEX
  8
gg1
 10
-1.265400
 20
0.030000
  0
VERTEX
  8
gg1
 10
-1.265400
 20
0.070000
  0
SEQEND
  8
gg1
  0
POLYLINE
  8
gg1
 62
1
 40
0.000000
 41
0.000000
 66
  1
  0
VERTEX
  8
gg1
 10
-1.285400
 20
-0.050000
  0
VERTEX
  8
gg1
 10
-1.245400
 20
-0.050000
  0
SEQEND
  8
gg1
  0
POLYLINE
  8
gg1
 62
1
 40
0.000000
 41
0.000000
 66
  1
  0
VERTEX
  8
gg1
 10
-1.265400
 20
-0.070000
  0
VERTEX
  8
gg1
 10
-1.265400
 20
-0.030000
  0
SEQEND
  8
gg1
  0
POLYLINE
  8
gg1
 62
1
 40
0.000000
 41
0.000000
 66
  1
  0
VERTEX
  8
gg1
 10
-1.285400
 20
-0.150000
  0
VERTEX
  8
gg1
 10
-1.245400
 20
-0.150000
  0
SEQEND
  8
gg1
  0
POLYLINE
  8
gg1
 62
1
 40
0.000000
 41
0.000000
 66
  1
  0
VERTEX
  8
gg1
 10
-1.265400
 20
-0.170000
  0
VERTEX
  8
gg1
 10
-1.265400
 20
-0.130000
  0
SEQEND
  8
gg1
  0
POLYLINE
  8
gg1
 62
1
 40
0.000000
 41
0.000000
 66
  1
  0
VERTEX
  8
gg1
 10
-1.285400
 20
-0.250000
  0
VERTEX
  8
gg1
 10
-1.245400
 20
-0.250000
  0
SEQEND
  8
gg1
  0
POLYLINE
  8
gg1
 62
1
 40
0.000000
 41
0.000000
 66
  1
  0
VERTEX
  8
gg1
 10
-1.265400
 20
-0.270000
  0
VERTEX
  8
gg1
 10
-1.265400
 20
-0.230000
  0
SEQEND
  8
gg1
  0
POLYLINE
  8
gg1
 62
1
 40
0.000000
 41
0.000000
 66
  1
  0
VERTEX
  8
gg1
 10
-1.285400
 20
0.250000
  0
VERTEX
  8
gg1
 10
-1.245400
 20
0.250000
  0
SEQEND
  8
gg1
  0
POLYLINE
  8
gg1
 62
1
 40
0.000000
 41
0.000000
 66
  1
  0
VERTEX
  8
gg1
 10
-1.265400
 20
0.230000
  0
VERTEX
  8
gg1
 10
-1.265400
 20
0.270000
  0
SEQEND
  8
gg1
  0
POLYLINE
  8
gg1
 62
1
 40
0.000000
 41
0.000000
 66
  1
  0
VERTEX
  8
gg1
 10
0.765000
 20
-1.105000
  0
VERTEX
  8
gg1
 10
0.785000
 20
-1.105000
  0
SEQEND
  8
gg1
  0
POLYLINE
  8
gg1
 62
1
 40
0.000000
 41
0.000000
 66
  1
  0
VERTEX
  8
gg1
 10
0.775000
 20
-1.115000
  0
VERTEX
  8
gg1
 10
0.775000
 20
-1.095000
  0
SEQEND
  8
gg1
  0
POLYLINE
  8
gg1
 62
1
 40
0.000000
 41
0.000000
 66
  1
  0
VERTEX
  8
gg1
 10
0.730000
 20
-0.875000
  0
VERTEX
  8
gg1
 10
0.770000
 20
-0.875000
  0
SEQEND
  8
gg1
  0
POLYLINE
  8
gg1
 62
1
 40
0.000000
 41
0.000000
 66
  1
  0
VERTEX
  8
gg1
 10
0.750000
 20
-0.895000
  0
VERTEX
  8
gg1
 10
0.750000
 20
-0.855000
  0
SEQEND
  8
gg1
  0
POLYLINE
  8
gg1
 62
1
 40
0.000000
 41
0.000000
 66
  1
  0
VERTEX
  8
gg1
 10
0.630000
 20
-0.875000
  0
VERTEX
  8
gg1
 10
0.670000
 20
-0.875000
  0
SEQEND
  8
gg1
  0
POLYLINE
  8
gg1
 62
1
 40
0.000000
 41
0.000000
 66
  1
  0
VERTEX
  8
gg1
 10
0.650000
 20
-0.895000
  0
VERTEX
  8
gg1
 10
0.650000
 20
-0.855000
  0
SEQEND
  8
gg1
  0
POLYLINE
  8
gg1
 62
1
 40
0.000000
 41
0.000000
 66
  1
  0
VERTEX
  8
gg1
 10
0.530000
 20
-0.875000
  0
VERTEX
  8
gg1
 10
0.570000
 20
-0.875000
  0
SEQEND
  8
gg1
  0
POLYLINE
  8
gg1
 62
1
 40
0.000000
 41
0.000000
 66
  1
  0
VERTEX
  8
gg1
 10
0.550000
 20
-0.895000
  0
VERTEX
  8
gg1
 10
0.550000
 20
-0.855000
  0
SEQEND
  8
gg1
  0
POLYLINE
  8
gg1
 62
1
 40
0.000000
 41
0.000000
 66
  1
  0
VERTEX
  8
gg1
 10
0.430000
 20
-0.875000
  0
VERTEX
  8
gg1
 10
0.470000
 20
-0.875000
  0
SEQEND
  8
gg1
  0
POLYLINE
  8
gg1
 62
1
 40
0.000000
 41
0.000000
 66
  1
  0
VERTEX
  8
gg1
 10
0.450000
 20
-0.895000
  0
VERTEX
  8
gg1
 10
0.450000
 20
-0.855000
  0
SEQEND
  8
gg1
  0
POLYLINE
  8
gg1
 62
1
 40
0.000000
 41
0.000000
 66
  1
  0
VERTEX
  8
gg1
 10
1.340000
 20
-0.100000
  0
VERTEX
  8
gg1
 10
1.360000
 20
-0.100000
  0
SEQEND
  8
gg1
  0
POLYLINE
  8
gg1
 62
1
 40
0.000000
 41
0.000000
 66
  1
  0
VERTEX
  8
gg1
 10
1.350000
 20
-0.110000
  0
VERTEX
  8
gg1
 10
1.350000
 20
-0.090000
  0
SEQEND
  8
gg1
  0
POLYLINE
  8
gg1
 62
1
 40
0.000000
 41
0.000000
 66
  1
  0
VERTEX
  8
gg1
 10
-1.540000
 20
-0.140000
  0
VERTEX
  8
gg1
 10
-1.520000
 20
-0.140000
  0
SEQEND
  8
gg1
  0
POLYLINE
  8
gg1
 62
1
 40
0.000000
 41
0.000000
 66
  1
  0
VERTEX
  8
gg1
 10
-1.530000
 20
-0.150000
  0
VERTEX
  8
gg1
 10
-1.530000
 20
-0.130000
  0
SEQEND
  8
gg1
  0
POLYLINE
  8
gg1
 62
1
 40
0.000000
 41
0.000000
 66
  1
  0
VERTEX
  8
gg1
 10
0.730000
 20
1.125000
  0
VERTEX
  8
gg1
 10
0.770000
 20
1.125000
  0
SEQEND
  8
gg1
  0
POLYLINE
  8
gg1
 62
1
 40
0.000000
 41
0.000000
 66
  1
  0
VERTEX
  8
gg1
 10
0.750000
 20
1.105000
  0
VERTEX
  8
gg1
 10
0.750000
 20
1.145000
  0
SEQEND
  8
gg1
  0
POLYLINE
  8
gg1
 62
1
 40
0.000000
 41
0.000000
 66
  1
  0
VERTEX
  8
gg1
 10
0.730000
 20
1.225000
  0
VERTEX
  8
gg1
 10
0.770000
 20
1.225000
  0
SEQEND
  8
gg1
  0
POLYLINE
  8
gg1
 62
1
 40
0.000000
 41
0.000000
 66
  1
  0
VERTEX
  8
gg1
 10
0.750000
 20
1.205000
  0
VERTEX
  8
gg1
 10
0.750000
 20
1.245000
  0
SEQEND
  8
gg1
  0
POLYLINE
  8
gg1
 62
1
 40
0.000000
 41
0.000000
 66
  1
  0
VERTEX
  8
gg1
 10
0.630000
 20
1.125000
  0
VERTEX
  8
gg1
 10
0.670000
 20
1.125000
  0
SEQEND
  8
gg1
  0
POLYLINE
  8
gg1
 62
1
 40
0.000000
 41
0.000000
 66
  1
  0
VERTEX
  8
gg1
 10
0.650000
 20
1.105000
  0
VERTEX
  8
gg1
 10
0.650000
 20
1.145000
  0
SEQEND
  8
gg1
  0
POLYLINE
  8
gg1
 62
1
 40
0.000000
 41
0.000000
 66
  1
  0
VERTEX
  8
gg1
 10
0.630000
 20
1.225000
  0
VERTEX
  8
gg1
 10
0.670000
 20
1.225000
  0
SEQEND
  8
gg1
  0
POLYLINE
  8
gg1
 62
1
 40
0.000000
 41
0.000000
 66
  1
  0
VERTEX
  8
gg1
 10
0.650000
 20
1.205000
  0
VERTEX
  8
gg1
 10
0.650000
 20
1.245000
  0
SEQEND
  8
gg1
  0
POLYLINE
  8
gg1
 62
1
 40
0.000000
 41
0.000000
 66
  1
  0
VERTEX
  8
gg1
 10
1.130000
 20
1.125000
  0
VERTEX
  8
gg1
 10
1.170000
 20
1.125000
  0
SEQEND
  8
gg1
  0
POLYLINE
  8
gg1
 62
1
 40
0.000000
 41
0.000000
 66
  1
  0
VERTEX
  8
gg1
 10
1.150000
 20
1.105000
  0
VERTEX
  8
gg1
 10
1.150000
 20
1.145000
  0
SEQEND
  8
gg1
  0
POLYLINE
  8
gg1
 62
1
 40
0.000000
 41
0.000000
 66
  1
  0
VERTEX
  8
gg1
 10
1.130000
 20
1.225000
  0
VERTEX
  8
gg1
 10
1.170000
 20
1.225000
  0
SEQEND
  8
gg1
  0
POLYLINE
  8
gg1
 62
1
 40
0.000000
 41
0.000000
 66
  1
  0
VERTEX
  8
gg1
 10
1.150000
 20
1.205000
  0
VERTEX
  8
gg1
 10
1.150000
 20
1.245000
  0
SEQEND
  8
gg1
  0
POLYLINE
  8
gg1
 62
1
 40
0.000000
 41
0.000000
 66
  1
  0
VERTEX
  8
gg1
 10
-1.655000
 20
-0.930000
  0
VERTEX
  8
gg1
 10
-1.615000
 20
-0.930000
  0
SEQEND
  8
gg1
  0
POLYLINE
  8
gg1
 62
1
 40
0.000000
 41
0.000000
 66
  1
  0
VERTEX
  8
gg1
 10
-1.635000
 20
-0.950000
  0
VERTEX
  8
gg1
 10
-1.635000
 20
-0.910000
  0
SEQEND
  8
gg1
  0
POLYLINE
  8
gg1
 62
1
 40
0.000000
 41
0.000000
 66
  1
  0
VERTEX
  8
gg1
 10
-1.655000
 20
-0.830000
  0
VERTEX
  8
gg1
 10
-1.615000
 20
-0.830000
  0
SEQEND
  8
gg1
  0
POLYLINE
  8
gg1
 62
1
 40
0.000000
 41
0.000000
 66
  1
  0
VERTEX
  8
gg1
 10
-1.635000
 20
-0.850000
  0
VERTEX
  8
gg1
 10
-1.635000
 20
-0.810000
  0
SEQEND
  8
gg1
  0
POLYLINE
  8
gg1
 62
1
 40
0.000000
 41
0.000000
 66
  1
  0
VERTEX
  8
gg1
 10
-0.120000
 20
-0.235000
  0
VERTEX
  8
gg1
 10
-0.080000
 20
-0.235000
  0
SEQEND
  8
gg1
  0
POLYLINE
  8
gg1
 62
1
 40
0.000000
 41
0.000000
 66
  1
  0
VERTEX
  8
gg1
 10
-0.100000
 20
-0.255000
  0
VERTEX
  8
gg1
 10
-0.100000
 20
-0.215000
  0
SEQEND
  8
gg1
  0
POLYLINE
  8
gg1
 62
1
 40
0.000000
 41
0.000000
 66
  1
  0
VERTEX
  8
gg1
 10
-0.220000
 20
-0.135000
  0
VERTEX
  8
gg1
 10
-0.180000
 20
-0.135000
  0
SEQEND
  8
gg1
  0
POLYLINE
  8
gg1
 62
1
 40
0.000000
 41
0.000000
 66
  1
  0
VERTEX
  8
gg1
 10
-0.200000
 20
-0.155000
  0
VERTEX
  8
gg1
 10
-0.200000
 20
-0.115000
  0
SEQEND
  8
gg1
  0
POLYLINE
  8
gg1
 62
1
 40
0.000000
 41
0.000000
 66
  1
  0
VERTEX
  8
gg1
 10
-0.220000
 20
-0.235000
  0
VERTEX
  8
gg1
 10
-0.180000
 20
-0.235000
  0
SEQEND
  8
gg1
  0
POLYLINE
  8
gg1
 62
1
 40
0.000000
 41
0.000000
 66
  1
  0
VERTEX
  8
gg1
 10
-0.200000
 20
-0.255000
  0
VERTEX
  8
gg1
 10
-0.200000
 20
-0.215000
  0
SEQEND
  8
gg1
  0
POLYLINE
  8
gg1
 62
1
 40
0.000000
 41
0.000000
 66
  1
  0
VERTEX
  8
gg1
 10
-0.320000
 20
-0.135000
  0
VERTEX
  8
gg1
 10
-0.280000
 20
-0.135000
  0
SEQEND
  8
gg1
  0
POLYLINE
  8
gg1
 62
1
 40
0.000000
 41
0.000000
 66
  1
  0
VERTEX
  8
gg1
 10
-0.300000
 20
-0.155000
  0
VERTEX
  8
gg1
 10
-0.300000
 20
-0.115000
  0
SEQEND
  8
gg1
  0
POLYLINE
  8
gg1
 62
1
 40
0.000000
 41
0.000000
 66
  1
  0
VERTEX
  8
gg1
 10
-0.320000
 20
-0.235000
  0
VERTEX
  8
gg1
 10
-0.280000
 20
-0.235000
  0
SEQEND
  8
gg1
  0
POLYLINE
  8
gg1
 62
1
 40
0.000000
 41
0.000000
 66
  1
  0
VERTEX
  8
gg1
 10
-0.300000
 20
-0.255000
  0
VERTEX
  8
gg1
 10
-0.300000
 20
-0.215000
  0
SEQEND
  8
gg1
  0
POLYLINE
  8
gg1
 62
1
 40
0.000000
 41
0.000000
 66
  1
  0
VERTEX
  8
gg1
 10
-0.120000
 20
-0.135000
  0
VERTEX
  8
gg1
 10
-0.080000
 20
-0.135000
  0
SEQEND
  8
gg1
  0
POLYLINE
  8
gg1
 62
1
 40
0.000000
 41
0.000000
 66
  1
  0
VERTEX
  8
gg1
 10
-0.100000
 20
-0.155000
  0
VERTEX
  8
gg1
 10
-0.100000
 20
-0.115000
  0
SEQEND
  8
gg1
  0
POLYLINE
  8
gg1
 62
1
 40
0.000000
 41
0.000000
 66
  1
  0
VERTEX
  8
gg1
 10
-0.020000
 20
-0.235000
  0
VERTEX
  8
gg1
 10
0.020000
 20
-0.235000
  0
SEQEND
  8
gg1
  0
POLYLINE
  8
gg1
 62
1
 40
0.000000
 41
0.000000
 66
  1
  0
VERTEX
  8
gg1
 10
0.000000
 20
-0.255000
  0
VERTEX
  8
gg1
 10
0.000000
 20
-0.215000
  0
SEQEND
  8
gg1
  0
POLYLINE
  8
gg1
 62
1
 40
0.000000
 41
0.000000
 66
  1
  0
VERTEX
  8
gg1
 10
-0.020000
 20
-0.135000
  0
VERTEX
  8
gg1
 10
0.020000
 20
-0.135000
  0
SEQEND
  8
gg1
  0
POLYLINE
  8
gg1
 62
1
 40
0.000000
 41
0.000000
 66
  1
  0
VERTEX
  8
gg1
 10
0.000000
 20
-0.155000
  0
VERTEX
  8
gg1
 10
0.000000
 20
-0.115000
  0
SEQEND
  8
gg1
  0
POLYLINE
  8
gg1
 62
1
 40
0.000000
 41
0.000000
 66
  1
  0
VERTEX
  8
gg1
 10
0.080000
 20
-0.235000
  0
VERTEX
  8
gg1
 10
0.120000
 20
-0.235000
  0
SEQEND
  8
gg1
  0
POLYLINE
  8
gg1
 62
1
 40
0.000000
 41
0.000000
 66
  1
  0
VERTEX
  8
gg1
 10
0.100000
 20
-0.255000
  0
VERTEX
  8
gg1
 10
0.100000
 20
-0.215000
  0
SEQEND
  8
gg1
  0
POLYLINE
  8
gg1
 62
1
 40
0.000000
 41
0.000000
 66
  1
  0
VERTEX
  8
gg1
 10
0.080000
 20
-0.135000
  0
VERTEX
  8
gg1
 10
0.120000
 20
-0.135000
  0
SEQEND
  8
gg1
  0
POLYLINE
  8
gg1
 62
1
 40
0.000000
 41
0.000000
 66
  1
  0
VERTEX
  8
gg1
 10
0.100000
 20
-0.155000
  0
VERTEX
  8
gg1
 10
0.100000
 20
-0.115000
  0
SEQEND
  8
gg1
  0
POLYLINE
  8
gg1
 62
1
 40
0.000000
 41
0.000000
 66
  1
  0
VERTEX
  8
gg1
 10
0.180000
 20
-0.235000
  0
VERTEX
  8
gg1
 10
0.220000
 20
-0.235000
  0
SEQEND
  8
gg1
  0
POLYLINE
  8
gg1
 62
1
 40
0.000000
 41
0.000000
 66
  1
  0
VERTEX
  8
gg1
 10
0.200000
 20
-0.255000
  0
VERTEX
  8
gg1
 10
0.200000
 20
-0.215000
  0
SEQEND
  8
gg1
  0
POLYLINE
  8
gg1
 62
1
 40
0.000000
 41
0.000000
 66
  1
  0
VERTEX
  8
gg1
 10
0.180000
 20
-0.135000
  0
VERTEX
  8
gg1
 10
0.220000
 20
-0.135000
  0
SEQEND
  8
gg1
  0
POLYLINE
  8
gg1
 62
1
 40
0.000000
 41
0.000000
 66
  1
  0
VERTEX
  8
gg1
 10
0.200000
 20
-0.155000
  0
VERTEX
  8
gg1
 10
0.200000
 20
-0.115000
  0
SEQEND
  8
gg1
  0
POLYLINE
  8
gg1
 62
1
 40
0.000000
 41
0.000000
 66
  1
  0
VERTEX
  8
gg1
 10
0.280000
 20
-0.235000
  0
VERTEX
  8
gg1
 10
0.320000
 20
-0.235000
  0
SEQEND
  8
gg1
  0
POLYLINE
  8
gg1
 62
1
 40
0.000000
 41
0.000000
 66
  1
  0
VERTEX
  8
gg1
 10
0.300000
 20
-0.255000
  0
VERTEX
  8
gg1
 10
0.300000
 20
-0.215000
  0
SEQEND
  8
gg1
  0
POLYLINE
  8
gg1
 62
1
 40
0.000000
 41
0.000000
 66
  1
  0
VERTEX
  8
gg1
 10
0.280000
 20
-0.135000
  0
VERTEX
  8
gg1
 10
0.320000
 20
-0.135000
  0
SEQEND
  8
gg1
  0
POLYLINE
  8
gg1
 62
1
 40
0.000000
 41
0.000000
 66
  1
  0
VERTEX
  8
gg1
 10
0.300000
 20
-0.155000
  0
VERTEX
  8
gg1
 10
0.300000
 20
-0.115000
  0
SEQEND
  8
gg1
  0
POLYLINE
  8
gg1
 62
1
 40
0.000000
 41
0.000000
 66
  1
  0
VERTEX
  8
gg1
 10
-0.877500
 20
0.065000
  0
VERTEX
  8
gg1
 10
-0.862500
 20
0.065000
  0
SEQEND
  8
gg1
  0
POLYLINE
  8
gg1
 62
1
 40
0.000000
 41
0.000000
 66
  1
  0
VERTEX
  8
gg1
 10
-0.870000
 20
0.057500
  0
VERTEX
  8
gg1
 10
-0.870000
 20
0.072500
  0
SEQEND
  8
gg1
  0
POLYLINE
  8
gg1
 62
1
 40
0.000000
 41
0.000000
 66
  1
  0
VERTEX
  8
gg1
 10
-0.842500
 20
0.035000
  0
VERTEX
  8
gg1
 10
-0.827500
 20
0.035000
  0
SEQEND
  8
gg1
  0
POLYLINE
  8
gg1
 62
1
 40
0.000000
 41
0.000000
 66
  1
  0
VERTEX
  8
gg1
 10
-0.835000
 20
0.027500
  0
VERTEX
  8
gg1
 10
-0.835000
 20
0.042500
  0
SEQEND
  8
gg1
  0
POLYLINE
  8
gg1
 62
1
 40
0.000000
 41
0.000000
 66
  1
  0
VERTEX
  8
gg1
 10
-0.727500
 20
0.295000
  0
VERTEX
  8
gg1
 10
-0.712500
 20
0.295000
  0
SEQEND
  8
gg1
  0
POLYLINE
  8
gg1
 62
1
 40
0.000000
 41
0.000000
 66
  1
  0
VERTEX
  8
gg1
 10
-0.720000
 20
0.287500
  0
VERTEX
  8
gg1
 10
-0.720000
 20
0.302500
  0
SEQEND
  8
gg1
  0
POLYLINE
  8
gg1
 62
1
 40
0.000000
 41
0.000000
 66
  1
  0
VERTEX
  8
gg1
 10
-1.680500
 20
-0.088000
  0
VERTEX
  8
gg1
 10
-1.665500
 20
-0.088000
  0
SEQEND
  8
gg1
  0
POLYLINE
  8
gg1
 62
1
 40
0.000000
 41
0.000000
 66
  1
  0
VERTEX
  8
gg1
 10
-1.673000
 20
-0.095500
  0
VERTEX
  8
gg1
 10
-1.673000
 20
-0.080500
  0
SEQEND
  8
gg1
  0
POLYLINE
  8
gg1
 62
1
 40
0.000000
 41
0.000000
 66
  1
  0
VERTEX
  8
gg1
 10
-1.202500
 20
0.120000
  0
VERTEX
  8
gg1
 10
-1.187500
 20
0.120000
  0
SEQEND
  8
gg1
  0
POLYLINE
  8
gg1
 62
1
 40
0.000000
 41
0.000000
 66
  1
  0
VERTEX
  8
gg1
 10
-1.195000
 20
0.112500
  0
VERTEX
  8
gg1
 10
-1.195000
 20
0.127500
  0
SEQEND
  8
gg1
  0
POLYLINE
  8
gg1
 62
1
 40
0.000000
 41
0.000000
 66
  1
  0
VERTEX
  8
gg1
 10
-1.242500
 20
0.320000
  0
VERTEX
  8
gg1
 10
-1.227500
 20
0.320000
  0
SEQEND
  8
gg1
  0
POLYLINE
  8
gg1
 62
1
 40
0.000000
 41
0.000000
 66
  1
  0
VERTEX
  8
gg1
 10
-1.235000
 20
0.312500
  0
VERTEX
  8
gg1
 10
-1.235000
 20
0.327500
  0
SEQEND
  8
gg1
  0
POLYLINE
  8
gg1
 62
1
 40
0.000000
 41
0.000000
 66
  1
  0
VERTEX
  8
gg1
 10
-1.387500
 20
0.460000
  0
VERTEX
  8
gg1
 10
-1.372500
 20
0.460000
  0
SEQEND
  8
gg1
  0
POLYLINE
  8
gg1
 62
1
 40
0.000000
 41
0.000000
 66
  1
  0
VERTEX
  8
gg1
 10
-1.380000
 20
0.452500
  0
VERTEX
  8
gg1
 10
-1.380000
 20
0.467500
  0
SEQEND
  8
gg1
  0
POLYLINE
  8
gg1
 62
1
 40
0.000000
 41
0.000000
 66
  1
  0
VERTEX
  8
gg1
 10
-1.697500
 20
-0.325000
  0
VERTEX
  8
gg1
 10
-1.682500
 20
-0.325000
  0
SEQEND
  8
gg1
  0
POLYLINE
  8
gg1
 62
1
 40
0.000000
 41
0.000000
 66
  1
  0
VERTEX
  8
gg1
 10
-1.690000
 20
-0.332500
  0
VERTEX
  8
gg1
 10
-1.690000
 20
-0.317500
  0
SEQEND
  8
gg1
  0
POLYLINE
  8
gg1
 62
1
 40
0.000000
 41
0.000000
 66
  1
  0
VERTEX
  8
gg1
 10
-1.687500
 20
-0.180000
  0
VERTEX
  8
gg1
 10
-1.672500
 20
-0.180000
  0
SEQEND
  8
gg1
  0
POLYLINE
  8
gg1
 62
1
 40
0.000000
 41
0.000000
 66
  1
  0
VERTEX
  8
gg1
 10
-1.680000
 20
-0.187500
  0
VERTEX
  8
gg1
 10
-1.680000
 20
-0.172500
  0
SEQEND
  8
gg1
  0
POLYLINE
  8
gg1
 62
1
 40
0.000000
 41
0.000000
 66
  1
  0
VERTEX
  8
gg1
 10
-1.652500
 20
-0.295000
  0
VERTEX
  8
gg1
 10
-1.637500
 20
-0.295000
  0
SEQEND
  8
gg1
  0
POLYLINE
  8
gg1
 62
1
 40
0.000000
 41
0.000000
 66
  1
  0
VERTEX
  8
gg1
 10
-1.645000
 20
-0.302500
  0
VERTEX
  8
gg1
 10
-1.645000
 20
-0.287500
  0
SEQEND
  8
gg1
  0
POLYLINE
  8
gg1
 62
1
 40
0.000000
 41
0.000000
 66
  1
  0
VERTEX
  8
gg1
 10
-1.602500
 20
-0.130000
  0
VERTEX
  8
gg1
 10
-1.587500
 20
-0.130000
  0
SEQEND
  8
gg1
  0
POLYLINE
  8
gg1
 62
1
 40
0.000000
 41
0.000000
 66
  1
  0
VERTEX
  8
gg1
 10
-1.595000
 20
-0.137500
  0
VERTEX
  8
gg1
 10
-1.595000
 20
-0.122500
  0
SEQEND
  8
gg1
  0
POLYLINE
  8
gg1
 62
1
 40
0.000000
 41
0.000000
 66
  1
  0
VERTEX
  8
gg1
 10
-1.487500
 20
-0.100000
  0
VERTEX
  8
gg1
 10
-1.472500
 20
-0.100000
  0
SEQEND
  8
gg1
  0
POLYLINE
  8
gg1
 62
1
 40
0.000000
 41
0.000000
 66
  1
  0
VERTEX
  8
gg1
 10
-1.480000
 20
-0.107500
  0
VERTEX
  8
gg1
 10
-1.480000
 20
-0.092500
  0
SEQEND
  8
gg1
  0
POLYLINE
  8
gg1
 62
1
 40
0.000000
 41
0.000000
 66
  1
  0
VERTEX
  8
gg1
 10
1.637500
 20
-0.305000
  0
VERTEX
  8
gg1
 10
1.652500
 20
-0.305000
  0
SEQEND
  8
gg1
  0
POLYLINE
  8
gg1
 62
1
 40
0.000000
 41
0.000000
 66
  1
  0
VERTEX
  8
gg1
 10
1.645000
 20
-0.312500
  0
VERTEX
  8
gg1
 10
1.645000
 20
-0.297500
  0
SEQEND
  8
gg1
  0
POLYLINE
  8
gg1
 62
1
 40
0.000000
 41
0.000000
 66
  1
  0
VERTEX
  8
gg1
 10
1.647500
 20
-1.740000
  0
VERTEX
  8
gg1
 10
1.662500
 20
-1.740000
  0
SEQEND
  8
gg1
  0
POLYLINE
  8
gg1
 62
1
 40
0.000000
 41
0.000000
 66
  1
  0
VERTEX
  8
gg1
 10
1.655000
 20
-1.747500
  0
VERTEX
  8
gg1
 10
1.655000
 20
-1.732500
  0
SEQEND
  8
gg1
  0
POLYLINE
  8
gg1
 62
1
 40
0.000000
 41
0.000000
 66
  1
  0
VERTEX
  8
gg1
 10
1.042500
 20
-1.525000
  0
VERTEX
  8
gg1
 10
1.057500
 20
-1.525000
  0
SEQEND
  8
gg1
  0
POLYLINE
  8
gg1
 62
1
 40
0.000000
 41
0.000000
 66
  1
  0
VERTEX
  8
gg1
 10
1.050000
 20
-1.532500
  0
VERTEX
  8
gg1
 10
1.050000
 20
-1.517500
  0
SEQEND
  8
gg1
  0
POLYLINE
  8
gg1
 62
1
 40
0.000000
 41
0.000000
 66
  1
  0
VERTEX
  8
gg1
 10
1.042500
 20
-1.745000
  0
VERTEX
  8
gg1
 10
1.057500
 20
-1.745000
  0
SEQEND
  8
gg1
  0
POLYLINE
  8
gg1
 62
1
 40
0.000000
 41
0.000000
 66
  1
  0
VERTEX
  8
gg1
 10
1.050000
 20
-1.752500
  0
VERTEX
  8
gg1
 10
1.050000
 20
-1.737500
  0
SEQEND
  8
gg1
  0
POLYLINE
  8
gg1
 62
1
 40
0.000000
 41
0.000000
 66
  1
  0
VERTEX
  8
gg1
 10
1.422500
 20
-0.925000
  0
VERTEX
  8
gg1
 10
1.437500
 20
-0.925000
  0
SEQEND
  8
gg1
  0
POLYLINE
  8
gg1
 62
1
 40
0.000000
 41
0.000000
 66
  1
  0
VERTEX
  8
gg1
 10
1.430000
 20
-0.932500
  0
VERTEX
  8
gg1
 10
1.430000
 20
-0.917500
  0
SEQEND
  8
gg1
  0
POLYLINE
  8
gg1
 62
1
 40
0.000000
 41
0.000000
 66
  1
  0
VERTEX
  8
gg1
 10
1.387500
 20
-0.905000
  0
VERTEX
  8
gg1
 10
1.402500
 20
-0.905000
  0
SEQEND
  8
gg1
  0
POLYLINE
  8
gg1
 62
1
 40
0.000000
 41
0.000000
 66
  1
  0
VERTEX
  8
gg1
 10
1.395000
 20
-0.912500
  0
VERTEX
  8
gg1
 10
1.395000
 20
-0.897500
  0
SEQEND
  8
gg1
  0
POLYLINE
  8
gg1
 62
1
 40
0.000000
 41
0.000000
 66
  1
  0
VERTEX
  8
gg1
 10
0.242500
 20
0.060000
  0
VERTEX
  8
gg1
 10
0.257500
 20
0.060000
  0
SEQEND
  8
gg1
  0
POLYLINE
  8
gg1
 62
1
 40
0.000000
 41
0.000000
 66
  1
  0
VERTEX
  8
gg1
 10
0.250000
 20
0.052500
  0
VERTEX
  8
gg1
 10
0.250000
 20
0.067500
  0
SEQEND
  8
gg1
  0
POLYLINE
  8
gg1
 62
1
 40
0.000000
 41
0.000000
 66
  1
  0
VERTEX
  8
gg1
 10
0.517500
 20
0.360000
  0
VERTEX
  8
gg1
 10
0.532500
 20
0.360000
  0
SEQEND
  8
gg1
  0
POLYLINE
  8
gg1
 62
1
 40
0.000000
 41
0.000000
 66
  1
  0
VERTEX
  8
gg1
 10
0.525000
 20
0.352500
  0
VERTEX
  8
gg1
 10
0.525000
 20
0.367500
  0
SEQEND
  8
gg1
  0
POLYLINE
  8
gg1
 62
1
 40
0.000000
 41
0.000000
 66
  1
  0
VERTEX
  8
gg1
 10
0.342500
 20
0.280000
  0
VERTEX
  8
gg1
 10
0.357500
 20
0.280000
  0
SEQEND
  8
gg1
  0
POLYLINE
  8
gg1
 62
1
 40
0.000000
 41
0.000000
 66
  1
  0
VERTEX
  8
gg1
 10
0.350000
 20
0.272500
  0
VERTEX
  8
gg1
 10
0.350000
 20
0.287500
  0
SEQEND
  8
gg1
  0
POLYLINE
  8
gg1
 62
1
 40
0.000000
 41
0.000000
 66
  1
  0
VERTEX
  8
gg1
 10
0.697500
 20
0.515000
  0
VERTEX
  8
gg1
 10
0.712500
 20
0.515000
  0
SEQEND
  8
gg1
  0
POLYLINE
  8
gg1
 62
1
 40
0.000000
 41
0.000000
 66
  1
  0
VERTEX
  8
gg1
 10
0.705000
 20
0.507500
  0
VERTEX
  8
gg1
 10
0.705000
 20
0.522500
  0
SEQEND
  8
gg1
  0
POLYLINE
  8
gg1
 62
1
 40
0.000000
 41
0.000000
 66
  1
  0
VERTEX
  8
gg1
 10
0.387500
 20
-1.150000
  0
VERTEX
  8
gg1
 10
0.402500
 20
-1.150000
  0
SEQEND
  8
gg1
  0
POLYLINE
  8
gg1
 62
1
 40
0.000000
 41
0.000000
 66
  1
  0
VERTEX
  8
gg1
 10
0.395000
 20
-1.157500
  0
VERTEX
  8
gg1
 10
0.395000
 20
-1.142500
  0
SEQEND
  8
gg1
  0
POLYLINE
  8
gg1
 62
1
 40
0.000000
 41
0.000000
 66
  1
  0
VERTEX
  8
gg1
 10
0.982500
 20
-1.365000
  0
VERTEX
  8
gg1
 10
0.997500
 20
-1.365000
  0
SEQEND
  8
gg1
  0
POLYLINE
  8
gg1
 62
1
 40
0.000000
 41
0.000000
 66
  1
  0
VERTEX
  8
gg1
 10
0.990000
 20
-1.372500
  0
VERTEX
  8
gg1
 10
0.990000
 20
-1.357500
  0
SEQEND
  8
gg1
  0
POLYLINE
  8
gg1
 62
1
 40
0.000000
 41
0.000000
 66
  1
  0
VERTEX
  8
gg1
 10
0.532500
 20
0.415000
  0
VERTEX
  8
gg1
 10
0.547500
 20
0.415000
  0
SEQEND
  8
gg1
  0
POLYLINE
  8
gg1
 62
1
 40
0.000000
 41
0.000000
 66
  1
  0
VERTEX
  8
gg1
 10
0.540000
 20
0.407500
  0
VERTEX
  8
gg1
 10
0.540000
 20
0.422500
  0
SEQEND
  8
gg1
  0
POLYLINE
  8
gg1
 62
1
 40
0.000000
 41
0.000000
 66
  1
  0
VERTEX
  8
gg1
 10
0.547500
 20
0.390000
  0
VERTEX
  8
gg1
 10
0.562500
 20
0.390000
  0
SEQEND
  8
gg1
  0
POLYLINE
  8
gg1
 62
1
 40
0.000000
 41
0.000000
 66
  1
  0
VERTEX
  8
gg1
 10
0.555000
 20
0.382500
  0
VERTEX
  8
gg1
 10
0.555000
 20
0.397500
  0
SEQEND
  8
gg1
  0
POLYLINE
  8
gg1
 62
1
 40
0.000000
 41
0.000000
 66
  1
  0
VERTEX
  8
gg1
 10
0.517500
 20
0.390000
  0
VERTEX
  8
gg1
 10
0.532500
 20
0.390000
  0
SEQEND
  8
gg1
  0
POLYLINE
  8
gg1
 62
1
 40
0.000000
 41
0.000000
 66
  1
  0
VERTEX
  8
gg1
 10
0.525000
 20
0.382500
  0
VERTEX
  8
gg1
 10
0.525000
 20
0.397500
  0
SEQEND
  8
gg1
  0
POLYLINE
  8
gg1
 62
1
 40
0.000000
 41
0.000000
 66
  1
  0
VERTEX
  8
gg1
 10
0.187500
 20
-1.910000
  0
VERTEX
  8
gg1
 10
0.202500
 20
-1.910000
  0
SEQEND
  8
gg1
  0
POLYLINE
  8
gg1
 62
1
 40
0.000000
 41
0.000000
 66
  1
  0
VERTEX
  8
gg1
 10
0.195000
 20
-1.917500
  0
VERTEX
  8
gg1
 10
0.195000
 20
-1.902500
  0
SEQEND
  8
gg1
  0
POLYLINE
  8
gg1
 62
1
 40
0.000000
 41
0.000000
 66
  1
  0
VERTEX
  8
gg1
 10
-0.312500
 20
-1.935000
  0
VERTEX
  8
gg1
 10
-0.297500
 20
-1.935000
  0
SEQEND
  8
gg1
  0
POLYLINE
  8
gg1
 62
1
 40
0.000000
 41
0.000000
 66
  1
  0
VERTEX
  8
gg1
 10
-0.305000
 20
-1.942500
  0
VERTEX
  8
gg1
 10
-0.305000
 20
-1.927500
  0
SEQEND
  8
gg1
  0
POLYLINE
  8
gg1
 62
1
 40
0.000000
 41
0.000000
 66
  1
  0
VERTEX
  8
gg1
 10
-0.692500
 20
1.045000
  0
VERTEX
  8
gg1
 10
-0.677500
 20
1.045000
  0
SEQEND
  8
gg1
  0
POLYLINE
  8
gg1
 62
1
 40
0.000000
 41
0.000000
 66
  1
  0
VERTEX
  8
gg1
 10
-0.685000
 20
1.037500
  0
VERTEX
  8
gg1
 10
-0.685000
 20
1.052500
  0
SEQEND
  8
gg1
  0
POLYLINE
  8
gg1
 62
1
 40
0.000000
 41
0.000000
 66
  1
  0
VERTEX
  8
gg1
 10
-0.977500
 20
-0.370000
  0
VERTEX
  8
gg1
 10
-0.962500
 20
-0.370000
  0
SEQEND
  8
gg1
  0
POLYLINE
  8
gg1
 62
1
 40
0.000000
 41
0.000000
 66
  1
  0
VERTEX
  8
gg1
 10
-0.970000
 20
-0.377500
  0
VERTEX
  8
gg1
 10
-0.970000
 20
-0.362500
  0
SEQEND
  8
gg1
  0
POLYLINE
  8
gg1
 62
1
 40
0.000000
 41
0.000000
 66
  1
  0
VERTEX
  8
gg1
 10
-1.622500
 20
0.195000
  0
VERTEX
  8
gg1
 10
-1.607500
 20
0.195000
  0
SEQEND
  8
gg1
  0
POLYLINE
  8
gg1
 62
1
 40
0.000000
 41
0.000000
 66
  1
  0
VERTEX
  8
gg1
 10
-1.615000
 20
0.187500
  0
VERTEX
  8
gg1
 10
-1.615000
 20
0.202500
  0
SEQEND
  8
gg1
  0
POLYLINE
  8
gg1
 62
1
 40
0.000000
 41
0.000000
 66
  1
  0
VERTEX
  8
gg1
 10
0.057500
 20
-0.905000
  0
VERTEX
  8
gg1
 10
0.072500
 20
-0.905000
  0
SEQEND
  8
gg1
  0
POLYLINE
  8
gg1
 62
1
 40
0.000000
 41
0.000000
 66
  1
  0
VERTEX
  8
gg1
 10
0.065000
 20
-0.912500
  0
VERTEX
  8
gg1
 10
0.065000
 20
-0.897500
  0
SEQEND
  8
gg1
  0
POLYLINE
  8
gg1
 62
1
 40
0.000000
 41
0.000000
 66
  1
  0
VERTEX
  8
gg1
 10
0.072400
 20
-0.025000
  0
VERTEX
  8
gg1
 10
0.087400
 20
-0.025000
  0
SEQEND
  8
gg1
  0
POLYLINE
  8
gg1
 62
1
 40
0.000000
 41
0.000000
 66
  1
  0
VERTEX
  8
gg1
 10
0.079900
 20
-0.032500
  0
VERTEX
  8
gg1
 10
0.079900
 20
-0.017500
  0
SEQEND
  8
gg1
  0
POLYLINE
  8
gg1
 62
1
 40
0.000000
 41
0.000000
 66
  1
  0
VERTEX
  8
gg1
 10
-0.782500
 20
-0.105000
  0
VERTEX
  8
gg1
 10
-0.767500
 20
-0.105000
  0
SEQEND
  8
gg1
  0
POLYLINE
  8
gg1
 62
1
 40
0.000000
 41
0.000000
 66
  1
  0
VERTEX
  8
gg1
 10
-0.775000
 20
-0.112500
  0
VERTEX
  8
gg1
 10
-0.775000
 20
-0.097500
  0
SEQEND
  8
gg1
  0
POLYLINE
  8
gg1
 62
1
 40
0.000000
 41
0.000000
 66
  1
  0
VERTEX
  8
gg1
 10
0.052500
 20
0.160000
  0
VERTEX
  8
gg1
 10
0.067500
 20
0.160000
  0
SEQEND
  8
gg1
  0
POLYLINE
  8
gg1
 62
1
 40
0.000000
 41
0.000000
 66
  1
  0
VERTEX
  8
gg1
 10
0.060000
 20
0.152500
  0
VERTEX
  8
gg1
 10
0.060000
 20
0.167500
  0
SEQEND
  8
gg1
  0
POLYLINE
  8
gg1
 62
1
 40
0.000000
 41
0.000000
 66
  1
  0
VERTEX
  8
gg1
 10
0.082500
 20
0.130000
  0
VERTEX
  8
gg1
 10
0.097500
 20
0.130000
  0
SEQEND
  8
gg1
  0
POLYLINE
  8
gg1
 62
1
 40
0.000000
 41
0.000000
 66
  1
  0
VERTEX
  8
gg1
 10
0.090000
 20
0.122500
  0
VERTEX
  8
gg1
 10
0.090000
 20
0.137500
  0
SEQEND
  8
gg1
  0
POLYLINE
  8
gg1
 62
1
 40
0.000000
 41
0.000000
 66
  1
  0
VERTEX
  8
gg1
 10
0.032500
 20
0.060000
  0
VERTEX
  8
gg1
 10
0.047500
 20
0.060000
  0
SEQEND
  8
gg1
  0
POLYLINE
  8
gg1
 62
1
 40
0.000000
 41
0.000000
 66
  1
  0
VERTEX
  8
gg1
 10
0.040000
 20
0.052500
  0
VERTEX
  8
gg1
 10
0.040000
 20
0.067500
  0
SEQEND
  8
gg1
  0
POLYLINE
  8
gg1
 62
1
 40
0.000000
 41
0.000000
 66
  1
  0
VERTEX
  8
gg1
 10
0.212500
 20
-0.065000
  0
VERTEX
  8
gg1
 10
0.227500
 20
-0.065000
  0
SEQEND
  8
gg1
  0
POLYLINE
  8
gg1
 62
1
 40
0.000000
 41
0.000000
 66
  1
  0
VERTEX
  8
gg1
 10
0.220000
 20
-0.072500
  0
VERTEX
  8
gg1
 10
0.220000
 20
-0.057500
  0
SEQEND
  8
gg1
  0
POLYLINE
  8
gg1
 62
1
 40
0.000000
 41
0.000000
 66
  1
  0
VERTEX
  8
gg1
 10
-0.027500
 20
-0.025000
  0
VERTEX
  8
gg1
 10
-0.012500
 20
-0.025000
  0
SEQEND
  8
gg1
  0
POLYLINE
  8
gg1
 62
1
 40
0.000000
 41
0.000000
 66
  1
  0
VERTEX
  8
gg1
 10
-0.020000
 20
-0.032500
  0
VERTEX
  8
gg1
 10
-0.020000
 20
-0.017500
  0
SEQEND
  8
gg1
  0
POLYLINE
  8
gg1
 62
1
 40
0.000000
 41
0.000000
 66
  1
  0
VERTEX
  8
gg1
 10
-0.062500
 20
-0.045000
  0
VERTEX
  8
gg1
 10
-0.047500
 20
-0.045000
  0
SEQEND
  8
gg1
  0
POLYLINE
  8
gg1
 62
1
 40
0.000000
 41
0.000000
 66
  1
  0
VERTEX
  8
gg1
 10
-0.055000
 20
-0.052500
  0
VERTEX
  8
gg1
 10
-0.055000
 20
-0.037500
  0
SEQEND
  8
gg1
  0
POLYLINE
  8
gg1
 62
1
 40
0.000000
 41
0.000000
 66
  1
  0
VERTEX
  8
gg1
 10
-0.507500
 20
0.190000
  0
VERTEX
  8
gg1
 10
-0.492500
 20
0.190000
  0
SEQEND
  8
gg1
  0
POLYLINE
  8
gg1
 62
1
 40
0.000000
 41
0.000000
 66
  1
  0
VERTEX
  8
gg1
 10
-0.500000
 20
0.182500
  0
VERTEX
  8
gg1
 10
-0.500000
 20
0.197500
  0
SEQEND
  8
gg1
  0
POLYLINE
  8
gg1
 62
1
 40
0.000000
 41
0.000000
 66
  1
  0
VERTEX
  8
gg1
 10
-0.422500
 20
0.190000
  0
VERTEX
  8
gg1
 10
-0.407500
 20
0.190000
  0
SEQEND
  8
gg1
  0
POLYLINE
  8
gg1
 62
1
 40
0.000000
 41
0.000000
 66
  1
  0
VERTEX
  8
gg1
 10
-0.415000
 20
0.182500
  0
VERTEX
  8
gg1
 10
-0.415000
 20
0.197500
  0
SEQEND
  8
gg1
  0
POLYLINE
  8
gg1
 62
1
 40
0.000000
 41
0.000000
 66
  1
  0
VERTEX
  8
gg1
 10
-0.592500
 20
0.190000
  0
VERTEX
  8
gg1
 10
-0.577500
 20
0.190000
  0
SEQEND
  8
gg1
  0
POLYLINE
  8
gg1
 62
1
 40
0.000000
 41
0.000000
 66
  1
  0
VERTEX
  8
gg1
 10
-0.585000
 20
0.182500
  0
VERTEX
  8
gg1
 10
-0.585000
 20
0.197500
  0
SEQEND
  8
gg1
  0
POLYLINE
  8
gg1
 62
1
 40
0.000000
 41
0.000000
 66
  1
  0
VERTEX
  8
gg1
 10
-0.457500
 20
0.020000
  0
VERTEX
  8
gg1
 10
-0.442500
 20
0.020000
  0
SEQEND
  8
gg1
  0
POLYLINE
  8
gg1
 62
1
 40
0.000000
 41
0.000000
 66
  1
  0
VERTEX
  8
gg1
 10
-0.450000
 20
0.012500
  0
VERTEX
  8
gg1
 10
-0.450000
 20
0.027500
  0
SEQEND
  8
gg1
  0
POLYLINE
  8
gg1
 62
1
 40
0.000000
 41
0.000000
 66
  1
  0
VERTEX
  8
gg1
 10
-0.512500
 20
-0.175000
  0
VERTEX
  8
gg1
 10
-0.497500
 20
-0.175000
  0
SEQEND
  8
gg1
  0
POLYLINE
  8
gg1
 62
1
 40
0.000000
 41
0.000000
 66
  1
  0
VERTEX
  8
gg1
 10
-0.505000
 20
-0.182500
  0
VERTEX
  8
gg1
 10
-0.505000
 20
-0.167500
  0
SEQEND
  8
gg1
  0
POLYLINE
  8
gg1
 62
1
 40
0.000000
 41
0.000000
 66
  1
  0
VERTEX
  8
gg1
 10
-0.832500
 20
-0.040000
  0
VERTEX
  8
gg1
 10
-0.817500
 20
-0.040000
  0
SEQEND
  8
gg1
  0
POLYLINE
  8
gg1
 62
1
 40
0.000000
 41
0.000000
 66
  1
  0
VERTEX
  8
gg1
 10
-0.825000
 20
-0.047500
  0
VERTEX
  8
gg1
 10
-0.825000
 20
-0.032500
  0
SEQEND
  8
gg1
  0
POLYLINE
  8
gg1
 62
1
 40
0.000000
 41
0.000000
 66
  1
  0
VERTEX
  8
gg1
 10
-0.822500
 20
0.000000
  0
VERTEX
  8
gg1
 10
-0.807500
 20
0.000000
  0
SEQEND
  8
gg1
  0
POLYLINE
  8
gg1
 62
1
 40
0.000000
 41
0.000000
 66
  1
  0
VERTEX
  8
gg1
 10
-0.815000
 20
-0.007500
  0
VERTEX
  8
gg1
 10
-0.815000
 20
0.007500
  0
SEQEND
  8
gg1
  0
POLYLINE
  8
gg1
 62
1
 40
0.000000
 41
0.000000
 66
  1
  0
VERTEX
  8
gg1
 10
-0.402500
 20
-0.150000
  0
VERTEX
  8
gg1
 10
-0.387500
 20
-0.150000
  0
SEQEND
  8
gg1
  0
POLYLINE
  8
gg1
 62
1
 40
0.000000
 41
0.000000
 66
  1
  0
VERTEX
  8
gg1
 10
-0.395000
 20
-0.157500
  0
VERTEX
  8
gg1
 10
-0.395000
 20
-0.142500
  0
SEQEND
  8
gg1
  0
POLYLINE
  8
gg1
 62
1
 40
0.000000
 41
0.000000
 66
  1
  0
VERTEX
  8
gg1
 10
0.022500
 20
-0.850000
  0
VERTEX
  8
gg1
 10
0.037500
 20
-0.850000
  0
SEQEND
  8
gg1
  0
POLYLINE
  8
gg1
 62
1
 40
0.000000
 41
0.000000
 66
  1
  0
VERTEX
  8
gg1
 10
0.030000
 20
-0.857500
  0
VERTEX
  8
gg1
 10
0.030000
 20
-0.842500
  0
SEQEND
  8
gg1
  0
POLYLINE
  8
gg1
 62
1
 40
0.000000
 41
0.000000
 66
  1
  0
VERTEX
  8
gg1
 10
-0.492500
 20
0.020000
  0
VERTEX
  8
gg1
 10
-0.477500
 20
0.020000
  0
SEQEND
  8
gg1
  0
POLYLINE
  8
gg1
 62
1
 40
0.000000
 41
0.000000
 66
  1
  0
VERTEX
  8
gg1
 10
-0.485000
 20
0.012500
  0
VERTEX
  8
gg1
 10
-0.485000
 20
0.027500
  0
SEQEND
  8
gg1
  0
POLYLINE
  8
gg1
 62
1
 40
0.000000
 41
0.000000
 66
  1
  0
VERTEX
  8
gg1
 10
-0.107500
 20
-0.045000
  0
VERTEX
  8
gg1
 10
-0.092500
 20
-0.045000
  0
SEQEND
  8
gg1
  0
POLYLINE
  8
gg1
 62
1
 40
0.000000
 41
0.000000
 66
  1
  0
VERTEX
  8
gg1
 10
-0.100000
 20
-0.052500
  0
VERTEX
  8
gg1
 10
-0.100000
 20
-0.037500
  0
SEQEND
  8
gg1
  0
POLYLINE
  8
gg1
 62
1
 40
0.000000
 41
0.000000
 66
  1
  0
VERTEX
  8
gg1
 10
-0.007500
 20
0.010000
  0
VERTEX
  8
gg1
 10
0.007500
 20
0.010000
  0
SEQEND
  8
gg1
  0
POLYLINE
  8
gg1
 62
1
 40
0.000000
 41
0.000000
 66
  1
  0
VERTEX
  8
gg1
 10
0.000000
 20
0.002500
  0
VERTEX
  8
gg1
 10
0.000000
 20
0.017500
  0
SEQEND
  8
gg1
  0
POLYLINE
  8
gg1
 62
1
 40
0.000000
 41
0.000000
 66
  1
  0
VERTEX
  8
gg1
 10
0.007500
 20
0.755000
  0
VERTEX
  8
gg1
 10
0.022500
 20
0.755000
  0
SEQEND
  8
gg1
  0
POLYLINE
  8
gg1
 62
1
 40
0.000000
 41
0.000000
 66
  1
  0
VERTEX
  8
gg1
 10
0.015000
 20
0.747500
  0
VERTEX
  8
gg1
 10
0.015000
 20
0.762500
  0
SEQEND
  8
gg1
  0
POLYLINE
  8
gg1
 62
1
 40
0.000000
 41
0.000000
 66
  1
  0
VERTEX
  8
gg1
 10
-0.417500
 20
-0.110000
  0
VERTEX
  8
gg1
 10
-0.402500
 20
-0.110000
  0
SEQEND
  8
gg1
  0
POLYLINE
  8
gg1
 62
1
 40
0.000000
 41
0.000000
 66
  1
  0
VERTEX
  8
gg1
 10
-0.410000
 20
-0.117500
  0
VERTEX
  8
gg1
 10
-0.410000
 20
-0.102500
  0
SEQEND
  8
gg1
  0
POLYLINE
  8
gg1
 62
1
 40
0.000000
 41
0.000000
 66
  1
  0
VERTEX
  8
gg1
 10
-0.377500
 20
-0.050000
  0
VERTEX
  8
gg1
 10
-0.362500
 20
-0.050000
  0
SEQEND
  8
gg1
  0
POLYLINE
  8
gg1
 62
1
 40
0.000000
 41
0.000000
 66
  1
  0
VERTEX
  8
gg1
 10
-0.370000
 20
-0.057500
  0
VERTEX
  8
gg1
 10
-0.370000
 20
-0.042500
  0
SEQEND
  8
gg1
  0
POLYLINE
  8
gg1
 62
1
 40
0.000000
 41
0.000000
 66
  1
  0
VERTEX
  8
gg1
 10
-0.372500
 20
-0.180000
  0
VERTEX
  8
gg1
 10
-0.357500
 20
-0.180000
  0
SEQEND
  8
gg1
  0
POLYLINE
  8
gg1
 62
1
 40
0.000000
 41
0.000000
 66
  1
  0
VERTEX
  8
gg1
 10
-0.365000
 20
-0.187500
  0
VERTEX
  8
gg1
 10
-0.365000
 20
-0.172500
  0
SEQEND
  8
gg1
  0
POLYLINE
  8
gg1
 62
1
 40
0.000000
 41
0.000000
 66
  1
  0
VERTEX
  8
gg1
 10
-0.292500
 20
-0.065000
  0
VERTEX
  8
gg1
 10
-0.277500
 20
-0.065000
  0
SEQEND
  8
gg1
  0
POLYLINE
  8
gg1
 62
1
 40
0.000000
 41
0.000000
 66
  1
  0
VERTEX
  8
gg1
 10
-0.285000
 20
-0.072500
  0
VERTEX
  8
gg1
 10
-0.285000
 20
-0.057500
  0
SEQEND
  8
gg1
  0
POLYLINE
  8
gg1
 62
1
 40
0.000000
 41
0.000000
 66
  1
  0
VERTEX
  8
gg1
 10
0.022500
 20
-0.925000
  0
VERTEX
  8
gg1
 10
0.037500
 20
-0.925000
  0
SEQEND
  8
gg1
  0
POLYLINE
  8
gg1
 62
1
 40
0.000000
 41
0.000000
 66
  1
  0
VERTEX
  8
gg1
 10
0.030000
 20
-0.932500
  0
VERTEX
  8
gg1
 10
0.030000
 20
-0.917500
  0
SEQEND
  8
gg1
  0
POLYLINE
  8
gg1
 62
1
 40
0.000000
 41
0.000000
 66
  1
  0
VERTEX
  8
gg1
 10
-0.602500
 20
0.340000
  0
VERTEX
  8
gg1
 10
-0.587500
 20
0.340000
  0
SEQEND
  8
gg1
  0
POLYLINE
  8
gg1
 62
1
 40
0.000000
 41
0.000000
 66
  1
  0
VERTEX
  8
gg1
 10
-0.595000
 20
0.332500
  0
VERTEX
  8
gg1
 10
-0.595000
 20
0.347500
  0
SEQEND
  8
gg1
  0
POLYLINE
  8
gg1
 62
1
 40
0.000000
 41
0.000000
 66
  1
  0
VERTEX
  8
gg1
 10
-1.377500
 20
0.635000
  0
VERTEX
  8
gg1
 10
-1.362500
 20
0.635000
  0
SEQEND
  8
gg1
  0
POLYLINE
  8
gg1
 62
1
 40
0.000000
 41
0.000000
 66
  1
  0
VERTEX
  8
gg1
 10
-1.370000
 20
0.627500
  0
VERTEX
  8
gg1
 10
-1.370000
 20
0.642500
  0
SEQEND
  8
gg1
  0
POLYLINE
  8
gg1
 62
1
 40
0.000000
 41
0.000000
 66
  1
  0
VERTEX
  8
gg1
 10
-1.322500
 20
0.450000
  0
VERTEX
  8
gg1
 10
-1.307500
 20
0.450000
  0
SEQEND
  8
gg1
  0
POLYLINE
  8
gg1
 62
1
 40
0.000000
 41
0.000000
 66
  1
  0
VERTEX
  8
gg1
 10
-1.315000
 20
0.442500
  0
VERTEX
  8
gg1
 10
-1.315000
 20
0.457500
  0
SEQEND
  8
gg1
  0
POLYLINE
  8
gg1
 62
1
 40
0.000000
 41
0.000000
 66
  1
  0
VERTEX
  8
gg1
 10
-1.367500
 20
0.495000
  0
VERTEX
  8
gg1
 10
-1.352500
 20
0.495000
  0
SEQEND
  8
gg1
  0
POLYLINE
  8
gg1
 62
1
 40
0.000000
 41
0.000000
 66
  1
  0
VERTEX
  8
gg1
 10
-1.360000
 20
0.487500
  0
VERTEX
  8
gg1
 10
-1.360000
 20
0.502500
  0
SEQEND
  8
gg1
  0
POLYLINE
  8
gg1
 62
1
 40
0.000000
 41
0.000000
 66
  1
  0
VERTEX
  8
gg1
 10
-1.367500
 20
0.200000
  0
VERTEX
  8
gg1
 10
-1.352500
 20
0.200000
  0
SEQEND
  8
gg1
  0
POLYLINE
  8
gg1
 62
1
 40
0.000000
 41
0.000000
 66
  1
  0
VERTEX
  8
gg1
 10
-1.360000
 20
0.192500
  0
VERTEX
  8
gg1
 10
-1.360000
 20
0.207500
  0
SEQEND
  8
gg1
  0
POLYLINE
  8
gg1
 62
1
 40
0.000000
 41
0.000000
 66
  1
  0
VERTEX
  8
gg1
 10
-1.307500
 20
0.490000
  0
VERTEX
  8
gg1
 10
-1.292500
 20
0.490000
  0
SEQEND
  8
gg1
  0
POLYLINE
  8
gg1
 62
1
 40
0.000000
 41
0.000000
 66
  1
  0
VERTEX
  8
gg1
 10
-1.300000
 20
0.482500
  0
VERTEX
  8
gg1
 10
-1.300000
 20
0.497500
  0
SEQEND
  8
gg1
  0
POLYLINE
  8
gg1
 62
1
 40
0.000000
 41
0.000000
 66
  1
  0
VERTEX
  8
gg1
 10
-1.242500
 20
0.515000
  0
VERTEX
  8
gg1
 10
-1.227500
 20
0.515000
  0
SEQEND
  8
gg1
  0
POLYLINE
  8
gg1
 62
1
 40
0.000000
 41
0.000000
 66
  1
  0
VERTEX
  8
gg1
 10
-1.235000
 20
0.507500
  0
VERTEX
  8
gg1
 10
-1.235000
 20
0.522500
  0
SEQEND
  8
gg1
  0
POLYLINE
  8
gg1
 62
1
 40
0.000000
 41
0.000000
 66
  1
  0
VERTEX
  8
gg1
 10
-1.247500
 20
0.475000
  0
VERTEX
  8
gg1
 10
-1.232500
 20
0.475000
  0
SEQEND
  8
gg1
  0
POLYLINE
  8
gg1
 62
1
 40
0.000000
 41
0.000000
 66
  1
  0
VERTEX
  8
gg1
 10
-1.240000
 20
0.467500
  0
VERTEX
  8
gg1
 10
-1.240000
 20
0.482500
  0
SEQEND
  8
gg1
  0
POLYLINE
  8
gg1
 62
1
 40
0.000000
 41
0.000000
 66
  1
  0
VERTEX
  8
gg1
 10
-1.397500
 20
0.675000
  0
VERTEX
  8
gg1
 10
-1.382500
 20
0.675000
  0
SEQEND
  8
gg1
  0
POLYLINE
  8
gg1
 62
1
 40
0.000000
 41
0.000000
 66
  1
  0
VERTEX
  8
gg1
 10
-1.390000
 20
0.667500
  0
VERTEX
  8
gg1
 10
-1.390000
 20
0.682500
  0
SEQEND
  8
gg1
  0
POLYLINE
  8
gg1
 62
1
 40
0.000000
 41
0.000000
 66
  1
  0
VERTEX
  8
gg1
 10
-1.492500
 20
0.755000
  0
VERTEX
  8
gg1
 10
-1.477500
 20
0.755000
  0
SEQEND
  8
gg1
  0
POLYLINE
  8
gg1
 62
1
 40
0.000000
 41
0.000000
 66
  1
  0
VERTEX
  8
gg1
 10
-1.485000
 20
0.747500
  0
VERTEX
  8
gg1
 10
-1.485000
 20
0.762500
  0
SEQEND
  8
gg1
  0
POLYLINE
  8
gg1
 62
1
 40
0.000000
 41
0.000000
 66
  1
  0
VERTEX
  8
gg1
 10
0.002500
 20
0.535000
  0
VERTEX
  8
gg1
 10
0.017500
 20
0.535000
  0
SEQEND
  8
gg1
  0
POLYLINE
  8
gg1
 62
1
 40
0.000000
 41
0.000000
 66
  1
  0
VERTEX
  8
gg1
 10
0.010000
 20
0.527500
  0
VERTEX
  8
gg1
 10
0.010000
 20
0.542500
  0
SEQEND
  8
gg1
  0
POLYLINE
  8
gg1
 62
1
 40
0.000000
 41
0.000000
 66
  1
  0
VERTEX
  8
gg1
 10
0.002500
 20
0.575000
  0
VERTEX
  8
gg1
 10
0.017500
 20
0.575000
  0
SEQEND
  8
gg1
  0
POLYLINE
  8
gg1
 62
1
 40
0.000000
 41
0.000000
 66
  1
  0
VERTEX
  8
gg1
 10
0.010000
 20
0.567500
  0
VERTEX
  8
gg1
 10
0.010000
 20
0.582500
  0
SEQEND
  8
gg1
  0
POLYLINE
  8
gg1
 62
1
 40
0.000000
 41
0.000000
 66
  1
  0
VERTEX
  8
gg1
 10
-0.032500
 20
0.515000
  0
VERTEX
  8
gg1
 10
-0.017500
 20
0.515000
  0
SEQEND
  8
gg1
  0
POLYLINE
  8
gg1
 62
1
 40
0.000000
 41
0.000000
 66
  1
  0
VERTEX
  8
gg1
 10
-0.025000
 20
0.507500
  0
VERTEX
  8
gg1
 10
-0.025000
 20
0.522500
  0
SEQEND
  8
gg1
  0
POLYLINE
  8
gg1
 62
1
 40
0.000000
 41
0.000000
 66
  1
  0
VERTEX
  8
gg1
 10
-0.032500
 20
0.595000
  0
VERTEX
  8
gg1
 10
-0.017500
 20
0.595000
  0
SEQEND
  8
gg1
  0
POLYLINE
  8
gg1
 62
1
 40
0.000000
 41
0.000000
 66
  1
  0
VERTEX
  8
gg1
 10
-0.025000
 20
0.587500
  0
VERTEX
  8
gg1
 10
-0.025000
 20
0.602500
  0
SEQEND
  8
gg1
  0
POLYLINE
  8
gg1
 62
1
 40
0.000000
 41
0.000000
 66
  1
  0
VERTEX
  8
gg1
 10
-0.237500
 20
0.350000
  0
VERTEX
  8
gg1
 10
-0.222500
 20
0.350000
  0
SEQEND
  8
gg1
  0
POLYLINE
  8
gg1
 62
1
 40
0.000000
 41
0.000000
 66
  1
  0
VERTEX
  8
gg1
 10
-0.230000
 20
0.342500
  0
VERTEX
  8
gg1
 10
-0.230000
 20
0.357500
  0
SEQEND
  8
gg1
  0
POLYLINE
  8
gg1
 62
1
 40
0.000000
 41
0.000000
 66
  1
  0
VERTEX
  8
gg1
 10
-0.197500
 20
0.350000
  0
VERTEX
  8
gg1
 10
-0.182500
 20
0.350000
  0
SEQEND
  8
gg1
  0
POLYLINE
  8
gg1
 62
1
 40
0.000000
 41
0.000000
 66
  1
  0
VERTEX
  8
gg1
 10
-0.190000
 20
0.342500
  0
VERTEX
  8
gg1
 10
-0.190000
 20
0.357500
  0
SEQEND
  8
gg1
  0
POLYLINE
  8
gg1
 62
1
 40
0.000000
 41
0.000000
 66
  1
  0
VERTEX
  8
gg1
 10
-0.227500
 20
0.280000
  0
VERTEX
  8
gg1
 10
-0.212500
 20
0.280000
  0
SEQEND
  8
gg1
  0
POLYLINE
  8
gg1
 62
1
 40
0.000000
 41
0.000000
 66
  1
  0
VERTEX
  8
gg1
 10
-0.220000
 20
0.272500
  0
VERTEX
  8
gg1
 10
-0.220000
 20
0.287500
  0
SEQEND
  8
gg1
  0
POLYLINE
  8
gg1
 62
1
 40
0.000000
 41
0.000000
 66
  1
  0
VERTEX
  8
gg1
 10
-0.257500
 20
0.515000
  0
VERTEX
  8
gg1
 10
-0.242500
 20
0.515000
  0
SEQEND
  8
gg1
  0
POLYLINE
  8
gg1
 62
1
 40
0.000000
 41
0.000000
 66
  1
  0
VERTEX
  8
gg1
 10
-0.250000
 20
0.507500
  0
VERTEX
  8
gg1
 10
-0.250000
 20
0.522500
  0
SEQEND
  8
gg1
  0
POLYLINE
  8
gg1
 62
1
 40
0.000000
 41
0.000000
 66
  1
  0
VERTEX
  8
gg1
 10
-0.292500
 20
0.535000
  0
VERTEX
  8
gg1
 10
-0.277500
 20
0.535000
  0
SEQEND
  8
gg1
  0
POLYLINE
  8
gg1
 62
1
 40
0.000000
 41
0.000000
 66
  1
  0
VERTEX
  8
gg1
 10
-0.285000
 20
0.527500
  0
VERTEX
  8
gg1
 10
-0.285000
 20
0.542500
  0
SEQEND
  8
gg1
  0
POLYLINE
  8
gg1
 62
1
 40
0.000000
 41
0.000000
 66
  1
  0
VERTEX
  8
gg1
 10
-0.287500
 20
0.575000
  0
VERTEX
  8
gg1
 10
-0.272500
 20
0.575000
  0
SEQEND
  8
gg1
  0
POLYLINE
  8
gg1
 62
1
 40
0.000000
 41
0.000000
 66
  1
  0
VERTEX
  8
gg1
 10
-0.280000
 20
0.567500
  0
VERTEX
  8
gg1
 10
-0.280000
 20
0.582500
  0
SEQEND
  8
gg1
  0
POLYLINE
  8
gg1
 62
1
 40
0.000000
 41
0.000000
 66
  1
  0
VERTEX
  8
gg1
 10
-0.252500
 20
0.595000
  0
VERTEX
  8
gg1
 10
-0.237500
 20
0.595000
  0
SEQEND
  8
gg1
  0
POLYLINE
  8
gg1
 62
1
 40
0.000000
 41
0.000000
 66
  1
  0
VERTEX
  8
gg1
 10
-0.245000
 20
0.587500
  0
VERTEX
  8
gg1
 10
-0.245000
 20
0.602500
  0
SEQEND
  8
gg1
  0
POLYLINE
  8
gg1
 62
1
 40
0.000000
 41
0.000000
 66
  1
  0
VERTEX
  8
gg1
 10
-0.082500
 20
0.755000
  0
VERTEX
  8
gg1
 10
-0.067500
 20
0.755000
  0
SEQEND
  8
gg1
  0
POLYLINE
  8
gg1
 62
1
 40
0.000000
 41
0.000000
 66
  1
  0
VERTEX
  8
gg1
 10
-0.075000
 20
0.747500
  0
VERTEX
  8
gg1
 10
-0.075000
 20
0.762500
  0
SEQEND
  8
gg1
  0
POLYLINE
  8
gg1
 62
1
 40
0.000000
 41
0.000000
 66
  1
  0
VERTEX
  8
gg1
 10
-0.147500
 20
0.225000
  0
VERTEX
  8
gg1
 10
-0.132500
 20
0.225000
  0
SEQEND
  8
gg1
  0
POLYLINE
  8
gg1
 62
1
 40
0.000000
 41
0.000000
 66
  1
  0
VERTEX
  8
gg1
 10
-0.140000
 20
0.217500
  0
VERTEX
  8
gg1
 10
-0.140000
 20
0.232500
  0
SEQEND
  8
gg1
  0
POLYLINE
  8
gg1
 62
1
 40
0.000000
 41
0.000000
 66
  1
  0
VERTEX
  8
gg1
 10
-0.277500
 20
0.350000
  0
VERTEX
  8
gg1
 10
-0.262500
 20
0.350000
  0
SEQEND
  8
gg1
  0
POLYLINE
  8
gg1
 62
1
 40
0.000000
 41
0.000000
 66
  1
  0
VERTEX
  8
gg1
 10
-0.270000
 20
0.342500
  0
VERTEX
  8
gg1
 10
-0.270000
 20
0.357500
  0
SEQEND
  8
gg1
  0
POLYLINE
  8
gg1
 62
1
 40
0.000000
 41
0.000000
 66
  1
  0
VERTEX
  8
gg1
 10
-0.627500
 20
0.280000
  0
VERTEX
  8
gg1
 10
-0.612500
 20
0.280000
  0
SEQEND
  8
gg1
  0
POLYLINE
  8
gg1
 62
1
 40
0.000000
 41
0.000000
 66
  1
  0
VERTEX
  8
gg1
 10
-0.620000
 20
0.272500
  0
VERTEX
  8
gg1
 10
-0.620000
 20
0.287500
  0
SEQEND
  8
gg1
  0
POLYLINE
  8
gg1
 62
1
 40
0.000000
 41
0.000000
 66
  1
  0
VERTEX
  8
gg1
 10
-0.537500
 20
0.335000
  0
VERTEX
  8
gg1
 10
-0.522500
 20
0.335000
  0
SEQEND
  8
gg1
  0
POLYLINE
  8
gg1
 62
1
 40
0.000000
 41
0.000000
 66
  1
  0
VERTEX
  8
gg1
 10
-0.530000
 20
0.327500
  0
VERTEX
  8
gg1
 10
-0.530000
 20
0.342500
  0
SEQEND
  8
gg1
  0
POLYLINE
  8
gg1
 62
1
 40
0.000000
 41
0.000000
 66
  1
  0
VERTEX
  8
gg1
 10
-0.417500
 20
0.320000
  0
VERTEX
  8
gg1
 10
-0.402500
 20
0.320000
  0
SEQEND
  8
gg1
  0
POLYLINE
  8
gg1
 62
1
 40
0.000000
 41
0.000000
 66
  1
  0
VERTEX
  8
gg1
 10
-0.410000
 20
0.312500
  0
VERTEX
  8
gg1
 10
-0.410000
 20
0.327500
  0
SEQEND
  8
gg1
  0
POLYLINE
  8
gg1
 62
1
 40
0.000000
 41
0.000000
 66
  1
  0
VERTEX
  8
gg1
 10
0.282500
 20
-0.605000
  0
VERTEX
  8
gg1
 10
0.297500
 20
-0.605000
  0
SEQEND
  8
gg1
  0
POLYLINE
  8
gg1
 62
1
 40
0.000000
 41
0.000000
 66
  1
  0
VERTEX
  8
gg1
 10
0.290000
 20
-0.612500
  0
VERTEX
  8
gg1
 10
0.290000
 20
-0.597500
  0
SEQEND
  8
gg1
  0
POLYLINE
  8
gg1
 62
1
 40
0.000000
 41
0.000000
 66
  1
  0
VERTEX
  8
gg1
 10
0.282500
 20
-0.565000
  0
VERTEX
  8
gg1
 10
0.297500
 20
-0.565000
  0
SEQEND
  8
gg1
  0
POLYLINE
  8
gg1
 62
1
 40
0.000000
 41
0.000000
 66
  1
  0
VERTEX
  8
gg1
 10
0.290000
 20
-0.572500
  0
VERTEX
  8
gg1
 10
0.290000
 20
-0.557500
  0
SEQEND
  8
gg1
  0
POLYLINE
  8
gg1
 62
1
 40
0.000000
 41
0.000000
 66
  1
  0
VERTEX
  8
gg1
 10
0.777500
 20
0.730000
  0
VERTEX
  8
gg1
 10
0.792500
 20
0.730000
  0
SEQEND
  8
gg1
  0
POLYLINE
  8
gg1
 62
1
 40
0.000000
 41
0.000000
 66
  1
  0
VERTEX
  8
gg1
 10
0.785000
 20
0.722500
  0
VERTEX
  8
gg1
 10
0.785000
 20
0.737500
  0
SEQEND
  8
gg1
  0
POLYLINE
  8
gg1
 62
1
 40
0.000000
 41
0.000000
 66
  1
  0
VERTEX
  8
gg1
 10
-0.407500
 20
0.965000
  0
VERTEX
  8
gg1
 10
-0.392500
 20
0.965000
  0
SEQEND
  8
gg1
  0
POLYLINE
  8
gg1
 62
1
 40
0.000000
 41
0.000000
 66
  1
  0
VERTEX
  8
gg1
 10
-0.400000
 20
0.957500
  0
VERTEX
  8
gg1
 10
-0.400000
 20
0.972500
  0
SEQEND
  8
gg1
  0
POLYLINE
  8
gg1
 62
1
 40
0.000000
 41
0.000000
 66
  1
  0
VERTEX
  8
gg1
 10
-0.497500
 20
0.875000
  0
VERTEX
  8
gg1
 10
-0.482500
 20
0.875000
  0
SEQEND
  8
gg1
  0
POLYLINE
  8
gg1
 62
1
 40
0.000000
 41
0.000000
 66
  1
  0
VERTEX
  8
gg1
 10
-0.490000
 20
0.867500
  0
VERTEX
  8
gg1
 10
-0.490000
 20
0.882500
  0
SEQEND
  8
gg1
  0
POLYLINE
  8
gg1
 62
1
 40
0.000000
 41
0.000000
 66
  1
  0
VERTEX
  8
gg1
 10
0.507500
 20
-0.105000
  0
VERTEX
  8
gg1
 10
0.522500
 20
-0.105000
  0
SEQEND
  8
gg1
  0
POLYLINE
  8
gg1
 62
1
 40
0.000000
 41
0.000000
 66
  1
  0
VERTEX
  8
gg1
 10
0.515000
 20
-0.112500
  0
VERTEX
  8
gg1
 10
0.515000
 20
-0.097500
  0
SEQEND
  8
gg1
  0
POLYLINE
  8
gg1
 62
1
 40
0.000000
 41
0.000000
 66
  1
  0
VERTEX
  8
gg1
 10
0.497500
 20
-0.545000
  0
VERTEX
  8
gg1
 10
0.512500
 20
-0.545000
  0
SEQEND
  8
gg1
  0
POLYLINE
  8
gg1
 62
1
 40
0.000000
 41
0.000000
 66
  1
  0
VERTEX
  8
gg1
 10
0.505000
 20
-0.552500
  0
VERTEX
  8
gg1
 10
0.505000
 20
-0.537500
  0
SEQEND
  8
gg1
  0
POLYLINE
  8
gg1
 62
1
 40
0.000000
 41
0.000000
 66
  1
  0
VERTEX
  8
gg1
 10
0.687500
 20
-0.530000
  0
VERTEX
  8
gg1
 10
0.702500
 20
-0.530000
  0
SEQEND
  8
gg1
  0
POLYLINE
  8
gg1
 62
1
 40
0.000000
 41
0.000000
 66
  1
  0
VERTEX
  8
gg1
 10
0.695000
 20
-0.537500
  0
VERTEX
  8
gg1
 10
0.695000
 20
-0.522500
  0
SEQEND
  8
gg1
  0
POLYLINE
  8
gg1
 62
1
 40
0.000000
 41
0.000000
 66
  1
  0
VERTEX
  8
gg1
 10
0.642500
 20
-0.530000
  0
VERTEX
  8
gg1
 10
0.657500
 20
-0.530000
  0
SEQEND
  8
gg1
  0
POLYLINE
  8
gg1
 62
1
 40
0.000000
 41
0.000000
 66
  1
  0
VERTEX
  8
gg1
 10
0.650000
 20
-0.537500
  0
VERTEX
  8
gg1
 10
0.650000
 20
-0.522500
  0
SEQEND
  8
gg1
  0
POLYLINE
  8
gg1
 62
1
 40
0.000000
 41
0.000000
 66
  1
  0
VERTEX
  8
gg1
 10
0.707500
 20
-0.600000
  0
VERTEX
  8
gg1
 10
0.722500
 20
-0.600000
  0
SEQEND
  8
gg1
  0
POLYLINE
  8
gg1
 62
1
 40
0.000000
 41
0.000000
 66
  1
  0
VERTEX
  8
gg1
 10
0.715000
 20
-0.607500
  0
VERTEX
  8
gg1
 10
0.715000
 20
-0.592500
  0
SEQEND
  8
gg1
  0
POLYLINE
  8
gg1
 62
1
 40
0.000000
 41
0.000000
 66
  1
  0
VERTEX
  8
gg1
 10
0.395000
 20
-0.507500
  0
VERTEX
  8
gg1
 10
0.410000
 20
-0.507500
  0
SEQEND
  8
gg1
  0
POLYLINE
  8
gg1
 62
1
 40
0.000000
 41
0.000000
 66
  1
  0
VERTEX
  8
gg1
 10
0.402500
 20
-0.515000
  0
VERTEX
  8
gg1
 10
0.402500
 20
-0.500000
  0
SEQEND
  8
gg1
  0
POLYLINE
  8
gg1
 62
1
 40
0.000000
 41
0.000000
 66
  1
  0
VERTEX
  8
gg1
 10
0.395000
 20
-0.690000
  0
VERTEX
  8
gg1
 10
0.410000
 20
-0.690000
  0
SEQEND
  8
gg1
  0
POLYLINE
  8
gg1
 62
1
 40
0.000000
 41
0.000000
 66
  1
  0
VERTEX
  8
gg1
 10
0.402500
 20
-0.697500
  0
VERTEX
  8
gg1
 10
0.402500
 20
-0.682500
  0
SEQEND
  8
gg1
  0
POLYLINE
  8
gg1
 62
1
 40
0.000000
 41
0.000000
 66
  1
  0
VERTEX
  8
gg1
 10
0.283100
 20
-0.965000
  0
VERTEX
  8
gg1
 10
0.298100
 20
-0.965000
  0
SEQEND
  8
gg1
  0
POLYLINE
  8
gg1
 62
1
 40
0.000000
 41
0.000000
 66
  1
  0
VERTEX
  8
gg1
 10
0.290600
 20
-0.972500
  0
VERTEX
  8
gg1
 10
0.290600
 20
-0.957500
  0
SEQEND
  8
gg1
  0
POLYLINE
  8
gg1
 62
1
 40
0.000000
 41
0.000000
 66
  1
  0
VERTEX
  8
gg1
 10
-0.317500
 20
0.300000
  0
VERTEX
  8
gg1
 10
-0.302500
 20
0.300000
  0
SEQEND
  8
gg1
  0
POLYLINE
  8
gg1
 62
1
 40
0.000000
 41
0.000000
 66
  1
  0
VERTEX
  8
gg1
 10
-0.310000
 20
0.292500
  0
VERTEX
  8
gg1
 10
-0.310000
 20
0.307500
  0
SEQEND
  8
gg1
  0
POLYLINE
  8
gg1
 62
1
 40
0.000000
 41
0.000000
 66
  1
  0
VERTEX
  8
gg1
 10
-0.257500
 20
0.110000
  0
VERTEX
  8
gg1
 10
-0.242500
 20
0.110000
  0
SEQEND
  8
gg1
  0
POLYLINE
  8
gg1
 62
1
 40
0.000000
 41
0.000000
 66
  1
  0
VERTEX
  8
gg1
 10
-0.250000
 20
0.102500
  0
VERTEX
  8
gg1
 10
-0.250000
 20
0.117500
  0
SEQEND
  8
gg1
  0
POLYLINE
  8
gg1
 62
1
 40
0.000000
 41
0.000000
 66
  1
  0
VERTEX
  8
gg1
 10
-0.327500
 20
0.055000
  0
VERTEX
  8
gg1
 10
-0.312500
 20
0.055000
  0
SEQEND
  8
gg1
  0
POLYLINE
  8
gg1
 62
1
 40
0.000000
 41
0.000000
 66
  1
  0
VERTEX
  8
gg1
 10
-0.320000
 20
0.047500
  0
VERTEX
  8
gg1
 10
-0.320000
 20
0.062500
  0
SEQEND
  8
gg1
  0
POLYLINE
  8
gg1
 62
1
 40
0.000000
 41
0.000000
 66
  1
  0
VERTEX
  8
gg1
 10
-0.417500
 20
0.280000
  0
VERTEX
  8
gg1
 10
-0.402500
 20
0.280000
  0
SEQEND
  8
gg1
  0
POLYLINE
  8
gg1
 62
1
 40
0.000000
 41
0.000000
 66
  1
  0
VERTEX
  8
gg1
 10
-0.410000
 20
0.272500
  0
VERTEX
  8
gg1
 10
-0.410000
 20
0.287500
  0
SEQEND
  8
gg1
  0
POLYLINE
  8
gg1
 62
1
 40
0.000000
 41
0.000000
 66
  1
  0
VERTEX
  8
gg1
 10
-0.592500
 20
0.300000
  0
VERTEX
  8
gg1
 10
-0.577500
 20
0.300000
  0
SEQEND
  8
gg1
  0
POLYLINE
  8
gg1
 62
1
 40
0.000000
 41
0.000000
 66
  1
  0
VERTEX
  8
gg1
 10
-0.585000
 20
0.292500
  0
VERTEX
  8
gg1
 10
-0.585000
 20
0.307500
  0
SEQEND
  8
gg1
  0
POLYLINE
  8
gg1
 62
1
 40
0.000000
 41
0.000000
 66
  1
  0
VERTEX
  8
gg1
 10
0.517500
 20
0.715000
  0
VERTEX
  8
gg1
 10
0.532500
 20
0.715000
  0
SEQEND
  8
gg1
  0
POLYLINE
  8
gg1
 62
1
 40
0.000000
 41
0.000000
 66
  1
  0
VERTEX
  8
gg1
 10
0.525000
 20
0.707500
  0
VERTEX
  8
gg1
 10
0.525000
 20
0.722500
  0
SEQEND
  8
gg1
  0
POLYLINE
  8
gg1
 62
1
 40
0.000000
 41
0.000000
 66
  1
  0
VERTEX
  8
gg1
 10
0.372500
 20
0.760000
  0
VERTEX
  8
gg1
 10
0.387500
 20
0.760000
  0
SEQEND
  8
gg1
  0
POLYLINE
  8
gg1
 62
1
 40
0.000000
 41
0.000000
 66
  1
  0
VERTEX
  8
gg1
 10
0.380000
 20
0.752500
  0
VERTEX
  8
gg1
 10
0.380000
 20
0.767500
  0
SEQEND
  8
gg1
  0
POLYLINE
  8
gg1
 62
1
 40
0.000000
 41
0.000000
 66
  1
  0
VERTEX
  8
gg1
 10
0.412500
 20
0.765000
  0
VERTEX
  8
gg1
 10
0.427500
 20
0.765000
  0
SEQEND
  8
gg1
  0
POLYLINE
  8
gg1
 62
1
 40
0.000000
 41
0.000000
 66
  1
  0
VERTEX
  8
gg1
 10
0.420000
 20
0.757500
  0
VERTEX
  8
gg1
 10
0.420000
 20
0.772500
  0
SEQEND
  8
gg1
  0
POLYLINE
  8
gg1
 62
1
 40
0.000000
 41
0.000000
 66
  1
  0
VERTEX
  8
gg1
 10
-1.967500
 20
-1.000000
  0
VERTEX
  8
gg1
 10
-1.952500
 20
-1.000000
  0
SEQEND
  8
gg1
  0
POLYLINE
  8
gg1
 62
1
 40
0.000000
 41
0.000000
 66
  1
  0
VERTEX
  8
gg1
 10
-1.960000
 20
-1.007500
  0
VERTEX
  8
gg1
 10
-1.960000
 20
-0.992500
  0
SEQEND
  8
gg1
  0
POLYLINE
  8
gg1
 62
1
 40
0.000000
 41
0.000000
 66
  1
  0
VERTEX
  8
gg1
 10
-2.052500
 20
-0.775000
  0
VERTEX
  8
gg1
 10
-2.037500
 20
-0.775000
  0
SEQEND
  8
gg1
  0
POLYLINE
  8
gg1
 62
1
 40
0.000000
 41
0.000000
 66
  1
  0
VERTEX
  8
gg1
 10
-2.045000
 20
-0.782500
  0
VERTEX
  8
gg1
 10
-2.045000
 20
-0.767500
  0
SEQEND
  8
gg1
  0
POLYLINE
  8
gg1
 62
1
 40
0.000000
 41
0.000000
 66
  1
  0
VERTEX
  8
gg1
 10
-1.512500
 20
-0.740000
  0
VERTEX
  8
gg1
 10
-1.497500
 20
-0.740000
  0
SEQEND
  8
gg1
  0
POLYLINE
  8
gg1
 62
1
 40
0.000000
 41
0.000000
 66
  1
  0
VERTEX
  8
gg1
 10
-1.505000
 20
-0.747500
  0
VERTEX
  8
gg1
 10
-1.505000
 20
-0.732500
  0
SEQEND
  8
gg1
  0
POLYLINE
  8
gg1
 62
1
 40
0.000000
 41
0.000000
 66
  1
  0
VERTEX
  8
gg1
 10
-0.297500
 20
-0.585000
  0
VERTEX
  8
gg1
 10
-0.282500
 20
-0.585000
  0
SEQEND
  8
gg1
  0
POLYLINE
  8
gg1
 62
1
 40
0.000000
 41
0.000000
 66
  1
  0
VERTEX
  8
gg1
 10
-0.290000
 20
-0.592500
  0
VERTEX
  8
gg1
 10
-0.290000
 20
-0.577500
  0
SEQEND
  8
gg1
  0
POLYLINE
  8
gg1
 62
1
 40
0.000000
 41
0.000000
 66
  1
  0
VERTEX
  8
gg1
 10
-0.497500
 20
-0.585000
  0
VERTEX
  8
gg1
 10
-0.482500
 20
-0.585000
  0
SEQEND
  8
gg1
  0
POLYLINE
  8
gg1
 62
1
 40
0.000000
 41
0.000000
 66
  1
  0
VERTEX
  8
gg1
 10
-0.490000
 20
-0.592500
  0
VERTEX
  8
gg1
 10
-0.490000
 20
-0.577500
  0
SEQEND
  8
gg1
  0
POLYLINE
  8
gg1
 62
1
 40
0.000000
 41
0.000000
 66
  1
  0
VERTEX
  8
gg1
 10
-0.897500
 20
-0.585000
  0
VERTEX
  8
gg1
 10
-0.882500
 20
-0.585000
  0
SEQEND
  8
gg1
  0
POLYLINE
  8
gg1
 62
1
 40
0.000000
 41
0.000000
 66
  1
  0
VERTEX
  8
gg1
 10
-0.890000
 20
-0.592500
  0
VERTEX
  8
gg1
 10
-0.890000
 20
-0.577500
  0
SEQEND
  8
gg1
  0
POLYLINE
  8
gg1
 62
1
 40
0.000000
 41
0.000000
 66
  1
  0
VERTEX
  8
gg1
 10
-0.697500
 20
-0.585000
  0
VERTEX
  8
gg1
 10
-0.682500
 20
-0.585000
  0
SEQEND
  8
gg1
  0
POLYLINE
  8
gg1
 62
1
 40
0.000000
 41
0.000000
 66
  1
  0
VERTEX
  8
gg1
 10
-0.690000
 20
-0.592500
  0
VERTEX
  8
gg1
 10
-0.690000
 20
-0.577500
  0
SEQEND
  8
gg1
  0
POLYLINE
  8
gg1
 62
1
 40
0.000000
 41
0.000000
 66
  1
  0
VERTEX
  8
gg1
 10
0.142500
 20
-1.440000
  0
VERTEX
  8
gg1
 10
0.157500
 20
-1.440000
  0
SEQEND
  8
gg1
  0
POLYLINE
  8
gg1
 62
1
 40
0.000000
 41
0.000000
 66
  1
  0
VERTEX
  8
gg1
 10
0.150000
 20
-1.447500
  0
VERTEX
  8
gg1
 10
0.150000
 20
-1.432500
  0
SEQEND
  8
gg1
  0
POLYLINE
  8
gg1
 62
1
 40
0.000000
 41
0.000000
 66
  1
  0
VERTEX
  8
gg1
 10
0.112500
 20
-1.470000
  0
VERTEX
  8
gg1
 10
0.127500
 20
-1.470000
  0
SEQEND
  8
gg1
  0
POLYLINE
  8
gg1
 62
1
 40
0.000000
 41
0.000000
 66
  1
  0
VERTEX
  8
gg1
 10
0.120000
 20
-1.477500
  0
VERTEX
  8
gg1
 10
0.120000
 20
-1.462500
  0
SEQEND
  8
gg1
  0
POLYLINE
  8
gg1
 62
1
 40
0.000000
 41
0.000000
 66
  1
  0
VERTEX
  8
gg1
 10
0.082500
 20
-1.500000
  0
VERTEX
  8
gg1
 10
0.097500
 20
-1.500000
  0
SEQEND
  8
gg1
  0
POLYLINE
  8
gg1
 62
1
 40
0.000000
 41
0.000000
 66
  1
  0
VERTEX
  8
gg1
 10
0.090000
 20
-1.507500
  0
VERTEX
  8
gg1
 10
0.090000
 20
-1.492500
  0
SEQEND
  8
gg1
  0
POLYLINE
  8
gg1
 62
1
 40
0.000000
 41
0.000000
 66
  1
  0
VERTEX
  8
gg1
 10
0.812500
 20
0.490000
  0
VERTEX
  8
gg1
 10
0.827500
 20
0.490000
  0
SEQEND
  8
gg1
  0
POLYLINE
  8
gg1
 62
1
 40
0.000000
 41
0.000000
 66
  1
  0
VERTEX
  8
gg1
 10
0.820000
 20
0.482500
  0
VERTEX
  8
gg1
 10
0.820000
 20
0.497500
  0
SEQEND
  8
gg1
  0
POLYLINE
  8
gg1
 62
1
 40
0.000000
 41
0.000000
 66
  1
  0
VERTEX
  8
gg1
 10
-0.267500
 20
-1.865000
  0
VERTEX
  8
gg1
 10
-0.252500
 20
-1.865000
  0
SEQEND
  8
gg1
  0
POLYLINE
  8
gg1
 62
1
 40
0.000000
 41
0.000000
 66
  1
  0
VERTEX
  8
gg1
 10
-0.260000
 20
-1.872500
  0
VERTEX
  8
gg1
 10
-0.260000
 20
-1.857500
  0
SEQEND
  8
gg1
  0
POLYLINE
  8
gg1
 62
1
 40
0.000000
 41
0.000000
 66
  1
  0
VERTEX
  8
gg1
 10
-2.057500
 20
-1.590000
  0
VERTEX
  8
gg1
 10
-2.042500
 20
-1.590000
  0
SEQEND
  8
gg1
  0
POLYLINE
  8
gg1
 62
1
 40
0.000000
 41
0.000000
 66
  1
  0
VERTEX
  8
gg1
 10
-2.050000
 20
-1.597500
  0
VERTEX
  8
gg1
 10
-2.050000
 20
-1.582500
  0
SEQEND
  8
gg1
  0
POLYLINE
  8
gg1
 62
1
 40
0.000000
 41
0.000000
 66
  1
  0
VERTEX
  8
gg1
 10
1.227500
 20
-1.705000
  0
VERTEX
  8
gg1
 10
1.242500
 20
-1.705000
  0
SEQEND
  8
gg1
  0
POLYLINE
  8
gg1
 62
1
 40
0.000000
 41
0.000000
 66
  1
  0
VERTEX
  8
gg1
 10
1.235000
 20
-1.712500
  0
VERTEX
  8
gg1
 10
1.235000
 20
-1.697500
  0
SEQEND
  8
gg1
  0
POLYLINE
  8
gg1
 62
1
 40
0.000000
 41
0.000000
 66
  1
  0
VERTEX
  8
gg1
 10
1.054500
 20
0.495000
  0
VERTEX
  8
gg1
 10
1.069500
 20
0.495000
  0
SEQEND
  8
gg1
  0
POLYLINE
  8
gg1
 62
1
 40
0.000000
 41
0.000000
 66
  1
  0
VERTEX
  8
gg1
 10
1.062000
 20
0.487500
  0
VERTEX
  8
gg1
 10
1.062000
 20
0.502500
  0
SEQEND
  8
gg1
  0
POLYLINE
  8
gg1
 62
1
 40
0.000000
 41
0.000000
 66
  1
  0
VERTEX
  8
gg1
 10
0.957500
 20
0.290000
  0
VERTEX
  8
gg1
 10
0.972500
 20
0.290000
  0
SEQEND
  8
gg1
  0
POLYLINE
  8
gg1
 62
1
 40
0.000000
 41
0.000000
 66
  1
  0
VERTEX
  8
gg1
 10
0.965000
 20
0.282500
  0
VERTEX
  8
gg1
 10
0.965000
 20
0.297500
  0
SEQEND
  8
gg1
  0
POLYLINE
  8
gg1
 62
1
 40
0.000000
 41
0.000000
 66
  1
  0
VERTEX
  8
gg1
 10
1.897500
 20
-1.660000
  0
VERTEX
  8
gg1
 10
1.912500
 20
-1.660000
  0
SEQEND
  8
gg1
  0
POLYLINE
  8
gg1
 62
1
 40
0.000000
 41
0.000000
 66
  1
  0
VERTEX
  8
gg1
 10
1.905000
 20
-1.667500
  0
VERTEX
  8
gg1
 10
1.905000
 20
-1.652500
  0
SEQEND
  8
gg1
  0
POLYLINE
  8
gg1
 62
1
 40
0.000000
 41
0.000000
 66
  1
  0
VERTEX
  8
gg1
 10
0.957500
 20
-0.035000
  0
VERTEX
  8
gg1
 10
0.972500
 20
-0.035000
  0
SEQEND
  8
gg1
  0
POLYLINE
  8
gg1
 62
1
 40
0.000000
 41
0.000000
 66
  1
  0
VERTEX
  8
gg1
 10
0.965000
 20
-0.042500
  0
VERTEX
  8
gg1
 10
0.965000
 20
-0.027500
  0
SEQEND
  8
gg1
  0
POLYLINE
  8
gg1
 62
1
 40
0.000000
 41
0.000000
 66
  1
  0
VERTEX
  8
gg1
 10
0.957500
 20
0.020000
  0
VERTEX
  8
gg1
 10
0.972500
 20
0.020000
  0
SEQEND
  8
gg1
  0
POLYLINE
  8
gg1
 62
1
 40
0.000000
 41
0.000000
 66
  1
  0
VERTEX
  8
gg1
 10
0.965000
 20
0.012500
  0
VERTEX
  8
gg1
 10
0.965000
 20
0.027500
  0
SEQEND
  8
gg1
  0
POLYLINE
  8
gg1
 62
1
 40
0.000000
 41
0.000000
 66
  1
  0
VERTEX
  8
gg1
 10
1.054500
 20
-0.005000
  0
VERTEX
  8
gg1
 10
1.069500
 20
-0.005000
  0
SEQEND
  8
gg1
  0
POLYLINE
  8
gg1
 62
1
 40
0.000000
 41
0.000000
 66
  1
  0
VERTEX
  8
gg1
 10
1.062000
 20
-0.012500
  0
VERTEX
  8
gg1
 10
1.062000
 20
0.002500
  0
SEQEND
  8
gg1
  0
POLYLINE
  8
gg1
 62
1
 40
0.000000
 41
0.000000
 66
  1
  0
VERTEX
  8
gg1
 10
0.859600
 20
0.095000
  0
VERTEX
  8
gg1
 10
0.874600
 20
0.095000
  0
SEQEND
  8
gg1
  0
POLYLINE
  8
gg1
 62
1
 40
0.000000
 41
0.000000
 66
  1
  0
VERTEX
  8
gg1
 10
0.867100
 20
0.087500
  0
VERTEX
  8
gg1
 10
0.867100
 20
0.102500
  0
SEQEND
  8
gg1
  0
POLYLINE
  8
gg1
 62
1
 40
0.000000
 41
0.000000
 66
  1
  0
VERTEX
  8
gg1
 10
0.859600
 20
-0.520000
  0
VERTEX
  8
gg1
 10
0.874600
 20
-0.520000
  0
SEQEND
  8
gg1
  0
POLYLINE
  8
gg1
 62
1
 40
0.000000
 41
0.000000
 66
  1
  0
VERTEX
  8
gg1
 10
0.867100
 20
-0.527500
  0
VERTEX
  8
gg1
 10
0.867100
 20
-0.512500
  0
SEQEND
  8
gg1
  0
POLYLINE
  8
gg1
 62
1
 40
0.000000
 41
0.000000
 66
  1
  0
VERTEX
  8
gg1
 10
0.859600
 20
-0.600000
  0
VERTEX
  8
gg1
 10
0.874600
 20
-0.600000
  0
SEQEND
  8
gg1
  0
POLYLINE
  8
gg1
 62
1
 40
0.000000
 41
0.000000
 66
  1
  0
VERTEX
  8
gg1
 10
0.867100
 20
-0.607500
  0
VERTEX
  8
gg1
 10
0.867100
 20
-0.592500
  0
SEQEND
  8
gg1
  0
POLYLINE
  8
gg1
 62
1
 40
0.000000
 41
0.000000
 66
  1
  0
VERTEX
  8
gg1
 10
1.537500
 20
0.460000
  0
VERTEX
  8
gg1
 10
1.552500
 20
0.460000
  0
SEQEND
  8
gg1
  0
POLYLINE
  8
gg1
 62
1
 40
0.000000
 41
0.000000
 66
  1
  0
VERTEX
  8
gg1
 10
1.545000
 20
0.452500
  0
VERTEX
  8
gg1
 10
1.545000
 20
0.467500
  0
SEQEND
  8
gg1
  0
POLYLINE
  8
gg1
 62
1
 40
0.000000
 41
0.000000
 66
  1
  0
VERTEX
  8
gg1
 10
1.422500
 20
-0.865000
  0
VERTEX
  8
gg1
 10
1.437500
 20
-0.865000
  0
SEQEND
  8
gg1
  0
POLYLINE
  8
gg1
 62
1
 40
0.000000
 41
0.000000
 66
  1
  0
VERTEX
  8
gg1
 10
1.430000
 20
-0.872500
  0
VERTEX
  8
gg1
 10
1.430000
 20
-0.857500
  0
SEQEND
  8
gg1
  0
POLYLINE
  8
gg1
 62
1
 40
0.000000
 41
0.000000
 66
  1
  0
VERTEX
  8
gg1
 10
1.387500
 20
-0.845000
  0
VERTEX
  8
gg1
 10
1.402500
 20
-0.845000
  0
SEQEND
  8
gg1
  0
POLYLINE
  8
gg1
 62
1
 40
0.000000
 41
0.000000
 66
  1
  0
VERTEX
  8
gg1
 10
1.395000
 20
-0.852500
  0
VERTEX
  8
gg1
 10
1.395000
 20
-0.837500
  0
SEQEND
  8
gg1
  0
POLYLINE
  8
gg1
 62
1
 40
0.000000
 41
0.000000
 66
  1
  0
VERTEX
  8
gg1
 10
0.977500
 20
-0.775000
  0
VERTEX
  8
gg1
 10
0.992500
 20
-0.775000
  0
SEQEND
  8
gg1
  0
POLYLINE
  8
gg1
 62
1
 40
0.000000
 41
0.000000
 66
  1
  0
VERTEX
  8
gg1
 10
0.985000
 20
-0.782500
  0
VERTEX
  8
gg1
 10
0.985000
 20
-0.767500
  0
SEQEND
  8
gg1
  0
POLYLINE
  8
gg1
 62
1
 40
0.000000
 41
0.000000
 66
  1
  0
VERTEX
  8
gg1
 10
0.977500
 20
-0.745000
  0
VERTEX
  8
gg1
 10
0.992500
 20
-0.745000
  0
SEQEND
  8
gg1
  0
POLYLINE
  8
gg1
 62
1
 40
0.000000
 41
0.000000
 66
  1
  0
VERTEX
  8
gg1
 10
0.985000
 20
-0.752500
  0
VERTEX
  8
gg1
 10
0.985000
 20
-0.737500
  0
SEQEND
  8
gg1
  0
POLYLINE
  8
gg1
 62
1
 40
0.000000
 41
0.000000
 66
  1
  0
VERTEX
  8
gg1
 10
0.957500
 20
-0.620000
  0
VERTEX
  8
gg1
 10
0.972500
 20
-0.620000
  0
SEQEND
  8
gg1
  0
POLYLINE
  8
gg1
 62
1
 40
0.000000
 41
0.000000
 66
  1
  0
VERTEX
  8
gg1
 10
0.965000
 20
-0.627500
  0
VERTEX
  8
gg1
 10
0.965000
 20
-0.612500
  0
SEQEND
  8
gg1
  0
POLYLINE
  8
gg1
 62
1
 40
0.000000
 41
0.000000
 66
  1
  0
VERTEX
  8
gg1
 10
0.957500
 20
-0.700000
  0
VERTEX
  8
gg1
 10
0.972500
 20
-0.700000
  0
SEQEND
  8
gg1
  0
POLYLINE
  8
gg1
 62
1
 40
0.000000
 41
0.000000
 66
  1
  0
VERTEX
  8
gg1
 10
0.965000
 20
-0.707500
  0
VERTEX
  8
gg1
 10
0.965000
 20
-0.692500
  0
SEQEND
  8
gg1
  0
POLYLINE
  8
gg1
 62
1
 40
0.000000
 41
0.000000
 66
  1
  0
VERTEX
  8
gg1
 10
1.502500
 20
-1.680000
  0
VERTEX
  8
gg1
 10
1.517500
 20
-1.680000
  0
SEQEND
  8
gg1
  0
POLYLINE
  8
gg1
 62
1
 40
0.000000
 41
0.000000
 66
  1
  0
VERTEX
  8
gg1
 10
1.510000
 20
-1.687500
  0
VERTEX
  8
gg1
 10
1.510000
 20
-1.672500
  0
SEQEND
  8
gg1
  0
POLYLINE
  8
gg1
 62
1
 40
0.000000
 41
0.000000
 66
  1
  0
VERTEX
  8
gg1
 10
1.477500
 20
-1.740000
  0
VERTEX
  8
gg1
 10
1.492500
 20
-1.740000
  0
SEQEND
  8
gg1
  0
POLYLINE
  8
gg1
 62
1
 40
0.000000
 41
0.000000
 66
  1
  0
VERTEX
  8
gg1
 10
1.485000
 20
-1.747500
  0
VERTEX
  8
gg1
 10
1.485000
 20
-1.732500
  0
SEQEND
  8
gg1
  0
POLYLINE
  8
gg1
 62
1
 40
0.000000
 41
0.000000
 66
  1
  0
VERTEX
  8
gg1
 10
1.977500
 20
-1.775000
  0
VERTEX
  8
gg1
 10
1.992500
 20
-1.775000
  0
SEQEND
  8
gg1
  0
POLYLINE
  8
gg1
 62
1
 40
0.000000
 41
0.000000
 66
  1
  0
VERTEX
  8
gg1
 10
1.985000
 20
-1.782500
  0
VERTEX
  8
gg1
 10
1.985000
 20
-1.767500
  0
SEQEND
  8
gg1
  0
POLYLINE
  8
gg1
 62
1
 40
0.000000
 41
0.000000
 66
  1
  0
VERTEX
  8
gg1
 10
0.937500
 20
-0.660000
  0
VERTEX
  8
gg1
 10
0.952500
 20
-0.660000
  0
SEQEND
  8
gg1
  0
POLYLINE
  8
gg1
 62
1
 40
0.000000
 41
0.000000
 66
  1
  0
VERTEX
  8
gg1
 10
0.945000
 20
-0.667500
  0
VERTEX
  8
gg1
 10
0.945000
 20
-0.652500
  0
SEQEND
  8
gg1
  0
POLYLINE
  8
gg1
 62
1
 40
0.000000
 41
0.000000
 66
  1
  0
VERTEX
  8
gg1
 10
1.357500
 20
-0.465000
  0
VERTEX
  8
gg1
 10
1.372500
 20
-0.465000
  0
SEQEND
  8
gg1
  0
POLYLINE
  8
gg1
 62
1
 40
0.000000
 41
0.000000
 66
  1
  0
VERTEX
  8
gg1
 10
1.365000
 20
-0.472500
  0
VERTEX
  8
gg1
 10
1.365000
 20
-0.457500
  0
SEQEND
  8
gg1
  0
POLYLINE
  8
gg1
 62
1
 40
0.000000
 41
0.000000
 66
  1
  0
VERTEX
  8
gg1
 10
0.859600
 20
-0.915000
  0
VERTEX
  8
gg1
 10
0.874600
 20
-0.915000
  0
SEQEND
  8
gg1
  0
POLYLINE
  8
gg1
 62
1
 40
0.000000
 41
0.000000
 66
  1
  0
VERTEX
  8
gg1
 10
0.867100
 20
-0.922500
  0
VERTEX
  8
gg1
 10
0.867100
 20
-0.907500
  0
SEQEND
  8
gg1
  0
POLYLINE
  8
gg1
 62
1
 40
0.000000
 41
0.000000
 66
  1
  0
VERTEX
  8
gg1
 10
0.737500
 20
-0.700000
  0
VERTEX
  8
gg1
 10
0.752500
 20
-0.700000
  0
SEQEND
  8
gg1
  0
POLYLINE
  8
gg1
 62
1
 40
0.000000
 41
0.000000
 66
  1
  0
VERTEX
  8
gg1
 10
0.745000
 20
-0.707500
  0
VERTEX
  8
gg1
 10
0.745000
 20
-0.692500
  0
SEQEND
  8
gg1
  0
POLYLINE
  8
gg1
 62
1
 40
0.000000
 41
0.000000
 66
  1
  0
VERTEX
  8
gg1
 10
0.977500
 20
-0.375000
  0
VERTEX
  8
gg1
 10
0.992500
 20
-0.375000
  0
SEQEND
  8
gg1
  0
POLYLINE
  8
gg1
 62
1
 40
0.000000
 41
0.000000
 66
  1
  0
VERTEX
  8
gg1
 10
0.985000
 20
-0.382500
  0
VERTEX
  8
gg1
 10
0.985000
 20
-0.367500
  0
SEQEND
  8
gg1
  0
POLYLINE
  8
gg1
 62
1
 40
0.000000
 41
0.000000
 66
  1
  0
VERTEX
  8
gg1
 10
0.977500
 20
-0.345000
  0
VERTEX
  8
gg1
 10
0.992500
 20
-0.345000
  0
SEQEND
  8
gg1
  0
POLYLINE
  8
gg1
 62
1
 40
0.000000
 41
0.000000
 66
  1
  0
VERTEX
  8
gg1
 10
0.985000
 20
-0.352500
  0
VERTEX
  8
gg1
 10
0.985000
 20
-0.337500
  0
SEQEND
  8
gg1
  0
POLYLINE
  8
gg1
 62
1
 40
0.000000
 41
0.000000
 66
  1
  0
VERTEX
  8
gg1
 10
0.859600
 20
-0.405000
  0
VERTEX
  8
gg1
 10
0.874600
 20
-0.405000
  0
SEQEND
  8
gg1
  0
POLYLINE
  8
gg1
 62
1
 40
0.000000
 41
0.000000
 66
  1
  0
VERTEX
  8
gg1
 10
0.867100
 20
-0.412500
  0
VERTEX
  8
gg1
 10
0.867100
 20
-0.397500
  0
SEQEND
  8
gg1
  0
POLYLINE
  8
gg1
 62
1
 40
0.000000
 41
0.000000
 66
  1
  0
VERTEX
  8
gg1
 10
0.937500
 20
-0.260000
  0
VERTEX
  8
gg1
 10
0.952500
 20
-0.260000
  0
SEQEND
  8
gg1
  0
POLYLINE
  8
gg1
 62
1
 40
0.000000
 41
0.000000
 66
  1
  0
VERTEX
  8
gg1
 10
0.945000
 20
-0.267500
  0
VERTEX
  8
gg1
 10
0.945000
 20
-0.252500
  0
SEQEND
  8
gg1
  0
POLYLINE
  8
gg1
 62
1
 40
0.000000
 41
0.000000
 66
  1
  0
VERTEX
  8
gg1
 10
0.937500
 20
-0.460000
  0
VERTEX
  8
gg1
 10
0.952500
 20
-0.460000
  0
SEQEND
  8
gg1
  0
POLYLINE
  8
gg1
 62
1
 40
0.000000
 41
0.000000
 66
  1
  0
VERTEX
  8
gg1
 10
0.945000
 20
-0.467500
  0
VERTEX
  8
gg1
 10
0.945000
 20
-0.452500
  0
SEQEND
  8
gg1
  0
POLYLINE
  8
gg1
 62
1
 40
0.000000
 41
0.000000
 66
  1
  0
VERTEX
  8
gg1
 10
1.297500
 20
-0.410000
  0
VERTEX
  8
gg1
 10
1.312500
 20
-0.410000
  0
SEQEND
  8
gg1
  0
POLYLINE
  8
gg1
 62
1
 40
0.000000
 41
0.000000
 66
  1
  0
VERTEX
  8
gg1
 10
1.305000
 20
-0.417500
  0
VERTEX
  8
gg1
 10
1.305000
 20
-0.402500
  0
SEQEND
  8
gg1
  0
POLYLINE
  8
gg1
 62
1
 40
0.000000
 41
0.000000
 66
  1
  0
VERTEX
  8
gg1
 10
1.287500
 20
-0.350000
  0
VERTEX
  8
gg1
 10
1.302500
 20
-0.350000
  0
SEQEND
  8
gg1
  0
POLYLINE
  8
gg1
 62
1
 40
0.000000
 41
0.000000
 66
  1
  0
VERTEX
  8
gg1
 10
1.295000
 20
-0.357500
  0
VERTEX
  8
gg1
 10
1.295000
 20
-0.342500
  0
SEQEND
  8
gg1
  0
POLYLINE
  8
gg1
 62
1
 40
0.000000
 41
0.000000
 66
  1
  0
VERTEX
  8
gg1
 10
0.937500
 20
0.540000
  0
VERTEX
  8
gg1
 10
0.952500
 20
0.540000
  0
SEQEND
  8
gg1
  0
POLYLINE
  8
gg1
 62
1
 40
0.000000
 41
0.000000
 66
  1
  0
VERTEX
  8
gg1
 10
0.945000
 20
0.532500
  0
VERTEX
  8
gg1
 10
0.945000
 20
0.547500
  0
SEQEND
  8
gg1
  0
POLYLINE
  8
gg1
 62
1
 40
0.000000
 41
0.000000
 66
  1
  0
VERTEX
  8
gg1
 10
0.859600
 20
0.485000
  0
VERTEX
  8
gg1
 10
0.874600
 20
0.485000
  0
SEQEND
  8
gg1
  0
POLYLINE
  8
gg1
 62
1
 40
0.000000
 41
0.000000
 66
  1
  0
VERTEX
  8
gg1
 10
0.867100
 20
0.477500
  0
VERTEX
  8
gg1
 10
0.867100
 20
0.492500
  0
SEQEND
  8
gg1
  0
POLYLINE
  8
gg1
 62
1
 40
0.000000
 41
0.000000
 66
  1
  0
VERTEX
  8
gg1
 10
1.054500
 20
-0.705000
  0
VERTEX
  8
gg1
 10
1.069500
 20
-0.705000
  0
SEQEND
  8
gg1
  0
POLYLINE
  8
gg1
 62
1
 40
0.000000
 41
0.000000
 66
  1
  0
VERTEX
  8
gg1
 10
1.062000
 20
-0.712500
  0
VERTEX
  8
gg1
 10
1.062000
 20
-0.697500
  0
SEQEND
  8
gg1
  0
POLYLINE
  8
gg1
 62
1
 40
0.000000
 41
0.000000
 66
  1
  0
VERTEX
  8
gg1
 10
1.322500
 20
-0.380000
  0
VERTEX
  8
gg1
 10
1.337500
 20
-0.380000
  0
SEQEND
  8
gg1
  0
POLYLINE
  8
gg1
 62
1
 40
0.000000
 41
0.000000
 66
  1
  0
VERTEX
  8
gg1
 10
1.330000
 20
-0.387500
  0
VERTEX
  8
gg1
 10
1.330000
 20
-0.372500
  0
SEQEND
  8
gg1
  0
POLYLINE
  8
gg1
 62
1
 40
0.000000
 41
0.000000
 66
  1
  0
VERTEX
  8
gg1
 10
0.859600
 20
-0.105000
  0
VERTEX
  8
gg1
 10
0.874600
 20
-0.105000
  0
SEQEND
  8
gg1
  0
POLYLINE
  8
gg1
 62
1
 40
0.000000
 41
0.000000
 66
  1
  0
VERTEX
  8
gg1
 10
0.867100
 20
-0.112500
  0
VERTEX
  8
gg1
 10
0.867100
 20
-0.097500
  0
SEQEND
  8
gg1
  0
POLYLINE
  8
gg1
 62
1
 40
0.000000
 41
0.000000
 66
  1
  0
VERTEX
  8
gg1
 10
1.054500
 20
0.095000
  0
VERTEX
  8
gg1
 10
1.069500
 20
0.095000
  0
SEQEND
  8
gg1
  0
POLYLINE
  8
gg1
 62
1
 40
0.000000
 41
0.000000
 66
  1
  0
VERTEX
  8
gg1
 10
1.062000
 20
0.087500
  0
VERTEX
  8
gg1
 10
1.062000
 20
0.102500
  0
SEQEND
  8
gg1
  0
POLYLINE
  8
gg1
 62
1
 40
0.000000
 41
0.000000
 66
  1
  0
VERTEX
  8
gg1
 10
0.859600
 20
-0.005000
  0
VERTEX
  8
gg1
 10
0.874600
 20
-0.005000
  0
SEQEND
  8
gg1
  0
POLYLINE
  8
gg1
 62
1
 40
0.000000
 41
0.000000
 66
  1
  0
VERTEX
  8
gg1
 10
0.867100
 20
-0.012500
  0
VERTEX
  8
gg1
 10
0.867100
 20
0.002500
  0
SEQEND
  8
gg1
  0
POLYLINE
  8
gg1
 62
1
 40
0.000000
 41
0.000000
 66
  1
  0
VERTEX
  8
gg1
 10
1.257900
 20
-0.320000
  0
VERTEX
  8
gg1
 10
1.272900
 20
-0.320000
  0
SEQEND
  8
gg1
  0
POLYLINE
  8
gg1
 62
1
 40
0.000000
 41
0.000000
 66
  1
  0
VERTEX
  8
gg1
 10
1.265400
 20
-0.327500
  0
VERTEX
  8
gg1
 10
1.265400
 20
-0.312500
  0
SEQEND
  8
gg1
  0
POLYLINE
  8
gg1
 62
1
 40
0.000000
 41
0.000000
 66
  1
  0
VERTEX
  8
gg1
 10
1.537500
 20
0.415000
  0
VERTEX
  8
gg1
 10
1.552500
 20
0.415000
  0
SEQEND
  8
gg1
  0
POLYLINE
  8
gg1
 62
1
 40
0.000000
 41
0.000000
 66
  1
  0
VERTEX
  8
gg1
 10
1.545000
 20
0.407500
  0
VERTEX
  8
gg1
 10
1.545000
 20
0.422500
  0
SEQEND
  8
gg1
  0
POLYLINE
  8
gg1
 62
1
 40
0.000000
 41
0.000000
 66
  1
  0
VERTEX
  8
gg1
 10
1.327500
 20
-0.440000
  0
VERTEX
  8
gg1
 10
1.342500
 20
-0.440000
  0
SEQEND
  8
gg1
  0
POLYLINE
  8
gg1
 62
1
 40
0.000000
 41
0.000000
 66
  1
  0
VERTEX
  8
gg1
 10
1.335000
 20
-0.447500
  0
VERTEX
  8
gg1
 10
1.335000
 20
-0.432500
  0
SEQEND
  8
gg1
  0
POLYLINE
  8
gg1
 62
1
 40
0.000000
 41
0.000000
 66
  1
  0
VERTEX
  8
gg1
 10
1.297500
 20
-0.470000
  0
VERTEX
  8
gg1
 10
1.312500
 20
-0.470000
  0
SEQEND
  8
gg1
  0
POLYLINE
  8
gg1
 62
1
 40
0.000000
 41
0.000000
 66
  1
  0
VERTEX
  8
gg1
 10
1.305000
 20
-0.477500
  0
VERTEX
  8
gg1
 10
1.305000
 20
-0.462500
  0
SEQEND
  8
gg1
  0
POLYLINE
  8
gg1
 62
1
 40
0.000000
 41
0.000000
 66
  1
  0
VERTEX
  8
gg1
 10
1.197500
 20
-0.410000
  0
VERTEX
  8
gg1
 10
1.212500
 20
-0.410000
  0
SEQEND
  8
gg1
  0
POLYLINE
  8
gg1
 62
1
 40
0.000000
 41
0.000000
 66
  1
  0
VERTEX
  8
gg1
 10
1.205000
 20
-0.417500
  0
VERTEX
  8
gg1
 10
1.205000
 20
-0.402500
  0
SEQEND
  8
gg1
  0
POLYLINE
  8
gg1
 62
1
 40
0.000000
 41
0.000000
 66
  1
  0
VERTEX
  8
gg1
 10
1.054500
 20
-0.205000
  0
VERTEX
  8
gg1
 10
1.069500
 20
-0.205000
  0
SEQEND
  8
gg1
  0
POLYLINE
  8
gg1
 62
1
 40
0.000000
 41
0.000000
 66
  1
  0
VERTEX
  8
gg1
 10
1.062000
 20
-0.212500
  0
VERTEX
  8
gg1
 10
1.062000
 20
-0.197500
  0
SEQEND
  8
gg1
  0
POLYLINE
  8
gg1
 62
1
 40
0.000000
 41
0.000000
 66
  1
  0
VERTEX
  8
gg1
 10
1.137500
 20
-0.410000
  0
VERTEX
  8
gg1
 10
1.152500
 20
-0.410000
  0
SEQEND
  8
gg1
  0
POLYLINE
  8
gg1
 62
1
 40
0.000000
 41
0.000000
 66
  1
  0
VERTEX
  8
gg1
 10
1.145000
 20
-0.417500
  0
VERTEX
  8
gg1
 10
1.145000
 20
-0.402500
  0
SEQEND
  8
gg1
  0
POLYLINE
  8
gg1
 62
1
 40
0.000000
 41
0.000000
 66
  1
  0
VERTEX
  8
gg1
 10
1.017100
 20
-0.910000
  0
VERTEX
  8
gg1
 10
1.032100
 20
-0.910000
  0
SEQEND
  8
gg1
  0
POLYLINE
  8
gg1
 62
1
 40
0.000000
 41
0.000000
 66
  1
  0
VERTEX
  8
gg1
 10
1.024600
 20
-0.917500
  0
VERTEX
  8
gg1
 10
1.024600
 20
-0.902500
  0
SEQEND
  8
gg1
  0
POLYLINE
  8
gg1
 62
1
 40
0.000000
 41
0.000000
 66
  1
  0
VERTEX
  8
gg1
 10
0.815000
 20
-1.265000
  0
VERTEX
  8
gg1
 10
0.830000
 20
-1.265000
  0
SEQEND
  8
gg1
  0
POLYLINE
  8
gg1
 62
1
 40
0.000000
 41
0.000000
 66
  1
  0
VERTEX
  8
gg1
 10
0.822500
 20
-1.272500
  0
VERTEX
  8
gg1
 10
0.822500
 20
-1.257500
  0
SEQEND
  8
gg1
  0
POLYLINE
  8
gg1
 62
1
 40
0.000000
 41
0.000000
 66
  1
  0
VERTEX
  8
gg1
 10
0.052500
 20
-1.525000
  0
VERTEX
  8
gg1
 10
0.067500
 20
-1.525000
  0
SEQEND
  8
gg1
  0
POLYLINE
  8
gg1
 62
1
 40
0.000000
 41
0.000000
 66
  1
  0
VERTEX
  8
gg1
 10
0.060000
 20
-1.532500
  0
VERTEX
  8
gg1
 10
0.060000
 20
-1.517500
  0
SEQEND
  8
gg1
  0
POLYLINE
  8
gg1
 62
1
 40
0.000000
 41
0.000000
 66
  1
  0
VERTEX
  8
gg1
 10
-1.212500
 20
-1.150000
  0
VERTEX
  8
gg1
 10
-1.197500
 20
-1.150000
  0
SEQEND
  8
gg1
  0
POLYLINE
  8
gg1
 62
1
 40
0.000000
 41
0.000000
 66
  1
  0
VERTEX
  8
gg1
 10
-1.205000
 20
-1.157500
  0
VERTEX
  8
gg1
 10
-1.205000
 20
-1.142500
  0
SEQEND
  8
gg1
  0
POLYLINE
  8
gg1
 62
1
 40
0.000000
 41
0.000000
 66
  1
  0
VERTEX
  8
gg1
 10
-1.132500
 20
-1.150000
  0
VERTEX
  8
gg1
 10
-1.117500
 20
-1.150000
  0
SEQEND
  8
gg1
  0
POLYLINE
  8
gg1
 62
1
 40
0.000000
 41
0.000000
 66
  1
  0
VERTEX
  8
gg1
 10
-1.125000
 20
-1.157500
  0
VERTEX
  8
gg1
 10
-1.125000
 20
-1.142500
  0
SEQEND
  8
gg1
  0
POLYLINE
  8
gg1
 62
1
 40
0.000000
 41
0.000000
 66
  1
  0
VERTEX
  8
gg1
 10
-1.172500
 20
-1.160000
  0
VERTEX
  8
gg1
 10
-1.157500
 20
-1.160000
  0
SEQEND
  8
gg1
  0
POLYLINE
  8
gg1
 62
1
 40
0.000000
 41
0.000000
 66
  1
  0
VERTEX
  8
gg1
 10
-1.165000
 20
-1.167500
  0
VERTEX
  8
gg1
 10
-1.165000
 20
-1.152500
  0
SEQEND
  8
gg1
  0
POLYLINE
  8
gg1
 62
1
 40
0.000000
 41
0.000000
 66
  1
  0
VERTEX
  8
gg1
 10
-1.157500
 20
-1.135000
  0
VERTEX
  8
gg1
 10
-1.142500
 20
-1.135000
  0
SEQEND
  8
gg1
  0
POLYLINE
  8
gg1
 62
1
 40
0.000000
 41
0.000000
 66
  1
  0
VERTEX
  8
gg1
 10
-1.150000
 20
-1.142500
  0
VERTEX
  8
gg1
 10
-1.150000
 20
-1.127500
  0
SEQEND
  8
gg1
  0
POLYLINE
  8
gg1
 62
1
 40
0.000000
 41
0.000000
 66
  1
  0
VERTEX
  8
gg1
 10
-1.187500
 20
-1.135000
  0
VERTEX
  8
gg1
 10
-1.172500
 20
-1.135000
  0
SEQEND
  8
gg1
  0
POLYLINE
  8
gg1
 62
1
 40
0.000000
 41
0.000000
 66
  1
  0
VERTEX
  8
gg1
 10
-1.180000
 20
-1.142500
  0
VERTEX
  8
gg1
 10
-1.180000
 20
-1.127500
  0
SEQEND
  8
gg1
  0
POLYLINE
  8
gg1
 62
1
 40
0.000000
 41
0.000000
 66
  1
  0
VERTEX
  8
gg1
 10
-1.172500
 20
-1.110000
  0
VERTEX
  8
gg1
 10
-1.157500
 20
-1.110000
  0
SEQEND
  8
gg1
  0
POLYLINE
  8
gg1
 62
1
 40
0.000000
 41
0.000000
 66
  1
  0
VERTEX
  8
gg1
 10
-1.165000
 20
-1.117500
  0
VERTEX
  8
gg1
 10
-1.165000
 20
-1.102500
  0
SEQEND
  8
gg1
  0
POLYLINE
  8
gg1
 62
1
 40
0.000000
 41
0.000000
 66
  1
  0
VERTEX
  8
gg1
 10
-1.142500
 20
-1.110000
  0
VERTEX
  8
gg1
 10
-1.127500
 20
-1.110000
  0
SEQEND
  8
gg1
  0
POLYLINE
  8
gg1
 62
1
 40
0.000000
 41
0.000000
 66
  1
  0
VERTEX
  8
gg1
 10
-1.135000
 20
-1.117500
  0
VERTEX
  8
gg1
 10
-1.135000
 20
-1.102500
  0
SEQEND
  8
gg1
  0
POLYLINE
  8
gg1
 62
1
 40
0.000000
 41
0.000000
 66
  1
  0
VERTEX
  8
gg1
 10
-1.202500
 20
-1.110000
  0
VERTEX
  8
gg1
 10
-1.187500
 20
-1.110000
  0
SEQEND
  8
gg1
  0
POLYLINE
  8
gg1
 62
1
 40
0.000000
 41
0.000000
 66
  1
  0
VERTEX
  8
gg1
 10
-1.195000
 20
-1.117500
  0
VERTEX
  8
gg1
 10
-1.195000
 20
-1.102500
  0
SEQEND
  8
gg1
  0
POLYLINE
  8
gg1
 62
1
 40
0.000000
 41
0.000000
 66
  1
  0
VERTEX
  8
gg1
 10
-1.442500
 20
-1.035000
  0
VERTEX
  8
gg1
 10
-1.427500
 20
-1.035000
  0
SEQEND
  8
gg1
  0
POLYLINE
  8
gg1
 62
1
 40
0.000000
 41
0.000000
 66
  1
  0
VERTEX
  8
gg1
 10
-1.435000
 20
-1.042500
  0
VERTEX
  8
gg1
 10
-1.435000
 20
-1.027500
  0
SEQEND
  8
gg1
  0
POLYLINE
  8
gg1
 62
1
 40
0.000000
 41
0.000000
 66
  1
  0
VERTEX
  8
gg1
 10
-1.252500
 20
-1.140000
  0
VERTEX
  8
gg1
 10
-1.237500
 20
-1.140000
  0
SEQEND
  8
gg1
  0
POLYLINE
  8
gg1
 62
1
 40
0.000000
 41
0.000000
 66
  1
  0
VERTEX
  8
gg1
 10
-1.245000
 20
-1.147500
  0
VERTEX
  8
gg1
 10
-1.245000
 20
-1.132500
  0
SEQEND
  8
gg1
  0
POLYLINE
  8
gg1
 62
1
 40
0.000000
 41
0.000000
 66
  1
  0
VERTEX
  8
gg1
 10
-1.512500
 20
-0.920000
  0
VERTEX
  8
gg1
 10
-1.497500
 20
-0.920000
  0
SEQEND
  8
gg1
  0
POLYLINE
  8
gg1
 62
1
 40
0.000000
 41
0.000000
 66
  1
  0
VERTEX
  8
gg1
 10
-1.505000
 20
-0.927500
  0
VERTEX
  8
gg1
 10
-1.505000
 20
-0.912500
  0
SEQEND
  8
gg1
  0
POLYLINE
  8
gg1
 62
1
 40
0.000000
 41
0.000000
 66
  1
  0
VERTEX
  8
gg1
 10
-1.342500
 20
-0.993000
  0
VERTEX
  8
gg1
 10
-1.327500
 20
-0.993000
  0
SEQEND
  8
gg1
  0
POLYLINE
  8
gg1
 62
1
 40
0.000000
 41
0.000000
 66
  1
  0
VERTEX
  8
gg1
 10
-1.335000
 20
-1.000500
  0
VERTEX
  8
gg1
 10
-1.335000
 20
-0.985500
  0
SEQEND
  8
gg1
  0
POLYLINE
  8
gg1
 62
1
 40
0.000000
 41
0.000000
 66
  1
  0
VERTEX
  8
gg1
 10
-0.687500
 20
-1.310000
  0
VERTEX
  8
gg1
 10
-0.672500
 20
-1.310000
  0
SEQEND
  8
gg1
  0
POLYLINE
  8
gg1
 62
1
 40
0.000000
 41
0.000000
 66
  1
  0
VERTEX
  8
gg1
 10
-0.680000
 20
-1.317500
  0
VERTEX
  8
gg1
 10
-0.680000
 20
-1.302500
  0
SEQEND
  8
gg1
  0
POLYLINE
  8
gg1
 62
1
 40
0.000000
 41
0.000000
 66
  1
  0
VERTEX
  8
gg1
 10
-0.792500
 20
-1.205000
  0
VERTEX
  8
gg1
 10
-0.777500
 20
-1.205000
  0
SEQEND
  8
gg1
  0
POLYLINE
  8
gg1
 62
1
 40
0.000000
 41
0.000000
 66
  1
  0
VERTEX
  8
gg1
 10
-0.785000
 20
-1.212500
  0
VERTEX
  8
gg1
 10
-0.785000
 20
-1.197500
  0
SEQEND
  8
gg1
  0
POLYLINE
  8
gg1
 62
1
 40
0.000000
 41
0.000000
 66
  1
  0
VERTEX
  8
gg1
 10
-1.082500
 20
-1.045000
  0
VERTEX
  8
gg1
 10
-1.067500
 20
-1.045000
  0
SEQEND
  8
gg1
  0
POLYLINE
  8
gg1
 62
1
 40
0.000000
 41
0.000000
 66
  1
  0
VERTEX
  8
gg1
 10
-1.075000
 20
-1.052500
  0
VERTEX
  8
gg1
 10
-1.075000
 20
-1.037500
  0
SEQEND
  8
gg1
  0
POLYLINE
  8
gg1
 62
1
 40
0.000000
 41
0.000000
 66
  1
  0
VERTEX
  8
gg1
 10
-0.802500
 20
-1.165000
  0
VERTEX
  8
gg1
 10
-0.787500
 20
-1.165000
  0
SEQEND
  8
gg1
  0
POLYLINE
  8
gg1
 62
1
 40
0.000000
 41
0.000000
 66
  1
  0
VERTEX
  8
gg1
 10
-0.795000
 20
-1.172500
  0
VERTEX
  8
gg1
 10
-0.795000
 20
-1.157500
  0
SEQEND
  8
gg1
  0
POLYLINE
  8
gg1
 62
1
 40
0.000000
 41
0.000000
 66
  1
  0
VERTEX
  8
gg1
 10
-1.802500
 20
-1.355000
  0
VERTEX
  8
gg1
 10
-1.787500
 20
-1.355000
  0
SEQEND
  8
gg1
  0
POLYLINE
  8
gg1
 62
1
 40
0.000000
 41
0.000000
 66
  1
  0
VERTEX
  8
gg1
 10
-1.795000
 20
-1.362500
  0
VERTEX
  8
gg1
 10
-1.795000
 20
-1.347500
  0
SEQEND
  8
gg1
  0
POLYLINE
  8
gg1
 62
1
 40
0.000000
 41
0.000000
 66
  1
  0
VERTEX
  8
gg1
 10
-1.777500
 20
-1.370000
  0
VERTEX
  8
gg1
 10
-1.762500
 20
-1.370000
  0
SEQEND
  8
gg1
  0
POLYLINE
  8
gg1
 62
1
 40
0.000000
 41
0.000000
 66
  1
  0
VERTEX
  8
gg1
 10
-1.770000
 20
-1.377500
  0
VERTEX
  8
gg1
 10
-1.770000
 20
-1.362500
  0
SEQEND
  8
gg1
  0
POLYLINE
  8
gg1
 62
1
 40
0.000000
 41
0.000000
 66
  1
  0
VERTEX
  8
gg1
 10
-1.742500
 20
-0.555000
  0
VERTEX
  8
gg1
 10
-1.727500
 20
-0.555000
  0
SEQEND
  8
gg1
  0
POLYLINE
  8
gg1
 62
1
 40
0.000000
 41
0.000000
 66
  1
  0
VERTEX
  8
gg1
 10
-1.735000
 20
-0.562500
  0
VERTEX
  8
gg1
 10
-1.735000
 20
-0.547500
  0
SEQEND
  8
gg1
  0
POLYLINE
  8
gg1
 62
1
 40
0.000000
 41
0.000000
 66
  1
  0
VERTEX
  8
gg1
 10
-1.787500
 20
-0.530000
  0
VERTEX
  8
gg1
 10
-1.772500
 20
-0.530000
  0
SEQEND
  8
gg1
  0
POLYLINE
  8
gg1
 62
1
 40
0.000000
 41
0.000000
 66
  1
  0
VERTEX
  8
gg1
 10
-1.780000
 20
-0.537500
  0
VERTEX
  8
gg1
 10
-1.780000
 20
-0.522500
  0
SEQEND
  8
gg1
  0
POLYLINE
  8
gg1
 62
1
 40
0.000000
 41
0.000000
 66
  1
  0
VERTEX
  8
gg1
 10
-1.772500
 20
-0.555000
  0
VERTEX
  8
gg1
 10
-1.757500
 20
-0.555000
  0
SEQEND
  8
gg1
  0
POLYLINE
  8
gg1
 62
1
 40
0.000000
 41
0.000000
 66
  1
  0
VERTEX
  8
gg1
 10
-1.765000
 20
-0.562500
  0
VERTEX
  8
gg1
 10
-1.765000
 20
-0.547500
  0
SEQEND
  8
gg1
  0
POLYLINE
  8
gg1
 62
1
 40
0.000000
 41
0.000000
 66
  1
  0
VERTEX
  8
gg1
 10
-1.832500
 20
-0.560000
  0
VERTEX
  8
gg1
 10
-1.817500
 20
-0.560000
  0
SEQEND
  8
gg1
  0
POLYLINE
  8
gg1
 62
1
 40
0.000000
 41
0.000000
 66
  1
  0
VERTEX
  8
gg1
 10
-1.825000
 20
-0.567500
  0
VERTEX
  8
gg1
 10
-1.825000
 20
-0.552500
  0
SEQEND
  8
gg1
  0
POLYLINE
  8
gg1
 62
1
 40
0.000000
 41
0.000000
 66
  1
  0
VERTEX
  8
gg1
 10
-1.862500
 20
-0.560000
  0
VERTEX
  8
gg1
 10
-1.847500
 20
-0.560000
  0
SEQEND
  8
gg1
  0
POLYLINE
  8
gg1
 62
1
 40
0.000000
 41
0.000000
 66
  1
  0
VERTEX
  8
gg1
 10
-1.855000
 20
-0.567500
  0
VERTEX
  8
gg1
 10
-1.855000
 20
-0.552500
  0
SEQEND
  8
gg1
  0
POLYLINE
  8
gg1
 62
1
 40
0.000000
 41
0.000000
 66
  1
  0
VERTEX
  8
gg1
 10
-1.862500
 20
-0.590000
  0
VERTEX
  8
gg1
 10
-1.847500
 20
-0.590000
  0
SEQEND
  8
gg1
  0
POLYLINE
  8
gg1
 62
1
 40
0.000000
 41
0.000000
 66
  1
  0
VERTEX
  8
gg1
 10
-1.855000
 20
-0.597500
  0
VERTEX
  8
gg1
 10
-1.855000
 20
-0.582500
  0
SEQEND
  8
gg1
  0
POLYLINE
  8
gg1
 62
1
 40
0.000000
 41
0.000000
 66
  1
  0
VERTEX
  8
gg1
 10
-1.802500
 20
-0.555000
  0
VERTEX
  8
gg1
 10
-1.787500
 20
-0.555000
  0
SEQEND
  8
gg1
  0
POLYLINE
  8
gg1
 62
1
 40
0.000000
 41
0.000000
 66
  1
  0
VERTEX
  8
gg1
 10
-1.795000
 20
-0.562500
  0
VERTEX
  8
gg1
 10
-1.795000
 20
-0.547500
  0
SEQEND
  8
gg1
  0
POLYLINE
  8
gg1
 62
1
 40
0.000000
 41
0.000000
 66
  1
  0
VERTEX
  8
gg1
 10
-1.842500
 20
-1.370000
  0
VERTEX
  8
gg1
 10
-1.827500
 20
-1.370000
  0
SEQEND
  8
gg1
  0
POLYLINE
  8
gg1
 62
1
 40
0.000000
 41
0.000000
 66
  1
  0
VERTEX
  8
gg1
 10
-1.835000
 20
-1.377500
  0
VERTEX
  8
gg1
 10
-1.835000
 20
-1.362500
  0
SEQEND
  8
gg1
  0
POLYLINE
  8
gg1
 62
1
 40
0.000000
 41
0.000000
 66
  1
  0
VERTEX
  8
gg1
 10
-1.802500
 20
-1.385000
  0
VERTEX
  8
gg1
 10
-1.787500
 20
-1.385000
  0
SEQEND
  8
gg1
  0
POLYLINE
  8
gg1
 62
1
 40
0.000000
 41
0.000000
 66
  1
  0
VERTEX
  8
gg1
 10
-1.795000
 20
-1.392500
  0
VERTEX
  8
gg1
 10
-1.795000
 20
-1.377500
  0
SEQEND
  8
gg1
  0
POLYLINE
  8
gg1
 62
1
 40
0.000000
 41
0.000000
 66
  1
  0
VERTEX
  8
gg1
 10
-1.752500
 20
-1.325000
  0
VERTEX
  8
gg1
 10
-1.737500
 20
-1.325000
  0
SEQEND
  8
gg1
  0
POLYLINE
  8
gg1
 62
1
 40
0.000000
 41
0.000000
 66
  1
  0
VERTEX
  8
gg1
 10
-1.745000
 20
-1.332500
  0
VERTEX
  8
gg1
 10
-1.745000
 20
-1.317500
  0
SEQEND
  8
gg1
  0
POLYLINE
  8
gg1
 62
1
 40
0.000000
 41
0.000000
 66
  1
  0
VERTEX
  8
gg1
 10
-1.777500
 20
-1.340000
  0
VERTEX
  8
gg1
 10
-1.762500
 20
-1.340000
  0
SEQEND
  8
gg1
  0
POLYLINE
  8
gg1
 62
1
 40
0.000000
 41
0.000000
 66
  1
  0
VERTEX
  8
gg1
 10
-1.770000
 20
-1.347500
  0
VERTEX
  8
gg1
 10
-1.770000
 20
-1.332500
  0
SEQEND
  8
gg1
  0
POLYLINE
  8
gg1
 62
1
 40
0.000000
 41
0.000000
 66
  1
  0
VERTEX
  8
gg1
 10
-1.752500
 20
-1.415000
  0
VERTEX
  8
gg1
 10
-1.737500
 20
-1.415000
  0
SEQEND
  8
gg1
  0
POLYLINE
  8
gg1
 62
1
 40
0.000000
 41
0.000000
 66
  1
  0
VERTEX
  8
gg1
 10
-1.745000
 20
-1.422500
  0
VERTEX
  8
gg1
 10
-1.745000
 20
-1.407500
  0
SEQEND
  8
gg1
  0
POLYLINE
  8
gg1
 62
1
 40
0.000000
 41
0.000000
 66
  1
  0
VERTEX
  8
gg1
 10
-1.777500
 20
-1.400000
  0
VERTEX
  8
gg1
 10
-1.762500
 20
-1.400000
  0
SEQEND
  8
gg1
  0
POLYLINE
  8
gg1
 62
1
 40
0.000000
 41
0.000000
 66
  1
  0
VERTEX
  8
gg1
 10
-1.770000
 20
-1.407500
  0
VERTEX
  8
gg1
 10
-1.770000
 20
-1.392500
  0
SEQEND
  8
gg1
  0
POLYLINE
  8
gg1
 62
1
 40
0.000000
 41
0.000000
 66
  1
  0
VERTEX
  8
gg1
 10
-1.967500
 20
-1.560000
  0
VERTEX
  8
gg1
 10
-1.952500
 20
-1.560000
  0
SEQEND
  8
gg1
  0
POLYLINE
  8
gg1
 62
1
 40
0.000000
 41
0.000000
 66
  1
  0
VERTEX
  8
gg1
 10
-1.960000
 20
-1.567500
  0
VERTEX
  8
gg1
 10
-1.960000
 20
-1.552500
  0
SEQEND
  8
gg1
  0
POLYLINE
  8
gg1
 62
1
 40
0.000000
 41
0.000000
 66
  1
  0
VERTEX
  8
gg1
 10
-2.137500
 20
-1.015000
  0
VERTEX
  8
gg1
 10
-2.122500
 20
-1.015000
  0
SEQEND
  8
gg1
  0
POLYLINE
  8
gg1
 62
1
 40
0.000000
 41
0.000000
 66
  1
  0
VERTEX
  8
gg1
 10
-2.130000
 20
-1.022500
  0
VERTEX
  8
gg1
 10
-2.130000
 20
-1.007500
  0
SEQEND
  8
gg1
  0
POLYLINE
  8
gg1
 62
1
 40
0.000000
 41
0.000000
 66
  1
  0
VERTEX
  8
gg1
 10
-1.276600
 20
-0.705000
  0
VERTEX
  8
gg1
 10
-1.261600
 20
-0.705000
  0
SEQEND
  8
gg1
  0
POLYLINE
  8
gg1
 62
1
 40
0.000000
 41
0.000000
 66
  1
  0
VERTEX
  8
gg1
 10
-1.269100
 20
-0.712500
  0
VERTEX
  8
gg1
 10
-1.269100
 20
-0.697500
  0
SEQEND
  8
gg1
  0
POLYLINE
  8
gg1
 62
1
 40
0.000000
 41
0.000000
 66
  1
  0
VERTEX
  8
gg1
 10
-1.372500
 20
-0.810000
  0
VERTEX
  8
gg1
 10
-1.357500
 20
-0.810000
  0
SEQEND
  8
gg1
  0
POLYLINE
  8
gg1
 62
1
 40
0.000000
 41
0.000000
 66
  1
  0
VERTEX
  8
gg1
 10
-1.365000
 20
-0.817500
  0
VERTEX
  8
gg1
 10
-1.365000
 20
-0.802500
  0
SEQEND
  8
gg1
  0
POLYLINE
  8
gg1
 62
1
 40
0.000000
 41
0.000000
 66
  1
  0
VERTEX
  8
gg1
 10
-1.382500
 20
-0.940000
  0
VERTEX
  8
gg1
 10
-1.367500
 20
-0.940000
  0
SEQEND
  8
gg1
  0
POLYLINE
  8
gg1
 62
1
 40
0.000000
 41
0.000000
 66
  1
  0
VERTEX
  8
gg1
 10
-1.375000
 20
-0.947500
  0
VERTEX
  8
gg1
 10
-1.375000
 20
-0.932500
  0
SEQEND
  8
gg1
  0
POLYLINE
  8
gg1
 62
1
 40
0.000000
 41
0.000000
 66
  1
  0
VERTEX
  8
gg1
 10
-1.352500
 20
-0.950000
  0
VERTEX
  8
gg1
 10
-1.337500
 20
-0.950000
  0
SEQEND
  8
gg1
  0
POLYLINE
  8
gg1
 62
1
 40
0.000000
 41
0.000000
 66
  1
  0
VERTEX
  8
gg1
 10
-1.345000
 20
-0.957500
  0
VERTEX
  8
gg1
 10
-1.345000
 20
-0.942500
  0
SEQEND
  8
gg1
  0
POLYLINE
  8
gg1
 62
1
 40
0.000000
 41
0.000000
 66
  1
  0
VERTEX
  8
gg1
 10
-1.377500
 20
-0.970000
  0
VERTEX
  8
gg1
 10
-1.362500
 20
-0.970000
  0
SEQEND
  8
gg1
  0
POLYLINE
  8
gg1
 62
1
 40
0.000000
 41
0.000000
 66
  1
  0
VERTEX
  8
gg1
 10
-1.370000
 20
-0.977500
  0
VERTEX
  8
gg1
 10
-1.370000
 20
-0.962500
  0
SEQEND
  8
gg1
  0
POLYLINE
  8
gg1
 62
1
 40
0.000000
 41
0.000000
 66
  1
  0
VERTEX
  8
gg1
 10
-1.537500
 20
-0.890000
  0
VERTEX
  8
gg1
 10
-1.522500
 20
-0.890000
  0
SEQEND
  8
gg1
  0
POLYLINE
  8
gg1
 62
1
 40
0.000000
 41
0.000000
 66
  1
  0
VERTEX
  8
gg1
 10
-1.530000
 20
-0.897500
  0
VERTEX
  8
gg1
 10
-1.530000
 20
-0.882500
  0
SEQEND
  8
gg1
  0
POLYLINE
  8
gg1
 62
1
 40
0.000000
 41
0.000000
 66
  1
  0
VERTEX
  8
gg1
 10
-1.437500
 20
-0.770000
  0
VERTEX
  8
gg1
 10
-1.422500
 20
-0.770000
  0
SEQEND
  8
gg1
  0
POLYLINE
  8
gg1
 62
1
 40
0.000000
 41
0.000000
 66
  1
  0
VERTEX
  8
gg1
 10
-1.430000
 20
-0.777500
  0
VERTEX
  8
gg1
 10
-1.430000
 20
-0.762500
  0
SEQEND
  8
gg1
  0
POLYLINE
  8
gg1
 62
1
 40
0.000000
 41
0.000000
 66
  1
  0
VERTEX
  8
gg1
 10
-0.292500
 20
-1.463000
  0
VERTEX
  8
gg1
 10
-0.277500
 20
-1.463000
  0
SEQEND
  8
gg1
  0
POLYLINE
  8
gg1
 62
1
 40
0.000000
 41
0.000000
 66
  1
  0
VERTEX
  8
gg1
 10
-0.285000
 20
-1.470500
  0
VERTEX
  8
gg1
 10
-0.285000
 20
-1.455500
  0
SEQEND
  8
gg1
  0
POLYLINE
  8
gg1
 62
1
 40
0.000000
 41
0.000000
 66
  1
  0
VERTEX
  8
gg1
 10
-0.252500
 20
-1.375000
  0
VERTEX
  8
gg1
 10
-0.237500
 20
-1.375000
  0
SEQEND
  8
gg1
  0
POLYLINE
  8
gg1
 62
1
 40
0.000000
 41
0.000000
 66
  1
  0
VERTEX
  8
gg1
 10
-0.245000
 20
-1.382500
  0
VERTEX
  8
gg1
 10
-0.245000
 20
-1.367500
  0
SEQEND
  8
gg1
  0
POLYLINE
  8
gg1
 62
1
 40
0.000000
 41
0.000000
 66
  1
  0
VERTEX
  8
gg1
 10
-0.327500
 20
-1.535000
  0
VERTEX
  8
gg1
 10
-0.312500
 20
-1.535000
  0
SEQEND
  8
gg1
  0
POLYLINE
  8
gg1
 62
1
 40
0.000000
 41
0.000000
 66
  1
  0
VERTEX
  8
gg1
 10
-0.320000
 20
-1.542500
  0
VERTEX
  8
gg1
 10
-0.320000
 20
-1.527500
  0
SEQEND
  8
gg1
  0
POLYLINE
  8
gg1
 62
1
 40
0.000000
 41
0.000000
 66
  1
  0
VERTEX
  8
gg1
 10
-0.142500
 20
-1.535000
  0
VERTEX
  8
gg1
 10
-0.127500
 20
-1.535000
  0
SEQEND
  8
gg1
  0
POLYLINE
  8
gg1
 62
1
 40
0.000000
 41
0.000000
 66
  1
  0
VERTEX
  8
gg1
 10
-0.135000
 20
-1.542500
  0
VERTEX
  8
gg1
 10
-0.135000
 20
-1.527500
  0
SEQEND
  8
gg1
  0
POLYLINE
  8
gg1
 62
1
 40
0.000000
 41
0.000000
 66
  1
  0
VERTEX
  8
gg1
 10
-0.107500
 20
-1.535000
  0
VERTEX
  8
gg1
 10
-0.092500
 20
-1.535000
  0
SEQEND
  8
gg1
  0
POLYLINE
  8
gg1
 62
1
 40
0.000000
 41
0.000000
 66
  1
  0
VERTEX
  8
gg1
 10
-0.100000
 20
-1.542500
  0
VERTEX
  8
gg1
 10
-0.100000
 20
-1.527500
  0
SEQEND
  8
gg1
  0
POLYLINE
  8
gg1
 62
1
 40
0.000000
 41
0.000000
 66
  1
  0
VERTEX
  8
gg1
 10
-0.090500
 20
-1.610000
  0
VERTEX
  8
gg1
 10
-0.075500
 20
-1.610000
  0
SEQEND
  8
gg1
  0
POLYLINE
  8
gg1
 62
1
 40
0.000000
 41
0.000000
 66
  1
  0
VERTEX
  8
gg1
 10
-0.083000
 20
-1.617500
  0
VERTEX
  8
gg1
 10
-0.083000
 20
-1.602500
  0
SEQEND
  8
gg1
  0
POLYLINE
  8
gg1
 62
1
 40
0.000000
 41
0.000000
 66
  1
  0
VERTEX
  8
gg1
 10
0.027500
 20
-1.805000
  0
VERTEX
  8
gg1
 10
0.042500
 20
-1.805000
  0
SEQEND
  8
gg1
  0
POLYLINE
  8
gg1
 62
1
 40
0.000000
 41
0.000000
 66
  1
  0
VERTEX
  8
gg1
 10
0.035000
 20
-1.812500
  0
VERTEX
  8
gg1
 10
0.035000
 20
-1.797500
  0
SEQEND
  8
gg1
  0
POLYLINE
  8
gg1
 62
1
 40
0.000000
 41
0.000000
 66
  1
  0
VERTEX
  8
gg1
 10
0.117500
 20
-1.775000
  0
VERTEX
  8
gg1
 10
0.132500
 20
-1.775000
  0
SEQEND
  8
gg1
  0
POLYLINE
  8
gg1
 62
1
 40
0.000000
 41
0.000000
 66
  1
  0
VERTEX
  8
gg1
 10
0.125000
 20
-1.782500
  0
VERTEX
  8
gg1
 10
0.125000
 20
-1.767500
  0
SEQEND
  8
gg1
  0
POLYLINE
  8
gg1
 62
1
 40
0.000000
 41
0.000000
 66
  1
  0
VERTEX
  8
gg1
 10
-1.107500
 20
-1.075000
  0
VERTEX
  8
gg1
 10
-1.092500
 20
-1.075000
  0
SEQEND
  8
gg1
  0
POLYLINE
  8
gg1
 62
1
 40
0.000000
 41
0.000000
 66
  1
  0
VERTEX
  8
gg1
 10
-1.100000
 20
-1.082500
  0
VERTEX
  8
gg1
 10
-1.100000
 20
-1.067500
  0
SEQEND
  8
gg1
  0
POLYLINE
  8
gg1
 62
1
 40
0.000000
 41
0.000000
 66
  1
  0
VERTEX
  8
gg1
 10
1.137500
 20
0.625000
  0
VERTEX
  8
gg1
 10
1.152500
 20
0.625000
  0
SEQEND
  8
gg1
  0
POLYLINE
  8
gg1
 62
1
 40
0.000000
 41
0.000000
 66
  1
  0
VERTEX
  8
gg1
 10
1.145000
 20
0.617500
  0
VERTEX
  8
gg1
 10
1.145000
 20
0.632500
  0
SEQEND
  8
gg1
  0
POLYLINE
  8
gg1
 62
1
 40
0.000000
 41
0.000000
 66
  1
  0
VERTEX
  8
gg1
 10
1.137500
 20
0.745000
  0
VERTEX
  8
gg1
 10
1.152500
 20
0.745000
  0
SEQEND
  8
gg1
  0
POLYLINE
  8
gg1
 62
1
 40
0.000000
 41
0.000000
 66
  1
  0
VERTEX
  8
gg1
 10
1.145000
 20
0.737500
  0
VERTEX
  8
gg1
 10
1.145000
 20
0.752500
  0
SEQEND
  8
gg1
  0
POLYLINE
  8
gg1
 62
1
 40
0.000000
 41
0.000000
 66
  1
  0
VERTEX
  8
gg1
 10
0.977500
 20
0.455000
  0
VERTEX
  8
gg1
 10
0.992500
 20
0.455000
  0
SEQEND
  8
gg1
  0
POLYLINE
  8
gg1
 62
1
 40
0.000000
 41
0.000000
 66
  1
  0
VERTEX
  8
gg1
 10
0.985000
 20
0.447500
  0
VERTEX
  8
gg1
 10
0.985000
 20
0.462500
  0
SEQEND
  8
gg1
  0
POLYLINE
  8
gg1
 62
1
 40
0.000000
 41
0.000000
 66
  1
  0
VERTEX
  8
gg1
 10
0.977500
 20
0.425000
  0
VERTEX
  8
gg1
 10
0.992500
 20
0.425000
  0
SEQEND
  8
gg1
  0
POLYLINE
  8
gg1
 62
1
 40
0.000000
 41
0.000000
 66
  1
  0
VERTEX
  8
gg1
 10
0.985000
 20
0.417500
  0
VERTEX
  8
gg1
 10
0.985000
 20
0.432500
  0
SEQEND
  8
gg1
  0
POLYLINE
  8
gg1
 62
1
 40
0.000000
 41
0.000000
 66
  1
  0
VERTEX
  8
gg1
 10
0.977500
 20
0.655000
  0
VERTEX
  8
gg1
 10
0.992500
 20
0.655000
  0
SEQEND
  8
gg1
  0
POLYLINE
  8
gg1
 62
1
 40
0.000000
 41
0.000000
 66
  1
  0
VERTEX
  8
gg1
 10
0.985000
 20
0.647500
  0
VERTEX
  8
gg1
 10
0.985000
 20
0.662500
  0
SEQEND
  8
gg1
  0
POLYLINE
  8
gg1
 62
1
 40
0.000000
 41
0.000000
 66
  1
  0
VERTEX
  8
gg1
 10
0.977500
 20
0.625000
  0
VERTEX
  8
gg1
 10
0.992500
 20
0.625000
  0
SEQEND
  8
gg1
  0
POLYLINE
  8
gg1
 62
1
 40
0.000000
 41
0.000000
 66
  1
  0
VERTEX
  8
gg1
 10
0.985000
 20
0.617500
  0
VERTEX
  8
gg1
 10
0.985000
 20
0.632500
  0
SEQEND
  8
gg1
  0
POLYLINE
  8
gg1
 62
1
 40
0.000000
 41
0.000000
 66
  1
  0
VERTEX
  8
gg1
 10
1.412500
 20
0.315000
  0
VERTEX
  8
gg1
 10
1.427500
 20
0.315000
  0
SEQEND
  8
gg1
  0
POLYLINE
  8
gg1
 62
1
 40
0.000000
 41
0.000000
 66
  1
  0
VERTEX
  8
gg1
 10
1.420000
 20
0.307500
  0
VERTEX
  8
gg1
 10
1.420000
 20
0.322500
  0
SEQEND
  8
gg1
  0
POLYLINE
  8
gg1
 62
1
 40
0.000000
 41
0.000000
 66
  1
  0
VERTEX
  8
gg1
 10
1.362500
 20
0.315000
  0
VERTEX
  8
gg1
 10
1.377500
 20
0.315000
  0
SEQEND
  8
gg1
  0
POLYLINE
  8
gg1
 62
1
 40
0.000000
 41
0.000000
 66
  1
  0
VERTEX
  8
gg1
 10
1.370000
 20
0.307500
  0
VERTEX
  8
gg1
 10
1.370000
 20
0.322500
  0
SEQEND
  8
gg1
  0
POLYLINE
  8
gg1
 62
1
 40
0.000000
 41
0.000000
 66
  1
  0
VERTEX
  8
gg1
 10
1.337500
 20
0.345000
  0
VERTEX
  8
gg1
 10
1.352500
 20
0.345000
  0
SEQEND
  8
gg1
  0
POLYLINE
  8
gg1
 62
1
 40
0.000000
 41
0.000000
 66
  1
  0
VERTEX
  8
gg1
 10
1.345000
 20
0.337500
  0
VERTEX
  8
gg1
 10
1.345000
 20
0.352500
  0
SEQEND
  8
gg1
  0
POLYLINE
  8
gg1
 62
1
 40
0.000000
 41
0.000000
 66
  1
  0
VERTEX
  8
gg1
 10
1.312500
 20
0.315000
  0
VERTEX
  8
gg1
 10
1.327500
 20
0.315000
  0
SEQEND
  8
gg1
  0
POLYLINE
  8
gg1
 62
1
 40
0.000000
 41
0.000000
 66
  1
  0
VERTEX
  8
gg1
 10
1.320000
 20
0.307500
  0
VERTEX
  8
gg1
 10
1.320000
 20
0.322500
  0
SEQEND
  8
gg1
  0
POLYLINE
  8
gg1
 62
1
 40
0.000000
 41
0.000000
 66
  1
  0
VERTEX
  8
gg1
 10
1.412500
 20
0.395000
  0
VERTEX
  8
gg1
 10
1.427500
 20
0.395000
  0
SEQEND
  8
gg1
  0
POLYLINE
  8
gg1
 62
1
 40
0.000000
 41
0.000000
 66
  1
  0
VERTEX
  8
gg1
 10
1.420000
 20
0.387500
  0
VERTEX
  8
gg1
 10
1.420000
 20
0.402500
  0
SEQEND
  8
gg1
  0
POLYLINE
  8
gg1
 62
1
 40
0.000000
 41
0.000000
 66
  1
  0
VERTEX
  8
gg1
 10
1.322500
 20
0.455000
  0
VERTEX
  8
gg1
 10
1.337500
 20
0.455000
  0
SEQEND
  8
gg1
  0
POLYLINE
  8
gg1
 62
1
 40
0.000000
 41
0.000000
 66
  1
  0
VERTEX
  8
gg1
 10
1.330000
 20
0.447500
  0
VERTEX
  8
gg1
 10
1.330000
 20
0.462500
  0
SEQEND
  8
gg1
  0
POLYLINE
  8
gg1
 62
1
 40
0.000000
 41
0.000000
 66
  1
  0
VERTEX
  8
gg1
 10
1.377500
 20
0.415000
  0
VERTEX
  8
gg1
 10
1.392500
 20
0.415000
  0
SEQEND
  8
gg1
  0
POLYLINE
  8
gg1
 62
1
 40
0.000000
 41
0.000000
 66
  1
  0
VERTEX
  8
gg1
 10
1.385000
 20
0.407500
  0
VERTEX
  8
gg1
 10
1.385000
 20
0.422500
  0
SEQEND
  8
gg1
  0
POLYLINE
  8
gg1
 62
1
 40
0.000000
 41
0.000000
 66
  1
  0
VERTEX
  8
gg1
 10
1.322500
 20
0.415000
  0
VERTEX
  8
gg1
 10
1.337500
 20
0.415000
  0
SEQEND
  8
gg1
  0
POLYLINE
  8
gg1
 62
1
 40
0.000000
 41
0.000000
 66
  1
  0
VERTEX
  8
gg1
 10
1.330000
 20
0.407500
  0
VERTEX
  8
gg1
 10
1.330000
 20
0.422500
  0
SEQEND
  8
gg1
  0
POLYLINE
  8
gg1
 62
1
 40
0.000000
 41
0.000000
 66
  1
  0
VERTEX
  8
gg1
 10
1.492500
 20
-0.095000
  0
VERTEX
  8
gg1
 10
1.507500
 20
-0.095000
  0
SEQEND
  8
gg1
  0
POLYLINE
  8
gg1
 62
1
 40
0.000000
 41
0.000000
 66
  1
  0
VERTEX
  8
gg1
 10
1.500000
 20
-0.102500
  0
VERTEX
  8
gg1
 10
1.500000
 20
-0.087500
  0
SEQEND
  8
gg1
  0
POLYLINE
  8
gg1
 62
1
 40
0.000000
 41
0.000000
 66
  1
  0
VERTEX
  8
gg1
 10
1.342500
 20
0.050000
  0
VERTEX
  8
gg1
 10
1.357500
 20
0.050000
  0
SEQEND
  8
gg1
  0
POLYLINE
  8
gg1
 62
1
 40
0.000000
 41
0.000000
 66
  1
  0
VERTEX
  8
gg1
 10
1.350000
 20
0.042500
  0
VERTEX
  8
gg1
 10
1.350000
 20
0.057500
  0
SEQEND
  8
gg1
  0
POLYLINE
  8
gg1
 62
1
 40
0.000000
 41
0.000000
 66
  1
  0
VERTEX
  8
gg1
 10
1.372500
 20
0.545000
  0
VERTEX
  8
gg1
 10
1.387500
 20
0.545000
  0
SEQEND
  8
gg1
  0
POLYLINE
  8
gg1
 62
1
 40
0.000000
 41
0.000000
 66
  1
  0
VERTEX
  8
gg1
 10
1.380000
 20
0.537500
  0
VERTEX
  8
gg1
 10
1.380000
 20
0.552500
  0
SEQEND
  8
gg1
  0
POLYLINE
  8
gg1
 62
1
 40
0.000000
 41
0.000000
 66
  1
  0
VERTEX
  8
gg1
 10
1.342500
 20
-0.250000
  0
VERTEX
  8
gg1
 10
1.357500
 20
-0.250000
  0
SEQEND
  8
gg1
  0
POLYLINE
  8
gg1
 62
1
 40
0.000000
 41
0.000000
 66
  1
  0
VERTEX
  8
gg1
 10
1.350000
 20
-0.257500
  0
VERTEX
  8
gg1
 10
1.350000
 20
-0.242500
  0
SEQEND
  8
gg1
  0
POLYLINE
  8
gg1
 62
1
 40
0.000000
 41
0.000000
 66
  1
  0
VERTEX
  8
gg1
 10
1.572500
 20
0.325000
  0
VERTEX
  8
gg1
 10
1.587500
 20
0.325000
  0
SEQEND
  8
gg1
  0
POLYLINE
  8
gg1
 62
1
 40
0.000000
 41
0.000000
 66
  1
  0
VERTEX
  8
gg1
 10
1.580000
 20
0.317500
  0
VERTEX
  8
gg1
 10
1.580000
 20
0.332500
  0
SEQEND
  8
gg1
  0
POLYLINE
  8
gg1
 62
1
 40
0.000000
 41
0.000000
 66
  1
  0
VERTEX
  8
gg1
 10
1.607500
 20
0.200000
  0
VERTEX
  8
gg1
 10
1.622500
 20
0.200000
  0
SEQEND
  8
gg1
  0
POLYLINE
  8
gg1
 62
1
 40
0.000000
 41
0.000000
 66
  1
  0
VERTEX
  8
gg1
 10
1.615000
 20
0.192500
  0
VERTEX
  8
gg1
 10
1.615000
 20
0.207500
  0
SEQEND
  8
gg1
  0
POLYLINE
  8
gg1
 62
1
 40
0.000000
 41
0.000000
 66
  1
  0
VERTEX
  8
gg1
 10
1.442500
 20
-0.340000
  0
VERTEX
  8
gg1
 10
1.457500
 20
-0.340000
  0
SEQEND
  8
gg1
  0
POLYLINE
  8
gg1
 62
1
 40
0.000000
 41
0.000000
 66
  1
  0
VERTEX
  8
gg1
 10
1.450000
 20
-0.347500
  0
VERTEX
  8
gg1
 10
1.450000
 20
-0.332500
  0
SEQEND
  8
gg1
  0
POLYLINE
  8
gg1
 62
1
 40
0.000000
 41
0.000000
 66
  1
  0
VERTEX
  8
gg1
 10
1.332500
 20
0.685000
  0
VERTEX
  8
gg1
 10
1.347500
 20
0.685000
  0
SEQEND
  8
gg1
  0
POLYLINE
  8
gg1
 62
1
 40
0.000000
 41
0.000000
 66
  1
  0
VERTEX
  8
gg1
 10
1.340000
 20
0.677500
  0
VERTEX
  8
gg1
 10
1.340000
 20
0.692500
  0
SEQEND
  8
gg1
  0
POLYLINE
  8
gg1
 62
1
 40
0.000000
 41
0.000000
 66
  1
  0
VERTEX
  8
gg1
 10
1.572500
 20
0.290000
  0
VERTEX
  8
gg1
 10
1.587500
 20
0.290000
  0
SEQEND
  8
gg1
  0
POLYLINE
  8
gg1
 62
1
 40
0.000000
 41
0.000000
 66
  1
  0
VERTEX
  8
gg1
 10
1.580000
 20
0.282500
  0
VERTEX
  8
gg1
 10
1.580000
 20
0.297500
  0
SEQEND
  8
gg1
  0
POLYLINE
  8
gg1
 62
1
 40
0.000000
 41
0.000000
 66
  1
  0
VERTEX
  8
gg1
 10
1.607500
 20
0.460000
  0
VERTEX
  8
gg1
 10
1.622500
 20
0.460000
  0
SEQEND
  8
gg1
  0
POLYLINE
  8
gg1
 62
1
 40
0.000000
 41
0.000000
 66
  1
  0
VERTEX
  8
gg1
 10
1.615000
 20
0.452500
  0
VERTEX
  8
gg1
 10
1.615000
 20
0.467500
  0
SEQEND
  8
gg1
  0
POLYLINE
  8
gg1
 62
1
 40
0.000000
 41
0.000000
 66
  1
  0
VERTEX
  8
gg1
 10
1.607500
 20
0.425000
  0
VERTEX
  8
gg1
 10
1.622500
 20
0.425000
  0
SEQEND
  8
gg1
  0
POLYLINE
  8
gg1
 62
1
 40
0.000000
 41
0.000000
 66
  1
  0
VERTEX
  8
gg1
 10
1.615000
 20
0.417500
  0
VERTEX
  8
gg1
 10
1.615000
 20
0.432500
  0
SEQEND
  8
gg1
  0
POLYLINE
  8
gg1
 62
1
 40
0.000000
 41
0.000000
 66
  1
  0
VERTEX
  8
gg1
 10
1.257500
 20
-1.730000
  0
VERTEX
  8
gg1
 10
1.272500
 20
-1.730000
  0
SEQEND
  8
gg1
  0
POLYLINE
  8
gg1
 62
1
 40
0.000000
 41
0.000000
 66
  1
  0
VERTEX
  8
gg1
 10
1.265000
 20
-1.737500
  0
VERTEX
  8
gg1
 10
1.265000
 20
-1.722500
  0
SEQEND
  8
gg1
  0
POLYLINE
  8
gg1
 62
1
 40
0.000000
 41
0.000000
 66
  1
  0
VERTEX
  8
gg1
 10
1.297500
 20
-1.720000
  0
VERTEX
  8
gg1
 10
1.312500
 20
-1.720000
  0
SEQEND
  8
gg1
  0
POLYLINE
  8
gg1
 62
1
 40
0.000000
 41
0.000000
 66
  1
  0
VERTEX
  8
gg1
 10
1.305000
 20
-1.727500
  0
VERTEX
  8
gg1
 10
1.305000
 20
-1.712500
  0
SEQEND
  8
gg1
  0
POLYLINE
  8
gg1
 62
1
 40
0.000000
 41
0.000000
 66
  1
  0
VERTEX
  8
gg1
 10
1.852500
 20
-1.385000
  0
VERTEX
  8
gg1
 10
1.867500
 20
-1.385000
  0
SEQEND
  8
gg1
  0
POLYLINE
  8
gg1
 62
1
 40
0.000000
 41
0.000000
 66
  1
  0
VERTEX
  8
gg1
 10
1.860000
 20
-1.392500
  0
VERTEX
  8
gg1
 10
1.860000
 20
-1.377500
  0
SEQEND
  8
gg1
  0
POLYLINE
  8
gg1
 62
1
 40
0.000000
 41
0.000000
 66
  1
  0
VERTEX
  8
gg1
 10
1.852500
 20
-1.335000
  0
VERTEX
  8
gg1
 10
1.867500
 20
-1.335000
  0
SEQEND
  8
gg1
  0
POLYLINE
  8
gg1
 62
1
 40
0.000000
 41
0.000000
 66
  1
  0
VERTEX
  8
gg1
 10
1.860000
 20
-1.342500
  0
VERTEX
  8
gg1
 10
1.860000
 20
-1.327500
  0
SEQEND
  8
gg1
  0
POLYLINE
  8
gg1
 62
1
 40
0.000000
 41
0.000000
 66
  1
  0
VERTEX
  8
gg1
 10
1.992500
 20
-1.395000
  0
VERTEX
  8
gg1
 10
2.007500
 20
-1.395000
  0
SEQEND
  8
gg1
  0
POLYLINE
  8
gg1
 62
1
 40
0.000000
 41
0.000000
 66
  1
  0
VERTEX
  8
gg1
 10
2.000000
 20
-1.402500
  0
VERTEX
  8
gg1
 10
2.000000
 20
-1.387500
  0
SEQEND
  8
gg1
  0
POLYLINE
  8
gg1
 62
1
 40
0.000000
 41
0.000000
 66
  1
  0
VERTEX
  8
gg1
 10
1.677500
 20
-0.840000
  0
VERTEX
  8
gg1
 10
1.692500
 20
-0.840000
  0
SEQEND
  8
gg1
  0
POLYLINE
  8
gg1
 62
1
 40
0.000000
 41
0.000000
 66
  1
  0
VERTEX
  8
gg1
 10
1.685000
 20
-0.847500
  0
VERTEX
  8
gg1
 10
1.685000
 20
-0.832500
  0
SEQEND
  8
gg1
  0
POLYLINE
  8
gg1
 62
1
 40
0.000000
 41
0.000000
 66
  1
  0
VERTEX
  8
gg1
 10
1.762500
 20
-0.925000
  0
VERTEX
  8
gg1
 10
1.777500
 20
-0.925000
  0
SEQEND
  8
gg1
  0
POLYLINE
  8
gg1
 62
1
 40
0.000000
 41
0.000000
 66
  1
  0
VERTEX
  8
gg1
 10
1.770000
 20
-0.932500
  0
VERTEX
  8
gg1
 10
1.770000
 20
-0.917500
  0
SEQEND
  8
gg1
  0
POLYLINE
  8
gg1
 62
1
 40
0.000000
 41
0.000000
 66
  1
  0
VERTEX
  8
gg1
 10
1.897500
 20
-0.575000
  0
VERTEX
  8
gg1
 10
1.912500
 20
-0.575000
  0
SEQEND
  8
gg1
  0
POLYLINE
  8
gg1
 62
1
 40
0.000000
 41
0.000000
 66
  1
  0
VERTEX
  8
gg1
 10
1.905000
 20
-0.582500
  0
VERTEX
  8
gg1
 10
1.905000
 20
-0.567500
  0
SEQEND
  8
gg1
  0
POLYLINE
  8
gg1
 62
1
 40
0.000000
 41
0.000000
 66
  1
  0
VERTEX
  8
gg1
 10
2.137500
 20
-0.575000
  0
VERTEX
  8
gg1
 10
2.152500
 20
-0.575000
  0
SEQEND
  8
gg1
  0
POLYLINE
  8
gg1
 62
1
 40
0.000000
 41
0.000000
 66
  1
  0
VERTEX
  8
gg1
 10
2.145000
 20
-0.582500
  0
VERTEX
  8
gg1
 10
2.145000
 20
-0.567500
  0
SEQEND
  8
gg1
  0
POLYLINE
  8
gg1
 62
1
 40
0.000000
 41
0.000000
 66
  1
  0
VERTEX
  8
gg1
 10
2.137500
 20
-0.815000
  0
VERTEX
  8
gg1
 10
2.152500
 20
-0.815000
  0
SEQEND
  8
gg1
  0
POLYLINE
  8
gg1
 62
1
 40
0.000000
 41
0.000000
 66
  1
  0
VERTEX
  8
gg1
 10
2.145000
 20
-0.822500
  0
VERTEX
  8
gg1
 10
2.145000
 20
-0.807500
  0
SEQEND
  8
gg1
  0
POLYLINE
  8
gg1
 62
1
 40
0.000000
 41
0.000000
 66
  1
  0
VERTEX
  8
gg1
 10
1.897500
 20
-0.815000
  0
VERTEX
  8
gg1
 10
1.912500
 20
-0.815000
  0
SEQEND
  8
gg1
  0
POLYLINE
  8
gg1
 62
1
 40
0.000000
 41
0.000000
 66
  1
  0
VERTEX
  8
gg1
 10
1.905000
 20
-0.822500
  0
VERTEX
  8
gg1
 10
1.905000
 20
-0.807500
  0
SEQEND
  8
gg1
  0
POLYLINE
  8
gg1
 62
1
 40
0.000000
 41
0.000000
 66
  1
  0
VERTEX
  8
gg1
 10
2.137500
 20
-1.055000
  0
VERTEX
  8
gg1
 10
2.152500
 20
-1.055000
  0
SEQEND
  8
gg1
  0
POLYLINE
  8
gg1
 62
1
 40
0.000000
 41
0.000000
 66
  1
  0
VERTEX
  8
gg1
 10
2.145000
 20
-1.062500
  0
VERTEX
  8
gg1
 10
2.145000
 20
-1.047500
  0
SEQEND
  8
gg1
  0
POLYLINE
  8
gg1
 62
1
 40
0.000000
 41
0.000000
 66
  1
  0
VERTEX
  8
gg1
 10
1.992500
 20
-1.295000
  0
VERTEX
  8
gg1
 10
2.007500
 20
-1.295000
  0
SEQEND
  8
gg1
  0
POLYLINE
  8
gg1
 62
1
 40
0.000000
 41
0.000000
 66
  1
  0
VERTEX
  8
gg1
 10
2.000000
 20
-1.302500
  0
VERTEX
  8
gg1
 10
2.000000
 20
-1.287500
  0
SEQEND
  8
gg1
  0
POLYLINE
  8
gg1
 62
1
 40
0.000000
 41
0.000000
 66
  1
  0
VERTEX
  8
gg1
 10
2.137500
 20
-1.295000
  0
VERTEX
  8
gg1
 10
2.152500
 20
-1.295000
  0
SEQEND
  8
gg1
  0
POLYLINE
  8
gg1
 62
1
 40
0.000000
 41
0.000000
 66
  1
  0
VERTEX
  8
gg1
 10
2.145000
 20
-1.302500
  0
VERTEX
  8
gg1
 10
2.145000
 20
-1.287500
  0
SEQEND
  8
gg1
  0
POLYLINE
  8
gg1
 62
1
 40
0.000000
 41
0.000000
 66
  1
  0
VERTEX
  8
gg1
 10
2.137500
 20
-1.535000
  0
VERTEX
  8
gg1
 10
2.152500
 20
-1.535000
  0
SEQEND
  8
gg1
  0
POLYLINE
  8
gg1
 62
1
 40
0.000000
 41
0.000000
 66
  1
  0
VERTEX
  8
gg1
 10
2.145000
 20
-1.542500
  0
VERTEX
  8
gg1
 10
2.145000
 20
-1.527500
  0
SEQEND
  8
gg1
  0
POLYLINE
  8
gg1
 62
1
 40
0.000000
 41
0.000000
 66
  1
  0
VERTEX
  8
gg1
 10
2.137500
 20
-1.775000
  0
VERTEX
  8
gg1
 10
2.152500
 20
-1.775000
  0
SEQEND
  8
gg1
  0
POLYLINE
  8
gg1
 62
1
 40
0.000000
 41
0.000000
 66
  1
  0
VERTEX
  8
gg1
 10
2.145000
 20
-1.782500
  0
VERTEX
  8
gg1
 10
2.145000
 20
-1.767500
  0
SEQEND
  8
gg1
  0
POLYLINE
  8
gg1
 62
1
 40
0.000000
 41
0.000000
 66
  1
  0
VERTEX
  8
gg1
 10
0.797500
 20
-1.010000
  0
VERTEX
  8
gg1
 10
0.812500
 20
-1.010000
  0
SEQEND
  8
gg1
  0
POLYLINE
  8
gg1
 62
1
 40
0.000000
 41
0.000000
 66
  1
  0
VERTEX
  8
gg1
 10
0.805000
 20
-1.017500
  0
VERTEX
  8
gg1
 10
0.805000
 20
-1.002500
  0
SEQEND
  8
gg1
  0
POLYLINE
  8
gg1
 62
1
 40
0.000000
 41
0.000000
 66
  1
  0
VERTEX
  8
gg1
 10
0.777500
 20
-1.035000
  0
VERTEX
  8
gg1
 10
0.792500
 20
-1.035000
  0
SEQEND
  8
gg1
  0
POLYLINE
  8
gg1
 62
1
 40
0.000000
 41
0.000000
 66
  1
  0
VERTEX
  8
gg1
 10
0.785000
 20
-1.042500
  0
VERTEX
  8
gg1
 10
0.785000
 20
-1.027500
  0
SEQEND
  8
gg1
  0
POLYLINE
  8
gg1
 62
1
 40
0.000000
 41
0.000000
 66
  1
  0
VERTEX
  8
gg1
 10
0.857500
 20
-1.035000
  0
VERTEX
  8
gg1
 10
0.872500
 20
-1.035000
  0
SEQEND
  8
gg1
  0
POLYLINE
  8
gg1
 62
1
 40
0.000000
 41
0.000000
 66
  1
  0
VERTEX
  8
gg1
 10
0.865000
 20
-1.042500
  0
VERTEX
  8
gg1
 10
0.865000
 20
-1.027500
  0
SEQEND
  8
gg1
  0
POLYLINE
  8
gg1
 62
1
 40
0.000000
 41
0.000000
 66
  1
  0
VERTEX
  8
gg1
 10
0.837500
 20
-1.010000
  0
VERTEX
  8
gg1
 10
0.852500
 20
-1.010000
  0
SEQEND
  8
gg1
  0
POLYLINE
  8
gg1
 62
1
 40
0.000000
 41
0.000000
 66
  1
  0
VERTEX
  8
gg1
 10
0.845000
 20
-1.017500
  0
VERTEX
  8
gg1
 10
0.845000
 20
-1.002500
  0
SEQEND
  8
gg1
  0
POLYLINE
  8
gg1
 62
1
 40
0.000000
 41
0.000000
 66
  1
  0
VERTEX
  8
gg1
 10
0.977500
 20
-0.985000
  0
VERTEX
  8
gg1
 10
0.992500
 20
-0.985000
  0
SEQEND
  8
gg1
  0
POLYLINE
  8
gg1
 62
1
 40
0.000000
 41
0.000000
 66
  1
  0
VERTEX
  8
gg1
 10
0.985000
 20
-0.992500
  0
VERTEX
  8
gg1
 10
0.985000
 20
-0.977500
  0
SEQEND
  8
gg1
  0
POLYLINE
  8
gg1
 62
1
 40
0.000000
 41
0.000000
 66
  1
  0
VERTEX
  8
gg1
 10
1.017500
 20
-1.005000
  0
VERTEX
  8
gg1
 10
1.032500
 20
-1.005000
  0
SEQEND
  8
gg1
  0
POLYLINE
  8
gg1
 62
1
 40
0.000000
 41
0.000000
 66
  1
  0
VERTEX
  8
gg1
 10
1.025000
 20
-1.012500
  0
VERTEX
  8
gg1
 10
1.025000
 20
-0.997500
  0
SEQEND
  8
gg1
  0
POLYLINE
  8
gg1
 62
1
 40
0.000000
 41
0.000000
 66
  1
  0
VERTEX
  8
gg1
 10
1.057500
 20
-1.005000
  0
VERTEX
  8
gg1
 10
1.072500
 20
-1.005000
  0
SEQEND
  8
gg1
  0
POLYLINE
  8
gg1
 62
1
 40
0.000000
 41
0.000000
 66
  1
  0
VERTEX
  8
gg1
 10
1.065000
 20
-1.012500
  0
VERTEX
  8
gg1
 10
1.065000
 20
-0.997500
  0
SEQEND
  8
gg1
  0
POLYLINE
  8
gg1
 62
1
 40
0.000000
 41
0.000000
 66
  1
  0
VERTEX
  8
gg1
 10
-2.092500
 20
-1.660000
  0
VERTEX
  8
gg1
 10
-2.077500
 20
-1.660000
  0
SEQEND
  8
gg1
  0
POLYLINE
  8
gg1
 62
1
 40
0.000000
 41
0.000000
 66
  1
  0
VERTEX
  8
gg1
 10
-2.085000
 20
-1.667500
  0
VERTEX
  8
gg1
 10
-2.085000
 20
-1.652500
  0
SEQEND
  8
gg1
  0
POLYLINE
  8
gg1
 62
1
 40
0.000000
 41
0.000000
 66
  1
  0
VERTEX
  8
gg1
 10
-2.047800
 20
-1.969700
  0
VERTEX
  8
gg1
 10
-2.032800
 20
-1.969700
  0
SEQEND
  8
gg1
  0
POLYLINE
  8
gg1
 62
1
 40
0.000000
 41
0.000000
 66
  1
  0
VERTEX
  8
gg1
 10
-2.040300
 20
-1.977200
  0
VERTEX
  8
gg1
 10
-2.040300
 20
-1.962200
  0
SEQEND
  8
gg1
  0
POLYLINE
  8
gg1
 62
1
 40
0.000000
 41
0.000000
 66
  1
  0
VERTEX
  8
gg1
 10
-1.297500
 20
-1.890000
  0
VERTEX
  8
gg1
 10
-1.282500
 20
-1.890000
  0
SEQEND
  8
gg1
  0
POLYLINE
  8
gg1
 62
1
 40
0.000000
 41
0.000000
 66
  1
  0
VERTEX
  8
gg1
 10
-1.290000
 20
-1.897500
  0
VERTEX
  8
gg1
 10
-1.290000
 20
-1.882500
  0
SEQEND
  8
gg1
  0
POLYLINE
  8
gg1
 62
1
 40
0.000000
 41
0.000000
 66
  1
  0
VERTEX
  8
gg1
 10
-0.997500
 20
-1.865000
  0
VERTEX
  8
gg1
 10
-0.982500
 20
-1.865000
  0
SEQEND
  8
gg1
  0
POLYLINE
  8
gg1
 62
1
 40
0.000000
 41
0.000000
 66
  1
  0
VERTEX
  8
gg1
 10
-0.990000
 20
-1.872500
  0
VERTEX
  8
gg1
 10
-0.990000
 20
-1.857500
  0
SEQEND
  8
gg1
  0
POLYLINE
  8
gg1
 62
1
 40
0.000000
 41
0.000000
 66
  1
  0
VERTEX
  8
gg1
 10
-2.022500
 20
-1.725000
  0
VERTEX
  8
gg1
 10
-2.007500
 20
-1.725000
  0
SEQEND
  8
gg1
  0
POLYLINE
  8
gg1
 62
1
 40
0.000000
 41
0.000000
 66
  1
  0
VERTEX
  8
gg1
 10
-2.015000
 20
-1.732500
  0
VERTEX
  8
gg1
 10
-2.015000
 20
-1.717500
  0
SEQEND
  8
gg1
  0
POLYLINE
  8
gg1
 62
1
 40
0.000000
 41
0.000000
 66
  1
  0
VERTEX
  8
gg1
 10
-1.872500
 20
-1.860000
  0
VERTEX
  8
gg1
 10
-1.857500
 20
-1.860000
  0
SEQEND
  8
gg1
  0
POLYLINE
  8
gg1
 62
1
 40
0.000000
 41
0.000000
 66
  1
  0
VERTEX
  8
gg1
 10
-1.865000
 20
-1.867500
  0
VERTEX
  8
gg1
 10
-1.865000
 20
-1.852500
  0
SEQEND
  8
gg1
  0
POLYLINE
  8
gg1
 62
1
 40
0.000000
 41
0.000000
 66
  1
  0
VERTEX
  8
gg1
 10
-1.627500
 20
-1.840000
  0
VERTEX
  8
gg1
 10
-1.612500
 20
-1.840000
  0
SEQEND
  8
gg1
  0
POLYLINE
  8
gg1
 62
1
 40
0.000000
 41
0.000000
 66
  1
  0
VERTEX
  8
gg1
 10
-1.620000
 20
-1.847500
  0
VERTEX
  8
gg1
 10
-1.620000
 20
-1.832500
  0
SEQEND
  8
gg1
  0
POLYLINE
  8
gg1
 62
1
 40
0.000000
 41
0.000000
 66
  1
  0
VERTEX
  8
gg1
 10
-1.627500
 20
-1.670000
  0
VERTEX
  8
gg1
 10
-1.612500
 20
-1.670000
  0
SEQEND
  8
gg1
  0
POLYLINE
  8
gg1
 62
1
 40
0.000000
 41
0.000000
 66
  1
  0
VERTEX
  8
gg1
 10
-1.620000
 20
-1.677500
  0
VERTEX
  8
gg1
 10
-1.620000
 20
-1.662500
  0
SEQEND
  8
gg1
  0
POLYLINE
  8
gg1
 62
1
 40
0.000000
 41
0.000000
 66
  1
  0
VERTEX
  8
gg1
 10
-1.252500
 20
-1.640000
  0
VERTEX
  8
gg1
 10
-1.237500
 20
-1.640000
  0
SEQEND
  8
gg1
  0
POLYLINE
  8
gg1
 62
1
 40
0.000000
 41
0.000000
 66
  1
  0
VERTEX
  8
gg1
 10
-1.245000
 20
-1.647500
  0
VERTEX
  8
gg1
 10
-1.245000
 20
-1.632500
  0
SEQEND
  8
gg1
  0
POLYLINE
  8
gg1
 62
1
 40
0.000000
 41
0.000000
 66
  1
  0
VERTEX
  8
gg1
 10
-1.547500
 20
-1.675000
  0
VERTEX
  8
gg1
 10
-1.532500
 20
-1.675000
  0
SEQEND
  8
gg1
  0
POLYLINE
  8
gg1
 62
1
 40
0.000000
 41
0.000000
 66
  1
  0
VERTEX
  8
gg1
 10
-1.540000
 20
-1.682500
  0
VERTEX
  8
gg1
 10
-1.540000
 20
-1.667500
  0
SEQEND
  8
gg1
  0
POLYLINE
  8
gg1
 62
1
 40
0.000000
 41
0.000000
 66
  1
  0
VERTEX
  8
gg1
 10
0.022500
 20
-1.500000
  0
VERTEX
  8
gg1
 10
0.037500
 20
-1.500000
  0
SEQEND
  8
gg1
  0
POLYLINE
  8
gg1
 62
1
 40
0.000000
 41
0.000000
 66
  1
  0
VERTEX
  8
gg1
 10
0.030000
 20
-1.507500
  0
VERTEX
  8
gg1
 10
0.030000
 20
-1.492500
  0
SEQEND
  8
gg1
  0
POLYLINE
  8
gg1
 62
1
 40
0.000000
 41
0.000000
 66
  1
  0
VERTEX
  8
gg1
 10
-0.032500
 20
-1.195000
  0
VERTEX
  8
gg1
 10
-0.017500
 20
-1.195000
  0
SEQEND
  8
gg1
  0
POLYLINE
  8
gg1
 62
1
 40
0.000000
 41
0.000000
 66
  1
  0
VERTEX
  8
gg1
 10
-0.025000
 20
-1.202500
  0
VERTEX
  8
gg1
 10
-0.025000
 20
-1.187500
  0
SEQEND
  8
gg1
  0
POLYLINE
  8
gg1
 62
1
 40
0.000000
 41
0.000000
 66
  1
  0
VERTEX
  8
gg1
 10
-0.072500
 20
-1.195000
  0
VERTEX
  8
gg1
 10
-0.057500
 20
-1.195000
  0
SEQEND
  8
gg1
  0
POLYLINE
  8
gg1
 62
1
 40
0.000000
 41
0.000000
 66
  1
  0
VERTEX
  8
gg1
 10
-0.065000
 20
-1.202500
  0
VERTEX
  8
gg1
 10
-0.065000
 20
-1.187500
  0
SEQEND
  8
gg1
  0
POLYLINE
  8
gg1
 62
1
 40
0.000000
 41
0.000000
 66
  1
  0
VERTEX
  8
gg1
 10
-0.017500
 20
-1.155000
  0
VERTEX
  8
gg1
 10
-0.002500
 20
-1.155000
  0
SEQEND
  8
gg1
  0
POLYLINE
  8
gg1
 62
1
 40
0.000000
 41
0.000000
 66
  1
  0
VERTEX
  8
gg1
 10
-0.010000
 20
-1.162500
  0
VERTEX
  8
gg1
 10
-0.010000
 20
-1.147500
  0
SEQEND
  8
gg1
  0
POLYLINE
  8
gg1
 62
1
 40
0.000000
 41
0.000000
 66
  1
  0
VERTEX
  8
gg1
 10
-0.082500
 20
-1.245000
  0
VERTEX
  8
gg1
 10
-0.067500
 20
-1.245000
  0
SEQEND
  8
gg1
  0
POLYLINE
  8
gg1
 62
1
 40
0.000000
 41
0.000000
 66
  1
  0
VERTEX
  8
gg1
 10
-0.075000
 20
-1.252500
  0
VERTEX
  8
gg1
 10
-0.075000
 20
-1.237500
  0
SEQEND
  8
gg1
  0
POLYLINE
  8
gg1
 62
1
 40
0.000000
 41
0.000000
 66
  1
  0
VERTEX
  8
gg1
 10
-0.082500
 20
-1.280000
  0
VERTEX
  8
gg1
 10
-0.067500
 20
-1.280000
  0
SEQEND
  8
gg1
  0
POLYLINE
  8
gg1
 62
1
 40
0.000000
 41
0.000000
 66
  1
  0
VERTEX
  8
gg1
 10
-0.075000
 20
-1.287500
  0
VERTEX
  8
gg1
 10
-0.075000
 20
-1.272500
  0
SEQEND
  8
gg1
  0
POLYLINE
  8
gg1
 62
1
 40
0.000000
 41
0.000000
 66
  1
  0
VERTEX
  8
gg1
 10
-0.152500
 20
-1.030000
  0
VERTEX
  8
gg1
 10
-0.137500
 20
-1.030000
  0
SEQEND
  8
gg1
  0
POLYLINE
  8
gg1
 62
1
 40
0.000000
 41
0.000000
 66
  1
  0
VERTEX
  8
gg1
 10
-0.145000
 20
-1.037500
  0
VERTEX
  8
gg1
 10
-0.145000
 20
-1.022500
  0
SEQEND
  8
gg1
  0
POLYLINE
  8
gg1
 62
1
 40
0.000000
 41
0.000000
 66
  1
  0
VERTEX
  8
gg1
 10
-0.152500
 20
-0.950000
  0
VERTEX
  8
gg1
 10
-0.137500
 20
-0.950000
  0
SEQEND
  8
gg1
  0
POLYLINE
  8
gg1
 62
1
 40
0.000000
 41
0.000000
 66
  1
  0
VERTEX
  8
gg1
 10
-0.145000
 20
-0.957500
  0
VERTEX
  8
gg1
 10
-0.145000
 20
-0.942500
  0
SEQEND
  8
gg1
  0
POLYLINE
  8
gg1
 62
1
 40
0.000000
 41
0.000000
 66
  1
  0
VERTEX
  8
gg1
 10
-0.152500
 20
-0.790000
  0
VERTEX
  8
gg1
 10
-0.137500
 20
-0.790000
  0
SEQEND
  8
gg1
  0
POLYLINE
  8
gg1
 62
1
 40
0.000000
 41
0.000000
 66
  1
  0
VERTEX
  8
gg1
 10
-0.145000
 20
-0.797500
  0
VERTEX
  8
gg1
 10
-0.145000
 20
-0.782500
  0
SEQEND
  8
gg1
  0
POLYLINE
  8
gg1
 62
1
 40
0.000000
 41
0.000000
 66
  1
  0
VERTEX
  8
gg1
 10
0.327500
 20
-1.150000
  0
VERTEX
  8
gg1
 10
0.342500
 20
-1.150000
  0
SEQEND
  8
gg1
  0
POLYLINE
  8
gg1
 62
1
 40
0.000000
 41
0.000000
 66
  1
  0
VERTEX
  8
gg1
 10
0.335000
 20
-1.157500
  0
VERTEX
  8
gg1
 10
0.335000
 20
-1.142500
  0
SEQEND
  8
gg1
  0
POLYLINE
  8
gg1
 62
1
 40
0.000000
 41
0.000000
 66
  1
  0
VERTEX
  8
gg1
 10
0.447500
 20
-1.150000
  0
VERTEX
  8
gg1
 10
0.462500
 20
-1.150000
  0
SEQEND
  8
gg1
  0
POLYLINE
  8
gg1
 62
1
 40
0.000000
 41
0.000000
 66
  1
  0
VERTEX
  8
gg1
 10
0.455000
 20
-1.157500
  0
VERTEX
  8
gg1
 10
0.455000
 20
-1.142500
  0
SEQEND
  8
gg1
  0
POLYLINE
  8
gg1
 62
1
 40
0.000000
 41
0.000000
 66
  1
  0
VERTEX
  8
gg1
 10
0.327500
 20
-1.060000
  0
VERTEX
  8
gg1
 10
0.342500
 20
-1.060000
  0
SEQEND
  8
gg1
  0
POLYLINE
  8
gg1
 62
1
 40
0.000000
 41
0.000000
 66
  1
  0
VERTEX
  8
gg1
 10
0.335000
 20
-1.067500
  0
VERTEX
  8
gg1
 10
0.335000
 20
-1.052500
  0
SEQEND
  8
gg1
  0
POLYLINE
  8
gg1
 62
1
 40
0.000000
 41
0.000000
 66
  1
  0
VERTEX
  8
gg1
 10
-1.632500
 20
-0.015000
  0
VERTEX
  8
gg1
 10
-1.617500
 20
-0.015000
  0
SEQEND
  8
gg1
  0
POLYLINE
  8
gg1
 62
1
 40
0.000000
 41
0.000000
 66
  1
  0
VERTEX
  8
gg1
 10
-1.625000
 20
-0.022500
  0
VERTEX
  8
gg1
 10
-1.625000
 20
-0.007500
  0
SEQEND
  8
gg1
  0
POLYLINE
  8
gg1
 62
1
 40
0.000000
 41
0.000000
 66
  1
  0
VERTEX
  8
gg1
 10
-1.317500
 20
-0.390000
  0
VERTEX
  8
gg1
 10
-1.302500
 20
-0.390000
  0
SEQEND
  8
gg1
  0
POLYLINE
  8
gg1
 62
1
 40
0.000000
 41
0.000000
 66
  1
  0
VERTEX
  8
gg1
 10
-1.310000
 20
-0.397500
  0
VERTEX
  8
gg1
 10
-1.310000
 20
-0.382500
  0
SEQEND
  8
gg1
  0
POLYLINE
  8
gg1
 62
1
 40
0.000000
 41
0.000000
 66
  1
  0
VERTEX
  8
gg1
 10
-1.347500
 20
-0.355000
  0
VERTEX
  8
gg1
 10
-1.332500
 20
-0.355000
  0
SEQEND
  8
gg1
  0
POLYLINE
  8
gg1
 62
1
 40
0.000000
 41
0.000000
 66
  1
  0
VERTEX
  8
gg1
 10
-1.340000
 20
-0.362500
  0
VERTEX
  8
gg1
 10
-1.340000
 20
-0.347500
  0
SEQEND
  8
gg1
  0
POLYLINE
  8
gg1
 62
1
 40
0.000000
 41
0.000000
 66
  1
  0
VERTEX
  8
gg1
 10
-1.427500
 20
-0.395000
  0
VERTEX
  8
gg1
 10
-1.412500
 20
-0.395000
  0
SEQEND
  8
gg1
  0
POLYLINE
  8
gg1
 62
1
 40
0.000000
 41
0.000000
 66
  1
  0
VERTEX
  8
gg1
 10
-1.420000
 20
-0.402500
  0
VERTEX
  8
gg1
 10
-1.420000
 20
-0.387500
  0
SEQEND
  8
gg1
  0
POLYLINE
  8
gg1
 62
1
 40
0.000000
 41
0.000000
 66
  1
  0
VERTEX
  8
gg1
 10
-1.287500
 20
-0.315000
  0
VERTEX
  8
gg1
 10
-1.272500
 20
-0.315000
  0
SEQEND
  8
gg1
  0
POLYLINE
  8
gg1
 62
1
 40
0.000000
 41
0.000000
 66
  1
  0
VERTEX
  8
gg1
 10
-1.280000
 20
-0.322500
  0
VERTEX
  8
gg1
 10
-1.280000
 20
-0.307500
  0
SEQEND
  8
gg1
  0
POLYLINE
  8
gg1
 62
1
 40
0.000000
 41
0.000000
 66
  1
  0
VERTEX
  8
gg1
 10
-1.282500
 20
-0.365000
  0
VERTEX
  8
gg1
 10
-1.267500
 20
-0.365000
  0
SEQEND
  8
gg1
  0
POLYLINE
  8
gg1
 62
1
 40
0.000000
 41
0.000000
 66
  1
  0
VERTEX
  8
gg1
 10
-1.275000
 20
-0.372500
  0
VERTEX
  8
gg1
 10
-1.275000
 20
-0.357500
  0
SEQEND
  8
gg1
  0
POLYLINE
  8
gg1
 62
1
 40
0.000000
 41
0.000000
 66
  1
  0
VERTEX
  8
gg1
 10
-1.387500
 20
-0.050000
  0
VERTEX
  8
gg1
 10
-1.372500
 20
-0.050000
  0
SEQEND
  8
gg1
  0
POLYLINE
  8
gg1
 62
1
 40
0.000000
 41
0.000000
 66
  1
  0
VERTEX
  8
gg1
 10
-1.380000
 20
-0.057500
  0
VERTEX
  8
gg1
 10
-1.380000
 20
-0.042500
  0
SEQEND
  8
gg1
  0
POLYLINE
  8
gg1
 62
1
 40
0.000000
 41
0.000000
 66
  1
  0
VERTEX
  8
gg1
 10
-1.357500
 20
0.100000
  0
VERTEX
  8
gg1
 10
-1.342500
 20
0.100000
  0
SEQEND
  8
gg1
  0
POLYLINE
  8
gg1
 62
1
 40
0.000000
 41
0.000000
 66
  1
  0
VERTEX
  8
gg1
 10
-1.350000
 20
0.092500
  0
VERTEX
  8
gg1
 10
-1.350000
 20
0.107500
  0
SEQEND
  8
gg1
  0
POLYLINE
  8
gg1
 62
1
 40
0.000000
 41
0.000000
 66
  1
  0
VERTEX
  8
gg1
 10
-1.367500
 20
0.000000
  0
VERTEX
  8
gg1
 10
-1.352500
 20
0.000000
  0
SEQEND
  8
gg1
  0
POLYLINE
  8
gg1
 62
1
 40
0.000000
 41
0.000000
 66
  1
  0
VERTEX
  8
gg1
 10
-1.360000
 20
-0.007500
  0
VERTEX
  8
gg1
 10
-1.360000
 20
0.007500
  0
SEQEND
  8
gg1
  0
POLYLINE
  8
gg1
 62
1
 40
0.000000
 41
0.000000
 66
  1
  0
VERTEX
  8
gg1
 10
-1.627500
 20
0.735000
  0
VERTEX
  8
gg1
 10
-1.612500
 20
0.735000
  0
SEQEND
  8
gg1
  0
POLYLINE
  8
gg1
 62
1
 40
0.000000
 41
0.000000
 66
  1
  0
VERTEX
  8
gg1
 10
-1.620000
 20
0.727500
  0
VERTEX
  8
gg1
 10
-1.620000
 20
0.742500
  0
SEQEND
  8
gg1
  0
POLYLINE
  8
gg1
 62
1
 40
0.000000
 41
0.000000
 66
  1
  0
VERTEX
  8
gg1
 10
-0.453500
 20
0.340000
  0
VERTEX
  8
gg1
 10
-0.438500
 20
0.340000
  0
SEQEND
  8
gg1
  0
POLYLINE
  8
gg1
 62
1
 40
0.000000
 41
0.000000
 66
  1
  0
VERTEX
  8
gg1
 10
-0.446000
 20
0.332500
  0
VERTEX
  8
gg1
 10
-0.446000
 20
0.347500
  0
SEQEND
  8
gg1
  0
POLYLINE
  8
gg1
 62
1
 40
0.000000
 41
0.000000
 66
  1
  0
VERTEX
  8
gg1
 10
0.642500
 20
-0.110000
  0
VERTEX
  8
gg1
 10
0.657500
 20
-0.110000
  0
SEQEND
  8
gg1
  0
POLYLINE
  8
gg1
 62
1
 40
0.000000
 41
0.000000
 66
  1
  0
VERTEX
  8
gg1
 10
0.650000
 20
-0.117500
  0
VERTEX
  8
gg1
 10
0.650000
 20
-0.102500
  0
SEQEND
  8
gg1
  0
POLYLINE
  8
gg1
 62
1
 40
0.000000
 41
0.000000
 66
  1
  0
VERTEX
  8
gg1
 10
0.647500
 20
-0.190000
  0
VERTEX
  8
gg1
 10
0.662500
 20
-0.190000
  0
SEQEND
  8
gg1
  0
POLYLINE
  8
gg1
 62
1
 40
0.000000
 41
0.000000
 66
  1
  0
VERTEX
  8
gg1
 10
0.655000
 20
-0.197500
  0
VERTEX
  8
gg1
 10
0.655000
 20
-0.182500
  0
SEQEND
  8
gg1
  0
POLYLINE
  8
gg1
 62
1
 40
0.000000
 41
0.000000
 66
  1
  0
VERTEX
  8
gg1
 10
0.667500
 20
-0.225200
  0
VERTEX
  8
gg1
 10
0.682500
 20
-0.225200
  0
SEQEND
  8
gg1
  0
POLYLINE
  8
gg1
 62
1
 40
0.000000
 41
0.000000
 66
  1
  0
VERTEX
  8
gg1
 10
0.675000
 20
-0.232700
  0
VERTEX
  8
gg1
 10
0.675000
 20
-0.217700
  0
SEQEND
  8
gg1
  0
POLYLINE
  8
gg1
 62
1
 40
0.000000
 41
0.000000
 66
  1
  0
VERTEX
  8
gg1
 10
0.707500
 20
-0.275000
  0
VERTEX
  8
gg1
 10
0.722500
 20
-0.275000
  0
SEQEND
  8
gg1
  0
POLYLINE
  8
gg1
 62
1
 40
0.000000
 41
0.000000
 66
  1
  0
VERTEX
  8
gg1
 10
0.715000
 20
-0.282500
  0
VERTEX
  8
gg1
 10
0.715000
 20
-0.267500
  0
SEQEND
  8
gg1
  0
POLYLINE
  8
gg1
 62
1
 40
0.000000
 41
0.000000
 66
  1
  0
VERTEX
  8
gg1
 10
0.647500
 20
-0.285000
  0
VERTEX
  8
gg1
 10
0.662500
 20
-0.285000
  0
SEQEND
  8
gg1
  0
POLYLINE
  8
gg1
 62
1
 40
0.000000
 41
0.000000
 66
  1
  0
VERTEX
  8
gg1
 10
0.655000
 20
-0.292500
  0
VERTEX
  8
gg1
 10
0.655000
 20
-0.277500
  0
SEQEND
  8
gg1
  0
POLYLINE
  8
gg1
 62
1
 40
0.000000
 41
0.000000
 66
  1
  0
VERTEX
  8
gg1
 10
0.587500
 20
-0.295000
  0
VERTEX
  8
gg1
 10
0.602500
 20
-0.295000
  0
SEQEND
  8
gg1
  0
POLYLINE
  8
gg1
 62
1
 40
0.000000
 41
0.000000
 66
  1
  0
VERTEX
  8
gg1
 10
0.595000
 20
-0.302500
  0
VERTEX
  8
gg1
 10
0.595000
 20
-0.287500
  0
SEQEND
  8
gg1
  0
POLYLINE
  8
gg1
 62
1
 40
0.000000
 41
0.000000
 66
  1
  0
VERTEX
  8
gg1
 10
0.717500
 20
-0.315000
  0
VERTEX
  8
gg1
 10
0.732500
 20
-0.315000
  0
SEQEND
  8
gg1
  0
POLYLINE
  8
gg1
 62
1
 40
0.000000
 41
0.000000
 66
  1
  0
VERTEX
  8
gg1
 10
0.725000
 20
-0.322500
  0
VERTEX
  8
gg1
 10
0.725000
 20
-0.307500
  0
SEQEND
  8
gg1
  0
POLYLINE
  8
gg1
 62
1
 40
0.000000
 41
0.000000
 66
  1
  0
VERTEX
  8
gg1
 10
0.682500
 20
-0.340000
  0
VERTEX
  8
gg1
 10
0.697500
 20
-0.340000
  0
SEQEND
  8
gg1
  0
POLYLINE
  8
gg1
 62
1
 40
0.000000
 41
0.000000
 66
  1
  0
VERTEX
  8
gg1
 10
0.690000
 20
-0.347500
  0
VERTEX
  8
gg1
 10
0.690000
 20
-0.332500
  0
SEQEND
  8
gg1
  0
POLYLINE
  8
gg1
 62
1
 40
0.000000
 41
0.000000
 66
  1
  0
VERTEX
  8
gg1
 10
0.542500
 20
-0.175000
  0
VERTEX
  8
gg1
 10
0.557500
 20
-0.175000
  0
SEQEND
  8
gg1
  0
POLYLINE
  8
gg1
 62
1
 40
0.000000
 41
0.000000
 66
  1
  0
VERTEX
  8
gg1
 10
0.550000
 20
-0.182500
  0
VERTEX
  8
gg1
 10
0.550000
 20
-0.167500
  0
SEQEND
  8
gg1
  0
POLYLINE
  8
gg1
 62
1
 40
0.000000
 41
0.000000
 66
  1
  0
VERTEX
  8
gg1
 10
0.732500
 20
0.010000
  0
VERTEX
  8
gg1
 10
0.747500
 20
0.010000
  0
SEQEND
  8
gg1
  0
POLYLINE
  8
gg1
 62
1
 40
0.000000
 41
0.000000
 66
  1
  0
VERTEX
  8
gg1
 10
0.740000
 20
0.002500
  0
VERTEX
  8
gg1
 10
0.740000
 20
0.017500
  0
SEQEND
  8
gg1
  0
POLYLINE
  8
gg1
 62
1
 40
0.000000
 41
0.000000
 66
  1
  0
VERTEX
  8
gg1
 10
0.602500
 20
0.345000
  0
VERTEX
  8
gg1
 10
0.617500
 20
0.345000
  0
SEQEND
  8
gg1
  0
POLYLINE
  8
gg1
 62
1
 40
0.000000
 41
0.000000
 66
  1
  0
VERTEX
  8
gg1
 10
0.610000
 20
0.337500
  0
VERTEX
  8
gg1
 10
0.610000
 20
0.352500
  0
SEQEND
  8
gg1
  0
POLYLINE
  8
gg1
 62
1
 40
0.000000
 41
0.000000
 66
  1
  0
VERTEX
  8
gg1
 10
0.662500
 20
0.355000
  0
VERTEX
  8
gg1
 10
0.677500
 20
0.355000
  0
SEQEND
  8
gg1
  0
POLYLINE
  8
gg1
 62
1
 40
0.000000
 41
0.000000
 66
  1
  0
VERTEX
  8
gg1
 10
0.670000
 20
0.347500
  0
VERTEX
  8
gg1
 10
0.670000
 20
0.362500
  0
SEQEND
  8
gg1
  0
POLYLINE
  8
gg1
 62
1
 40
0.000000
 41
0.000000
 66
  1
  0
VERTEX
  8
gg1
 10
0.772500
 20
0.290000
  0
VERTEX
  8
gg1
 10
0.787500
 20
0.290000
  0
SEQEND
  8
gg1
  0
POLYLINE
  8
gg1
 62
1
 40
0.000000
 41
0.000000
 66
  1
  0
VERTEX
  8
gg1
 10
0.780000
 20
0.282500
  0
VERTEX
  8
gg1
 10
0.780000
 20
0.297500
  0
SEQEND
  8
gg1
  0
POLYLINE
  8
gg1
 62
1
 40
0.000000
 41
0.000000
 66
  1
  0
VERTEX
  8
gg1
 10
1.197500
 20
0.765000
  0
VERTEX
  8
gg1
 10
1.212500
 20
0.765000
  0
SEQEND
  8
gg1
  0
POLYLINE
  8
gg1
 62
1
 40
0.000000
 41
0.000000
 66
  1
  0
VERTEX
  8
gg1
 10
1.205000
 20
0.757500
  0
VERTEX
  8
gg1
 10
1.205000
 20
0.772500
  0
SEQEND
  8
gg1
  0
POLYLINE
  8
gg1
 62
1
 40
0.000000
 41
0.000000
 66
  1
  0
VERTEX
  8
gg1
 10
1.137500
 20
0.790000
  0
VERTEX
  8
gg1
 10
1.152500
 20
0.790000
  0
SEQEND
  8
gg1
  0
POLYLINE
  8
gg1
 62
1
 40
0.000000
 41
0.000000
 66
  1
  0
VERTEX
  8
gg1
 10
1.145000
 20
0.782500
  0
VERTEX
  8
gg1
 10
1.145000
 20
0.797500
  0
SEQEND
  8
gg1
  0
POLYLINE
  8
gg1
 62
1
 40
0.000000
 41
0.000000
 66
  1
  0
VERTEX
  8
gg1
 10
1.387500
 20
0.345000
  0
VERTEX
  8
gg1
 10
1.402500
 20
0.345000
  0
SEQEND
  8
gg1
  0
POLYLINE
  8
gg1
 62
1
 40
0.000000
 41
0.000000
 66
  1
  0
VERTEX
  8
gg1
 10
1.395000
 20
0.337500
  0
VERTEX
  8
gg1
 10
1.395000
 20
0.352500
  0
SEQEND
  8
gg1
  0
POLYLINE
  8
gg1
 62
1
 40
0.000000
 41
0.000000
 66
  1
  0
VERTEX
  8
gg1
 10
-1.467500
 20
-1.540400
  0
VERTEX
  8
gg1
 10
-1.452500
 20
-1.540400
  0
SEQEND
  8
gg1
  0
POLYLINE
  8
gg1
 62
1
 40
0.000000
 41
0.000000
 66
  1
  0
VERTEX
  8
gg1
 10
-1.460000
 20
-1.547900
  0
VERTEX
  8
gg1
 10
-1.460000
 20
-1.532900
  0
SEQEND
  8
gg1
  0
POLYLINE
  8
gg1
 62
1
 40
0.000000
 41
0.000000
 66
  1
  0
VERTEX
  8
gg1
 10
-1.542500
 20
-1.535400
  0
VERTEX
  8
gg1
 10
-1.527500
 20
-1.535400
  0
SEQEND
  8
gg1
  0
POLYLINE
  8
gg1
 62
1
 40
0.000000
 41
0.000000
 66
  1
  0
VERTEX
  8
gg1
 10
-1.535000
 20
-1.542900
  0
VERTEX
  8
gg1
 10
-1.535000
 20
-1.527900
  0
SEQEND
  8
gg1
  0
POLYLINE
  8
gg1
 62
1
 40
0.000000
 41
0.000000
 66
  1
  0
VERTEX
  8
gg1
 10
-0.937500
 20
-1.505000
  0
VERTEX
  8
gg1
 10
-0.922500
 20
-1.505000
  0
SEQEND
  8
gg1
  0
POLYLINE
  8
gg1
 62
1
 40
0.000000
 41
0.000000
 66
  1
  0
VERTEX
  8
gg1
 10
-0.930000
 20
-1.512500
  0
VERTEX
  8
gg1
 10
-0.930000
 20
-1.497500
  0
SEQEND
  8
gg1
  0
POLYLINE
  8
gg1
 62
1
 40
0.000000
 41
0.000000
 66
  1
  0
VERTEX
  8
gg1
 10
-0.937500
 20
-1.705000
  0
VERTEX
  8
gg1
 10
-0.922500
 20
-1.705000
  0
SEQEND
  8
gg1
  0
POLYLINE
  8
gg1
 62
1
 40
0.000000
 41
0.000000
 66
  1
  0
VERTEX
  8
gg1
 10
-0.930000
 20
-1.712500
  0
VERTEX
  8
gg1
 10
-0.930000
 20
-1.697500
  0
SEQEND
  8
gg1
  0
POLYLINE
  8
gg1
 62
1
 40
0.000000
 41
0.000000
 66
  1
  0
VERTEX
  8
gg1
 10
-0.837500
 20
-1.705000
  0
VERTEX
  8
gg1
 10
-0.822500
 20
-1.705000
  0
SEQEND
  8
gg1
  0
POLYLINE
  8
gg1
 62
1
 40
0.000000
 41
0.000000
 66
  1
  0
VERTEX
  8
gg1
 10
-0.830000
 20
-1.712500
  0
VERTEX
  8
gg1
 10
-0.830000
 20
-1.697500
  0
SEQEND
  8
gg1
  0
POLYLINE
  8
gg1
 62
1
 40
0.000000
 41
0.000000
 66
  1
  0
VERTEX
  8
gg1
 10
-0.837500
 20
-1.505000
  0
VERTEX
  8
gg1
 10
-0.822500
 20
-1.505000
  0
SEQEND
  8
gg1
  0
POLYLINE
  8
gg1
 62
1
 40
0.000000
 41
0.000000
 66
  1
  0
VERTEX
  8
gg1
 10
-0.830000
 20
-1.512500
  0
VERTEX
  8
gg1
 10
-0.830000
 20
-1.497500
  0
SEQEND
  8
gg1
  0
POLYLINE
  8
gg1
 62
1
 40
0.000000
 41
0.000000
 66
  1
  0
VERTEX
  8
gg1
 10
-0.887500
 20
-1.805000
  0
VERTEX
  8
gg1
 10
-0.872500
 20
-1.805000
  0
SEQEND
  8
gg1
  0
POLYLINE
  8
gg1
 62
1
 40
0.000000
 41
0.000000
 66
  1
  0
VERTEX
  8
gg1
 10
-0.880000
 20
-1.812500
  0
VERTEX
  8
gg1
 10
-0.880000
 20
-1.797500
  0
SEQEND
  8
gg1
  0
POLYLINE
  8
gg1
 62
1
 40
0.000000
 41
0.000000
 66
  1
  0
VERTEX
  8
gg1
 10
-1.017500
 20
-1.655000
  0
VERTEX
  8
gg1
 10
-1.002500
 20
-1.655000
  0
SEQEND
  8
gg1
  0
POLYLINE
  8
gg1
 62
1
 40
0.000000
 41
0.000000
 66
  1
  0
VERTEX
  8
gg1
 10
-1.010000
 20
-1.662500
  0
VERTEX
  8
gg1
 10
-1.010000
 20
-1.647500
  0
SEQEND
  8
gg1
  0
POLYLINE
  8
gg1
 62
1
 40
0.000000
 41
0.000000
 66
  1
  0
VERTEX
  8
gg1
 10
-1.017500
 20
-1.555000
  0
VERTEX
  8
gg1
 10
-1.002500
 20
-1.555000
  0
SEQEND
  8
gg1
  0
POLYLINE
  8
gg1
 62
1
 40
0.000000
 41
0.000000
 66
  1
  0
VERTEX
  8
gg1
 10
-1.010000
 20
-1.562500
  0
VERTEX
  8
gg1
 10
-1.010000
 20
-1.547500
  0
SEQEND
  8
gg1
  0
POLYLINE
  8
gg1
 62
1
 40
0.000000
 41
0.000000
 66
  1
  0
VERTEX
  8
gg1
 10
-0.837500
 20
-1.605000
  0
VERTEX
  8
gg1
 10
-0.822500
 20
-1.605000
  0
SEQEND
  8
gg1
  0
POLYLINE
  8
gg1
 62
1
 40
0.000000
 41
0.000000
 66
  1
  0
VERTEX
  8
gg1
 10
-0.830000
 20
-1.612500
  0
VERTEX
  8
gg1
 10
-0.830000
 20
-1.597500
  0
SEQEND
  8
gg1
  0
POLYLINE
  8
gg1
 62
1
 40
0.000000
 41
0.000000
 66
  1
  0
VERTEX
  8
gg1
 10
-2.072500
 20
-1.250000
  0
VERTEX
  8
gg1
 10
-2.057500
 20
-1.250000
  0
SEQEND
  8
gg1
  0
POLYLINE
  8
gg1
 62
1
 40
0.000000
 41
0.000000
 66
  1
  0
VERTEX
  8
gg1
 10
-2.065000
 20
-1.257500
  0
VERTEX
  8
gg1
 10
-2.065000
 20
-1.242500
  0
SEQEND
  8
gg1
  0
POLYLINE
  8
gg1
 62
1
 40
0.000000
 41
0.000000
 66
  1
  0
VERTEX
  8
gg1
 10
-2.012500
 20
-1.250000
  0
VERTEX
  8
gg1
 10
-1.997500
 20
-1.250000
  0
SEQEND
  8
gg1
  0
POLYLINE
  8
gg1
 62
1
 40
0.000000
 41
0.000000
 66
  1
  0
VERTEX
  8
gg1
 10
-2.005000
 20
-1.257500
  0
VERTEX
  8
gg1
 10
-2.005000
 20
-1.242500
  0
SEQEND
  8
gg1
  0
POLYLINE
  8
gg1
 62
1
 40
0.000000
 41
0.000000
 66
  1
  0
VERTEX
  8
gg1
 10
0.447500
 20
0.135000
  0
VERTEX
  8
gg1
 10
0.462500
 20
0.135000
  0
SEQEND
  8
gg1
  0
POLYLINE
  8
gg1
 62
1
 40
0.000000
 41
0.000000
 66
  1
  0
VERTEX
  8
gg1
 10
0.455000
 20
0.127500
  0
VERTEX
  8
gg1
 10
0.455000
 20
0.142500
  0
SEQEND
  8
gg1
  0
POLYLINE
  8
gg1
 62
1
 40
0.000000
 41
0.000000
 66
  1
  0
VERTEX
  8
gg1
 10
0.417500
 20
0.110000
  0
VERTEX
  8
gg1
 10
0.432500
 20
0.110000
  0
SEQEND
  8
gg1
  0
POLYLINE
  8
gg1
 62
1
 40
0.000000
 41
0.000000
 66
  1
  0
VERTEX
  8
gg1
 10
0.425000
 20
0.102500
  0
VERTEX
  8
gg1
 10
0.425000
 20
0.117500
  0
SEQEND
  8
gg1
  0
POLYLINE
  8
gg1
 62
1
 40
0.000000
 41
0.000000
 66
  1
  0
VERTEX
  8
gg1
 10
0.542500
 20
0.070000
  0
VERTEX
  8
gg1
 10
0.557500
 20
0.070000
  0
SEQEND
  8
gg1
  0
POLYLINE
  8
gg1
 62
1
 40
0.000000
 41
0.000000
 66
  1
  0
VERTEX
  8
gg1
 10
0.550000
 20
0.062500
  0
VERTEX
  8
gg1
 10
0.550000
 20
0.077500
  0
SEQEND
  8
gg1
  0
POLYLINE
  8
gg1
 62
1
 40
0.000000
 41
0.000000
 66
  1
  0
VERTEX
  8
gg1
 10
-0.187500
 20
0.765000
  0
VERTEX
  8
gg1
 10
-0.172500
 20
0.765000
  0
SEQEND
  8
gg1
  0
POLYLINE
  8
gg1
 62
1
 40
0.000000
 41
0.000000
 66
  1
  0
VERTEX
  8
gg1
 10
-0.180000
 20
0.757500
  0
VERTEX
  8
gg1
 10
-0.180000
 20
0.772500
  0
SEQEND
  8
gg1
  0
POLYLINE
  8
gg1
 62
1
 40
0.000000
 41
0.000000
 66
  1
  0
VERTEX
  8
gg1
 10
-0.007500
 20
0.875000
  0
VERTEX
  8
gg1
 10
0.007500
 20
0.875000
  0
SEQEND
  8
gg1
  0
POLYLINE
  8
gg1
 62
1
 40
0.000000
 41
0.000000
 66
  1
  0
VERTEX
  8
gg1
 10
0.000000
 20
0.867500
  0
VERTEX
  8
gg1
 10
0.000000
 20
0.882500
  0
SEQEND
  8
gg1
  0
POLYLINE
  8
gg1
 62
1
 40
0.000000
 41
0.000000
 66
  1
  0
VERTEX
  8
gg1
 10
-0.062500
 20
0.380000
  0
VERTEX
  8
gg1
 10
-0.047500
 20
0.380000
  0
SEQEND
  8
gg1
  0
POLYLINE
  8
gg1
 62
1
 40
0.000000
 41
0.000000
 66
  1
  0
VERTEX
  8
gg1
 10
-0.055000
 20
0.372500
  0
VERTEX
  8
gg1
 10
-0.055000
 20
0.387500
  0
SEQEND
  8
gg1
  0
POLYLINE
  8
gg1
 62
1
 40
0.000000
 41
0.000000
 66
  1
  0
VERTEX
  8
gg1
 10
-0.547500
 20
0.375000
  0
VERTEX
  8
gg1
 10
-0.532500
 20
0.375000
  0
SEQEND
  8
gg1
  0
POLYLINE
  8
gg1
 62
1
 40
0.000000
 41
0.000000
 66
  1
  0
VERTEX
  8
gg1
 10
-0.540000
 20
0.367500
  0
VERTEX
  8
gg1
 10
-0.540000
 20
0.382500
  0
SEQEND
  8
gg1
  0
POLYLINE
  8
gg1
 62
1
 40
0.000000
 41
0.000000
 66
  1
  0
VERTEX
  8
gg1
 10
-1.257500
 20
0.675000
  0
VERTEX
  8
gg1
 10
-1.242500
 20
0.675000
  0
SEQEND
  8
gg1
  0
POLYLINE
  8
gg1
 62
1
 40
0.000000
 41
0.000000
 66
  1
  0
VERTEX
  8
gg1
 10
-1.250000
 20
0.667500
  0
VERTEX
  8
gg1
 10
-1.250000
 20
0.682500
  0
SEQEND
  8
gg1
  0
POLYLINE
  8
gg1
 62
1
 40
0.000000
 41
0.000000
 66
  1
  0
VERTEX
  8
gg1
 10
-0.547500
 20
0.920000
  0
VERTEX
  8
gg1
 10
-0.532500
 20
0.920000
  0
SEQEND
  8
gg1
  0
POLYLINE
  8
gg1
 62
1
 40
0.000000
 41
0.000000
 66
  1
  0
VERTEX
  8
gg1
 10
-0.540000
 20
0.912500
  0
VERTEX
  8
gg1
 10
-0.540000
 20
0.927500
  0
SEQEND
  8
gg1
  0
POLYLINE
  8
gg1
 62
1
 40
0.000000
 41
0.000000
 66
  1
  0
VERTEX
  8
gg1
 10
-0.807500
 20
0.650000
  0
VERTEX
  8
gg1
 10
-0.792500
 20
0.650000
  0
SEQEND
  8
gg1
  0
POLYLINE
  8
gg1
 62
1
 40
0.000000
 41
0.000000
 66
  1
  0
VERTEX
  8
gg1
 10
-0.800000
 20
0.642500
  0
VERTEX
  8
gg1
 10
-0.800000
 20
0.657500
  0
SEQEND
  8
gg1
  0
POLYLINE
  8
gg1
 62
1
 40
0.000000
 41
0.000000
 66
  1
  0
VERTEX
  8
gg1
 10
1.387500
 20
0.720000
  0
VERTEX
  8
gg1
 10
1.402500
 20
0.720000
  0
SEQEND
  8
gg1
  0
POLYLINE
  8
gg1
 62
1
 40
0.000000
 41
0.000000
 66
  1
  0
VERTEX
  8
gg1
 10
1.395000
 20
0.712500
  0
VERTEX
  8
gg1
 10
1.395000
 20
0.727500
  0
SEQEND
  8
gg1
  0
POLYLINE
  8
gg1
 62
1
 40
0.000000
 41
0.000000
 66
  1
  0
VERTEX
  8
gg1
 10
1.407500
 20
0.685000
  0
VERTEX
  8
gg1
 10
1.422500
 20
0.685000
  0
SEQEND
  8
gg1
  0
POLYLINE
  8
gg1
 62
1
 40
0.000000
 41
0.000000
 66
  1
  0
VERTEX
  8
gg1
 10
1.415000
 20
0.677500
  0
VERTEX
  8
gg1
 10
1.415000
 20
0.692500
  0
SEQEND
  8
gg1
  0
POLYLINE
  8
gg1
 62
1
 40
0.000000
 41
0.000000
 66
  1
  0
VERTEX
  8
gg1
 10
-0.952500
 20
0.465000
  0
VERTEX
  8
gg1
 10
-0.937500
 20
0.465000
  0
SEQEND
  8
gg1
  0
POLYLINE
  8
gg1
 62
1
 40
0.000000
 41
0.000000
 66
  1
  0
VERTEX
  8
gg1
 10
-0.945000
 20
0.457500
  0
VERTEX
  8
gg1
 10
-0.945000
 20
0.472500
  0
SEQEND
  8
gg1
  0
POLYLINE
  8
gg1
 62
1
 40
0.000000
 41
0.000000
 66
  1
  0
VERTEX
  8
gg1
 10
-0.992500
 20
0.475000
  0
VERTEX
  8
gg1
 10
-0.977500
 20
0.475000
  0
SEQEND
  8
gg1
  0
POLYLINE
  8
gg1
 62
1
 40
0.000000
 41
0.000000
 66
  1
  0
VERTEX
  8
gg1
 10
-0.985000
 20
0.467500
  0
VERTEX
  8
gg1
 10
-0.985000
 20
0.482500
  0
SEQEND
  8
gg1
  0
POLYLINE
  8
gg1
 62
1
 40
0.000000
 41
0.000000
 66
  1
  0
VERTEX
  8
gg1
 10
-1.102500
 20
0.555000
  0
VERTEX
  8
gg1
 10
-1.087500
 20
0.555000
  0
SEQEND
  8
gg1
  0
POLYLINE
  8
gg1
 62
1
 40
0.000000
 41
0.000000
 66
  1
  0
VERTEX
  8
gg1
 10
-1.095000
 20
0.547500
  0
VERTEX
  8
gg1
 10
-1.095000
 20
0.562500
  0
SEQEND
  8
gg1
  0
POLYLINE
  8
gg1
 62
1
 40
0.000000
 41
0.000000
 66
  1
  0
VERTEX
  8
gg1
 10
-0.902500
 20
0.505000
  0
VERTEX
  8
gg1
 10
-0.887500
 20
0.505000
  0
SEQEND
  8
gg1
  0
POLYLINE
  8
gg1
 62
1
 40
0.000000
 41
0.000000
 66
  1
  0
VERTEX
  8
gg1
 10
-0.895000
 20
0.497500
  0
VERTEX
  8
gg1
 10
-0.895000
 20
0.512500
  0
SEQEND
  8
gg1
  0
POLYLINE
  8
gg1
 62
1
 40
0.000000
 41
0.000000
 66
  1
  0
VERTEX
  8
gg1
 10
-0.742500
 20
0.615000
  0
VERTEX
  8
gg1
 10
-0.727500
 20
0.615000
  0
SEQEND
  8
gg1
  0
POLYLINE
  8
gg1
 62
1
 40
0.000000
 41
0.000000
 66
  1
  0
VERTEX
  8
gg1
 10
-0.735000
 20
0.607500
  0
VERTEX
  8
gg1
 10
-0.735000
 20
0.622500
  0
SEQEND
  8
gg1
  0
POLYLINE
  8
gg1
 62
1
 40
0.000000
 41
0.000000
 66
  1
  0
VERTEX
  8
gg1
 10
-0.767500
 20
0.650000
  0
VERTEX
  8
gg1
 10
-0.752500
 20
0.650000
  0
SEQEND
  8
gg1
  0
POLYLINE
  8
gg1
 62
1
 40
0.000000
 41
0.000000
 66
  1
  0
VERTEX
  8
gg1
 10
-0.760000
 20
0.642500
  0
VERTEX
  8
gg1
 10
-0.760000
 20
0.657500
  0
SEQEND
  8
gg1
  0
POLYLINE
  8
gg1
 62
1
 40
0.000000
 41
0.000000
 66
  1
  0
VERTEX
  8
gg1
 10
-0.717500
 20
0.585000
  0
VERTEX
  8
gg1
 10
-0.702500
 20
0.585000
  0
SEQEND
  8
gg1
  0
POLYLINE
  8
gg1
 62
1
 40
0.000000
 41
0.000000
 66
  1
  0
VERTEX
  8
gg1
 10
-0.710000
 20
0.577500
  0
VERTEX
  8
gg1
 10
-0.710000
 20
0.592500
  0
SEQEND
  8
gg1
  0
POLYLINE
  8
gg1
 62
1
 40
0.000000
 41
0.000000
 66
  1
  0
VERTEX
  8
gg1
 10
-0.722500
 20
0.545000
  0
VERTEX
  8
gg1
 10
-0.707500
 20
0.545000
  0
SEQEND
  8
gg1
  0
POLYLINE
  8
gg1
 62
1
 40
0.000000
 41
0.000000
 66
  1
  0
VERTEX
  8
gg1
 10
-0.715000
 20
0.537500
  0
VERTEX
  8
gg1
 10
-0.715000
 20
0.552500
  0
SEQEND
  8
gg1
  0
POLYLINE
  8
gg1
 62
1
 40
0.000000
 41
0.000000
 66
  1
  0
VERTEX
  8
gg1
 10
-0.372500
 20
0.235000
  0
VERTEX
  8
gg1
 10
-0.357500
 20
0.235000
  0
SEQEND
  8
gg1
  0
POLYLINE
  8
gg1
 62
1
 40
0.000000
 41
0.000000
 66
  1
  0
VERTEX
  8
gg1
 10
-0.365000
 20
0.227500
  0
VERTEX
  8
gg1
 10
-0.365000
 20
0.242500
  0
SEQEND
  8
gg1
  0
POLYLINE
  8
gg1
 62
1
 40
0.000000
 41
0.000000
 66
  1
  0
VERTEX
  8
gg1
 10
-0.622500
 20
-0.070000
  0
VERTEX
  8
gg1
 10
-0.607500
 20
-0.070000
  0
SEQEND
  8
gg1
  0
POLYLINE
  8
gg1
 62
1
 40
0.000000
 41
0.000000
 66
  1
  0
VERTEX
  8
gg1
 10
-0.615000
 20
-0.077500
  0
VERTEX
  8
gg1
 10
-0.615000
 20
-0.062500
  0
SEQEND
  8
gg1
  0
POLYLINE
  8
gg1
 62
1
 40
0.000000
 41
0.000000
 66
  1
  0
VERTEX
  8
gg1
 10
-0.712500
 20
0.055000
  0
VERTEX
  8
gg1
 10
-0.697500
 20
0.055000
  0
SEQEND
  8
gg1
  0
POLYLINE
  8
gg1
 62
1
 40
0.000000
 41
0.000000
 66
  1
  0
VERTEX
  8
gg1
 10
-0.705000
 20
0.047500
  0
VERTEX
  8
gg1
 10
-0.705000
 20
0.062500
  0
SEQEND
  8
gg1
  0
POLYLINE
  8
gg1
 62
1
 40
0.000000
 41
0.000000
 66
  1
  0
VERTEX
  8
gg1
 10
-0.557500
 20
0.745000
  0
VERTEX
  8
gg1
 10
-0.542500
 20
0.745000
  0
SEQEND
  8
gg1
  0
POLYLINE
  8
gg1
 62
1
 40
0.000000
 41
0.000000
 66
  1
  0
VERTEX
  8
gg1
 10
-0.550000
 20
0.737500
  0
VERTEX
  8
gg1
 10
-0.550000
 20
0.752500
  0
SEQEND
  8
gg1
  0
POLYLINE
  8
gg1
 62
1
 40
0.000000
 41
0.000000
 66
  1
  0
VERTEX
  8
gg1
 10
-0.557500
 20
0.685000
  0
VERTEX
  8
gg1
 10
-0.542500
 20
0.685000
  0
SEQEND
  8
gg1
  0
POLYLINE
  8
gg1
 62
1
 40
0.000000
 41
0.000000
 66
  1
  0
VERTEX
  8
gg1
 10
-0.550000
 20
0.677500
  0
VERTEX
  8
gg1
 10
-0.550000
 20
0.692500
  0
SEQEND
  8
gg1
  0
POLYLINE
  8
gg1
 62
1
 40
0.000000
 41
0.000000
 66
  1
  0
VERTEX
  8
gg1
 10
-0.672500
 20
0.230000
  0
VERTEX
  8
gg1
 10
-0.657500
 20
0.230000
  0
SEQEND
  8
gg1
  0
POLYLINE
  8
gg1
 62
1
 40
0.000000
 41
0.000000
 66
  1
  0
VERTEX
  8
gg1
 10
-0.665000
 20
0.222500
  0
VERTEX
  8
gg1
 10
-0.665000
 20
0.237500
  0
SEQEND
  8
gg1
  0
POLYLINE
  8
gg1
 62
1
 40
0.000000
 41
0.000000
 66
  1
  0
VERTEX
  8
gg1
 10
-0.657500
 20
0.375000
  0
VERTEX
  8
gg1
 10
-0.642500
 20
0.375000
  0
SEQEND
  8
gg1
  0
POLYLINE
  8
gg1
 62
1
 40
0.000000
 41
0.000000
 66
  1
  0
VERTEX
  8
gg1
 10
-0.650000
 20
0.367500
  0
VERTEX
  8
gg1
 10
-0.650000
 20
0.382500
  0
SEQEND
  8
gg1
  0
POLYLINE
  8
gg1
 62
1
 40
0.000000
 41
0.000000
 66
  1
  0
VERTEX
  8
gg1
 10
-0.757500
 20
0.360000
  0
VERTEX
  8
gg1
 10
-0.742500
 20
0.360000
  0
SEQEND
  8
gg1
  0
POLYLINE
  8
gg1
 62
1
 40
0.000000
 41
0.000000
 66
  1
  0
VERTEX
  8
gg1
 10
-0.750000
 20
0.352500
  0
VERTEX
  8
gg1
 10
-0.750000
 20
0.367500
  0
SEQEND
  8
gg1
  0
POLYLINE
  8
gg1
 62
1
 40
0.000000
 41
0.000000
 66
  1
  0
VERTEX
  8
gg1
 10
-0.597500
 20
-0.105000
  0
VERTEX
  8
gg1
 10
-0.582500
 20
-0.105000
  0
SEQEND
  8
gg1
  0
POLYLINE
  8
gg1
 62
1
 40
0.000000
 41
0.000000
 66
  1
  0
VERTEX
  8
gg1
 10
-0.590000
 20
-0.112500
  0
VERTEX
  8
gg1
 10
-0.590000
 20
-0.097500
  0
SEQEND
  8
gg1
  0
POLYLINE
  8
gg1
 62
1
 40
0.000000
 41
0.000000
 66
  1
  0
VERTEX
  8
gg1
 10
-0.642500
 20
-0.030000
  0
VERTEX
  8
gg1
 10
-0.627500
 20
-0.030000
  0
SEQEND
  8
gg1
  0
POLYLINE
  8
gg1
 62
1
 40
0.000000
 41
0.000000
 66
  1
  0
VERTEX
  8
gg1
 10
-0.635000
 20
-0.037500
  0
VERTEX
  8
gg1
 10
-0.635000
 20
-0.022500
  0
SEQEND
  8
gg1
  0
POLYLINE
  8
gg1
 62
1
 40
0.000000
 41
0.000000
 66
  1
  0
VERTEX
  8
gg1
 10
-0.902500
 20
0.095000
  0
VERTEX
  8
gg1
 10
-0.887500
 20
0.095000
  0
SEQEND
  8
gg1
  0
POLYLINE
  8
gg1
 62
1
 40
0.000000
 41
0.000000
 66
  1
  0
VERTEX
  8
gg1
 10
-0.895000
 20
0.087500
  0
VERTEX
  8
gg1
 10
-0.895000
 20
0.102500
  0
SEQEND
  8
gg1
  0
POLYLINE
  8
gg1
 62
1
 40
0.000000
 41
0.000000
 66
  1
  0
VERTEX
  8
gg1
 10
0.002500
 20
0.360000
  0
VERTEX
  8
gg1
 10
0.017500
 20
0.360000
  0
SEQEND
  8
gg1
  0
POLYLINE
  8
gg1
 62
1
 40
0.000000
 41
0.000000
 66
  1
  0
VERTEX
  8
gg1
 10
0.010000
 20
0.352500
  0
VERTEX
  8
gg1
 10
0.010000
 20
0.367500
  0
SEQEND
  8
gg1
  0
POLYLINE
  8
gg1
 62
1
 40
0.000000
 41
0.000000
 66
  1
  0
VERTEX
  8
gg1
 10
0.022500
 20
0.325000
  0
VERTEX
  8
gg1
 10
0.037500
 20
0.325000
  0
SEQEND
  8
gg1
  0
POLYLINE
  8
gg1
 62
1
 40
0.000000
 41
0.000000
 66
  1
  0
VERTEX
  8
gg1
 10
0.030000
 20
0.317500
  0
VERTEX
  8
gg1
 10
0.030000
 20
0.332500
  0
SEQEND
  8
gg1
  0
POLYLINE
  8
gg1
 62
1
 40
0.000000
 41
0.000000
 66
  1
  0
VERTEX
  8
gg1
 10
0.372500
 20
0.280000
  0
VERTEX
  8
gg1
 10
0.387500
 20
0.280000
  0
SEQEND
  8
gg1
  0
POLYLINE
  8
gg1
 62
1
 40
0.000000
 41
0.000000
 66
  1
  0
VERTEX
  8
gg1
 10
0.380000
 20
0.272500
  0
VERTEX
  8
gg1
 10
0.380000
 20
0.287500
  0
SEQEND
  8
gg1
  0
POLYLINE
  8
gg1
 62
1
 40
0.000000
 41
0.000000
 66
  1
  0
VERTEX
  8
gg1
 10
0.167500
 20
-0.300300
  0
VERTEX
  8
gg1
 10
0.182500
 20
-0.300300
  0
SEQEND
  8
gg1
  0
POLYLINE
  8
gg1
 62
1
 40
0.000000
 41
0.000000
 66
  1
  0
VERTEX
  8
gg1
 10
0.175000
 20
-0.307800
  0
VERTEX
  8
gg1
 10
0.175000
 20
-0.292800
  0
SEQEND
  8
gg1
  0
POLYLINE
  8
gg1
 62
1
 40
0.000000
 41
0.000000
 66
  1
  0
VERTEX
  8
gg1
 10
0.212500
 20
-0.300000
  0
VERTEX
  8
gg1
 10
0.227500
 20
-0.300000
  0
SEQEND
  8
gg1
  0
POLYLINE
  8
gg1
 62
1
 40
0.000000
 41
0.000000
 66
  1
  0
VERTEX
  8
gg1
 10
0.220000
 20
-0.307500
  0
VERTEX
  8
gg1
 10
0.220000
 20
-0.292500
  0
SEQEND
  8
gg1
  0
POLYLINE
  8
gg1
 62
1
 40
0.000000
 41
0.000000
 66
  1
  0
VERTEX
  8
gg1
 10
0.222500
 20
-0.340000
  0
VERTEX
  8
gg1
 10
0.237500
 20
-0.340000
  0
SEQEND
  8
gg1
  0
POLYLINE
  8
gg1
 62
1
 40
0.000000
 41
0.000000
 66
  1
  0
VERTEX
  8
gg1
 10
0.230000
 20
-0.347500
  0
VERTEX
  8
gg1
 10
0.230000
 20
-0.332500
  0
SEQEND
  8
gg1
  0
POLYLINE
  8
gg1
 62
1
 40
0.000000
 41
0.000000
 66
  1
  0
VERTEX
  8
gg1
 10
0.172500
 20
-0.360000
  0
VERTEX
  8
gg1
 10
0.187500
 20
-0.360000
  0
SEQEND
  8
gg1
  0
POLYLINE
  8
gg1
 62
1
 40
0.000000
 41
0.000000
 66
  1
  0
VERTEX
  8
gg1
 10
0.180000
 20
-0.367500
  0
VERTEX
  8
gg1
 10
0.180000
 20
-0.352500
  0
SEQEND
  8
gg1
  0
POLYLINE
  8
gg1
 62
1
 40
0.000000
 41
0.000000
 66
  1
  0
VERTEX
  8
gg1
 10
0.142500
 20
-0.425000
  0
VERTEX
  8
gg1
 10
0.157500
 20
-0.425000
  0
SEQEND
  8
gg1
  0
POLYLINE
  8
gg1
 62
1
 40
0.000000
 41
0.000000
 66
  1
  0
VERTEX
  8
gg1
 10
0.150000
 20
-0.432500
  0
VERTEX
  8
gg1
 10
0.150000
 20
-0.417500
  0
SEQEND
  8
gg1
  0
POLYLINE
  8
gg1
 62
1
 40
0.000000
 41
0.000000
 66
  1
  0
VERTEX
  8
gg1
 10
0.112500
 20
-0.400000
  0
VERTEX
  8
gg1
 10
0.127500
 20
-0.400000
  0
SEQEND
  8
gg1
  0
POLYLINE
  8
gg1
 62
1
 40
0.000000
 41
0.000000
 66
  1
  0
VERTEX
  8
gg1
 10
0.120000
 20
-0.407500
  0
VERTEX
  8
gg1
 10
0.120000
 20
-0.392500
  0
SEQEND
  8
gg1
  0
POLYLINE
  8
gg1
 62
1
 40
0.000000
 41
0.000000
 66
  1
  0
VERTEX
  8
gg1
 10
0.082500
 20
-0.425000
  0
VERTEX
  8
gg1
 10
0.097500
 20
-0.425000
  0
SEQEND
  8
gg1
  0
POLYLINE
  8
gg1
 62
1
 40
0.000000
 41
0.000000
 66
  1
  0
VERTEX
  8
gg1
 10
0.090000
 20
-0.432500
  0
VERTEX
  8
gg1
 10
0.090000
 20
-0.417500
  0
SEQEND
  8
gg1
  0
POLYLINE
  8
gg1
 62
1
 40
0.000000
 41
0.000000
 66
  1
  0
VERTEX
  8
gg1
 10
0.022500
 20
-0.425000
  0
VERTEX
  8
gg1
 10
0.037500
 20
-0.425000
  0
SEQEND
  8
gg1
  0
POLYLINE
  8
gg1
 62
1
 40
0.000000
 41
0.000000
 66
  1
  0
VERTEX
  8
gg1
 10
0.030000
 20
-0.432500
  0
VERTEX
  8
gg1
 10
0.030000
 20
-0.417500
  0
SEQEND
  8
gg1
  0
POLYLINE
  8
gg1
 62
1
 40
0.000000
 41
0.000000
 66
  1
  0
VERTEX
  8
gg1
 10
0.052500
 20
-0.400000
  0
VERTEX
  8
gg1
 10
0.067500
 20
-0.400000
  0
SEQEND
  8
gg1
  0
POLYLINE
  8
gg1
 62
1
 40
0.000000
 41
0.000000
 66
  1
  0
VERTEX
  8
gg1
 10
0.060000
 20
-0.407500
  0
VERTEX
  8
gg1
 10
0.060000
 20
-0.392500
  0
SEQEND
  8
gg1
  0
POLYLINE
  8
gg1
 62
1
 40
0.000000
 41
0.000000
 66
  1
  0
VERTEX
  8
gg1
 10
0.237500
 20
-0.885000
  0
VERTEX
  8
gg1
 10
0.252500
 20
-0.885000
  0
SEQEND
  8
gg1
  0
POLYLINE
  8
gg1
 62
1
 40
0.000000
 41
0.000000
 66
  1
  0
VERTEX
  8
gg1
 10
0.245000
 20
-0.892500
  0
VERTEX
  8
gg1
 10
0.245000
 20
-0.877500
  0
SEQEND
  8
gg1
  0
POLYLINE
  8
gg1
 62
1
 40
0.000000
 41
0.000000
 66
  1
  0
VERTEX
  8
gg1
 10
-1.037500
 20
-0.370000
  0
VERTEX
  8
gg1
 10
-1.022500
 20
-0.370000
  0
SEQEND
  8
gg1
  0
POLYLINE
  8
gg1
 62
1
 40
0.000000
 41
0.000000
 66
  1
  0
VERTEX
  8
gg1
 10
-1.030000
 20
-0.377500
  0
VERTEX
  8
gg1
 10
-1.030000
 20
-0.362500
  0
SEQEND
  8
gg1
  0
POLYLINE
  8
gg1
 62
1
 40
0.000000
 41
0.000000
 66
  1
  0
VERTEX
  8
gg1
 10
-1.007500
 20
-0.370000
  0
VERTEX
  8
gg1
 10
-0.992500
 20
-0.370000
  0
SEQEND
  8
gg1
  0
POLYLINE
  8
gg1
 62
1
 40
0.000000
 41
0.000000
 66
  1
  0
VERTEX
  8
gg1
 10
-1.000000
 20
-0.377500
  0
VERTEX
  8
gg1
 10
-1.000000
 20
-0.362500
  0
SEQEND
  8
gg1
  0
POLYLINE
  8
gg1
 62
1
 40
0.000000
 41
0.000000
 66
  1
  0
VERTEX
  8
gg1
 10
-1.007500
 20
-0.340000
  0
VERTEX
  8
gg1
 10
-0.992500
 20
-0.340000
  0
SEQEND
  8
gg1
  0
POLYLINE
  8
gg1
 62
1
 40
0.000000
 41
0.000000
 66
  1
  0
VERTEX
  8
gg1
 10
-1.000000
 20
-0.347500
  0
VERTEX
  8
gg1
 10
-1.000000
 20
-0.332500
  0
SEQEND
  8
gg1
  0
POLYLINE
  8
gg1
 62
1
 40
0.000000
 41
0.000000
 66
  1
  0
VERTEX
  8
gg1
 10
-1.037500
 20
-0.340000
  0
VERTEX
  8
gg1
 10
-1.022500
 20
-0.340000
  0
SEQEND
  8
gg1
  0
POLYLINE
  8
gg1
 62
1
 40
0.000000
 41
0.000000
 66
  1
  0
VERTEX
  8
gg1
 10
-1.030000
 20
-0.347500
  0
VERTEX
  8
gg1
 10
-1.030000
 20
-0.332500
  0
SEQEND
  8
gg1
  0
POLYLINE
  8
gg1
 62
1
 40
0.000000
 41
0.000000
 66
  1
  0
VERTEX
  8
gg1
 10
-1.472500
 20
-0.420000
  0
VERTEX
  8
gg1
 10
-1.457500
 20
-0.420000
  0
SEQEND
  8
gg1
  0
POLYLINE
  8
gg1
 62
1
 40
0.000000
 41
0.000000
 66
  1
  0
VERTEX
  8
gg1
 10
-1.465000
 20
-0.427500
  0
VERTEX
  8
gg1
 10
-1.465000
 20
-0.412500
  0
SEQEND
  8
gg1
  0
POLYLINE
  8
gg1
 62
1
 40
0.000000
 41
0.000000
 66
  1
  0
VERTEX
  8
gg1
 10
-1.757500
 20
-0.530000
  0
VERTEX
  8
gg1
 10
-1.742500
 20
-0.530000
  0
SEQEND
  8
gg1
  0
POLYLINE
  8
gg1
 62
1
 40
0.000000
 41
0.000000
 66
  1
  0
VERTEX
  8
gg1
 10
-1.750000
 20
-0.537500
  0
VERTEX
  8
gg1
 10
-1.750000
 20
-0.522500
  0
SEQEND
  8
gg1
  0
POLYLINE
  8
gg1
 62
1
 40
0.000000
 41
0.000000
 66
  1
  0
VERTEX
  8
gg1
 10
-1.412500
 20
-0.315000
  0
VERTEX
  8
gg1
 10
-1.397500
 20
-0.315000
  0
SEQEND
  8
gg1
  0
POLYLINE
  8
gg1
 62
1
 40
0.000000
 41
0.000000
 66
  1
  0
VERTEX
  8
gg1
 10
-1.405000
 20
-0.322500
  0
VERTEX
  8
gg1
 10
-1.405000
 20
-0.307500
  0
SEQEND
  8
gg1
  0
POLYLINE
  8
gg1
 62
1
 40
0.000000
 41
0.000000
 66
  1
  0
VERTEX
  8
gg1
 10
-1.482500
 20
-0.315000
  0
VERTEX
  8
gg1
 10
-1.467500
 20
-0.315000
  0
SEQEND
  8
gg1
  0
POLYLINE
  8
gg1
 62
1
 40
0.000000
 41
0.000000
 66
  1
  0
VERTEX
  8
gg1
 10
-1.475000
 20
-0.322500
  0
VERTEX
  8
gg1
 10
-1.475000
 20
-0.307500
  0
SEQEND
  8
gg1
  0
POLYLINE
  8
gg1
 62
1
 40
0.000000
 41
0.000000
 66
  1
  0
VERTEX
  8
gg1
 10
-1.342500
 20
-0.535000
  0
VERTEX
  8
gg1
 10
-1.327500
 20
-0.535000
  0
SEQEND
  8
gg1
  0
POLYLINE
  8
gg1
 62
1
 40
0.000000
 41
0.000000
 66
  1
  0
VERTEX
  8
gg1
 10
-1.335000
 20
-0.542500
  0
VERTEX
  8
gg1
 10
-1.335000
 20
-0.527500
  0
SEQEND
  8
gg1
  0
POLYLINE
  8
gg1
 62
1
 40
0.000000
 41
0.000000
 66
  1
  0
VERTEX
  8
gg1
 10
-1.367500
 20
-0.555000
  0
VERTEX
  8
gg1
 10
-1.352500
 20
-0.555000
  0
SEQEND
  8
gg1
  0
POLYLINE
  8
gg1
 62
1
 40
0.000000
 41
0.000000
 66
  1
  0
VERTEX
  8
gg1
 10
-1.360000
 20
-0.562500
  0
VERTEX
  8
gg1
 10
-1.360000
 20
-0.547500
  0
SEQEND
  8
gg1
  0
POLYLINE
  8
gg1
 62
1
 40
0.000000
 41
0.000000
 66
  1
  0
VERTEX
  8
gg1
 10
-1.392500
 20
-0.535000
  0
VERTEX
  8
gg1
 10
-1.377500
 20
-0.535000
  0
SEQEND
  8
gg1
  0
POLYLINE
  8
gg1
 62
1
 40
0.000000
 41
0.000000
 66
  1
  0
VERTEX
  8
gg1
 10
-1.385000
 20
-0.542500
  0
VERTEX
  8
gg1
 10
-1.385000
 20
-0.527500
  0
SEQEND
  8
gg1
  0
POLYLINE
  8
gg1
 62
1
 40
0.000000
 41
0.000000
 66
  1
  0
VERTEX
  8
gg1
 10
-1.417500
 20
-0.555000
  0
VERTEX
  8
gg1
 10
-1.402500
 20
-0.555000
  0
SEQEND
  8
gg1
  0
POLYLINE
  8
gg1
 62
1
 40
0.000000
 41
0.000000
 66
  1
  0
VERTEX
  8
gg1
 10
-1.410000
 20
-0.562500
  0
VERTEX
  8
gg1
 10
-1.410000
 20
-0.547500
  0
SEQEND
  8
gg1
  0
POLYLINE
  8
gg1
 62
1
 40
0.000000
 41
0.000000
 66
  1
  0
VERTEX
  8
gg1
 10
-1.442500
 20
-0.535000
  0
VERTEX
  8
gg1
 10
-1.427500
 20
-0.535000
  0
SEQEND
  8
gg1
  0
POLYLINE
  8
gg1
 62
1
 40
0.000000
 41
0.000000
 66
  1
  0
VERTEX
  8
gg1
 10
-1.435000
 20
-0.542500
  0
VERTEX
  8
gg1
 10
-1.435000
 20
-0.527500
  0
SEQEND
  8
gg1
  0
POLYLINE
  8
gg1
 62
1
 40
0.000000
 41
0.000000
 66
  1
  0
VERTEX
  8
gg1
 10
-1.447500
 20
-0.570000
  0
VERTEX
  8
gg1
 10
-1.432500
 20
-0.570000
  0
SEQEND
  8
gg1
  0
POLYLINE
  8
gg1
 62
1
 40
0.000000
 41
0.000000
 66
  1
  0
VERTEX
  8
gg1
 10
-1.440000
 20
-0.577500
  0
VERTEX
  8
gg1
 10
-1.440000
 20
-0.562500
  0
SEQEND
  8
gg1
  0
POLYLINE
  8
gg1
 62
1
 40
0.000000
 41
0.000000
 66
  1
  0
VERTEX
  8
gg1
 10
-1.472500
 20
-0.590000
  0
VERTEX
  8
gg1
 10
-1.457500
 20
-0.590000
  0
SEQEND
  8
gg1
  0
POLYLINE
  8
gg1
 62
1
 40
0.000000
 41
0.000000
 66
  1
  0
VERTEX
  8
gg1
 10
-1.465000
 20
-0.597500
  0
VERTEX
  8
gg1
 10
-1.465000
 20
-0.582500
  0
SEQEND
  8
gg1
  0
POLYLINE
  8
gg1
 62
1
 40
0.000000
 41
0.000000
 66
  1
  0
VERTEX
  8
gg1
 10
-1.472500
 20
-0.550000
  0
VERTEX
  8
gg1
 10
-1.457500
 20
-0.550000
  0
SEQEND
  8
gg1
  0
POLYLINE
  8
gg1
 62
1
 40
0.000000
 41
0.000000
 66
  1
  0
VERTEX
  8
gg1
 10
-1.465000
 20
-0.557500
  0
VERTEX
  8
gg1
 10
-1.465000
 20
-0.542500
  0
SEQEND
  8
gg1
  0
POLYLINE
  8
gg1
 62
1
 40
0.000000
 41
0.000000
 66
  1
  0
VERTEX
  8
gg1
 10
0.347500
 20
-1.550000
  0
VERTEX
  8
gg1
 10
0.362500
 20
-1.550000
  0
SEQEND
  8
gg1
  0
POLYLINE
  8
gg1
 62
1
 40
0.000000
 41
0.000000
 66
  1
  0
VERTEX
  8
gg1
 10
0.355000
 20
-1.557500
  0
VERTEX
  8
gg1
 10
0.355000
 20
-1.542500
  0
SEQEND
  8
gg1
  0
POLYLINE
  8
gg1
 62
1
 40
0.000000
 41
0.000000
 66
  1
  0
VERTEX
  8
gg1
 10
0.227500
 20
-1.450000
  0
VERTEX
  8
gg1
 10
0.242500
 20
-1.450000
  0
SEQEND
  8
gg1
  0
POLYLINE
  8
gg1
 62
1
 40
0.000000
 41
0.000000
 66
  1
  0
VERTEX
  8
gg1
 10
0.235000
 20
-1.457500
  0
VERTEX
  8
gg1
 10
0.235000
 20
-1.442500
  0
SEQEND
  8
gg1
  0
POLYLINE
  8
gg1
 62
1
 40
0.000000
 41
0.000000
 66
  1
  0
VERTEX
  8
gg1
 10
0.612500
 20
-1.475000
  0
VERTEX
  8
gg1
 10
0.627500
 20
-1.475000
  0
SEQEND
  8
gg1
  0
POLYLINE
  8
gg1
 62
1
 40
0.000000
 41
0.000000
 66
  1
  0
VERTEX
  8
gg1
 10
0.620000
 20
-1.482500
  0
VERTEX
  8
gg1
 10
0.620000
 20
-1.467500
  0
SEQEND
  8
gg1
  0
POLYLINE
  8
gg1
 62
1
 40
0.000000
 41
0.000000
 66
  1
  0
VERTEX
  8
gg1
 10
0.652500
 20
-1.475000
  0
VERTEX
  8
gg1
 10
0.667500
 20
-1.475000
  0
SEQEND
  8
gg1
  0
POLYLINE
  8
gg1
 62
1
 40
0.000000
 41
0.000000
 66
  1
  0
VERTEX
  8
gg1
 10
0.660000
 20
-1.482500
  0
VERTEX
  8
gg1
 10
0.660000
 20
-1.467500
  0
SEQEND
  8
gg1
  0
POLYLINE
  8
gg1
 62
1
 40
0.000000
 41
0.000000
 66
  1
  0
VERTEX
  8
gg1
 10
0.087500
 20
-1.745000
  0
VERTEX
  8
gg1
 10
0.102500
 20
-1.745000
  0
SEQEND
  8
gg1
  0
POLYLINE
  8
gg1
 62
1
 40
0.000000
 41
0.000000
 66
  1
  0
VERTEX
  8
gg1
 10
0.095000
 20
-1.752500
  0
VERTEX
  8
gg1
 10
0.095000
 20
-1.737500
  0
SEQEND
  8
gg1
  0
POLYLINE
  8
gg1
 62
1
 40
0.000000
 41
0.000000
 66
  1
  0
VERTEX
  8
gg1
 10
0.147500
 20
-1.805000
  0
VERTEX
  8
gg1
 10
0.162500
 20
-1.805000
  0
SEQEND
  8
gg1
  0
POLYLINE
  8
gg1
 62
1
 40
0.000000
 41
0.000000
 66
  1
  0
VERTEX
  8
gg1
 10
0.155000
 20
-1.812500
  0
VERTEX
  8
gg1
 10
0.155000
 20
-1.797500
  0
SEQEND
  8
gg1
  0
POLYLINE
  8
gg1
 62
1
 40
0.000000
 41
0.000000
 66
  1
  0
VERTEX
  8
gg1
 10
0.087500
 20
-1.805000
  0
VERTEX
  8
gg1
 10
0.102500
 20
-1.805000
  0
SEQEND
  8
gg1
  0
POLYLINE
  8
gg1
 62
1
 40
0.000000
 41
0.000000
 66
  1
  0
VERTEX
  8
gg1
 10
0.095000
 20
-1.812500
  0
VERTEX
  8
gg1
 10
0.095000
 20
-1.797500
  0
SEQEND
  8
gg1
  0
POLYLINE
  8
gg1
 62
1
 40
0.000000
 41
0.000000
 66
  1
  0
VERTEX
  8
gg1
 10
0.387500
 20
-1.880000
  0
VERTEX
  8
gg1
 10
0.402500
 20
-1.880000
  0
SEQEND
  8
gg1
  0
POLYLINE
  8
gg1
 62
1
 40
0.000000
 41
0.000000
 66
  1
  0
VERTEX
  8
gg1
 10
0.395000
 20
-1.887500
  0
VERTEX
  8
gg1
 10
0.395000
 20
-1.872500
  0
SEQEND
  8
gg1
  0
POLYLINE
  8
gg1
 62
1
 40
0.000000
 41
0.000000
 66
  1
  0
VERTEX
  8
gg1
 10
0.947500
 20
-1.880000
  0
VERTEX
  8
gg1
 10
0.962500
 20
-1.880000
  0
SEQEND
  8
gg1
  0
POLYLINE
  8
gg1
 62
1
 40
0.000000
 41
0.000000
 66
  1
  0
VERTEX
  8
gg1
 10
0.955000
 20
-1.887500
  0
VERTEX
  8
gg1
 10
0.955000
 20
-1.872500
  0
SEQEND
  8
gg1
  0
POLYLINE
  8
gg1
 62
1
 40
0.000000
 41
0.000000
 66
  1
  0
VERTEX
  8
gg1
 10
0.282500
 20
-1.745000
  0
VERTEX
  8
gg1
 10
0.297500
 20
-1.745000
  0
SEQEND
  8
gg1
  0
POLYLINE
  8
gg1
 62
1
 40
0.000000
 41
0.000000
 66
  1
  0
VERTEX
  8
gg1
 10
0.290000
 20
-1.752500
  0
VERTEX
  8
gg1
 10
0.290000
 20
-1.737500
  0
SEQEND
  8
gg1
  0
POLYLINE
  8
gg1
 62
1
 40
0.000000
 41
0.000000
 66
  1
  0
VERTEX
  8
gg1
 10
0.282500
 20
-1.970000
  0
VERTEX
  8
gg1
 10
0.297500
 20
-1.970000
  0
SEQEND
  8
gg1
  0
POLYLINE
  8
gg1
 62
1
 40
0.000000
 41
0.000000
 66
  1
  0
VERTEX
  8
gg1
 10
0.290000
 20
-1.977500
  0
VERTEX
  8
gg1
 10
0.290000
 20
-1.962500
  0
SEQEND
  8
gg1
  0
POLYLINE
  8
gg1
 62
1
 40
0.000000
 41
0.000000
 66
  1
  0
VERTEX
  8
gg1
 10
1.087500
 20
-1.970000
  0
VERTEX
  8
gg1
 10
1.102500
 20
-1.970000
  0
SEQEND
  8
gg1
  0
POLYLINE
  8
gg1
 62
1
 40
0.000000
 41
0.000000
 66
  1
  0
VERTEX
  8
gg1
 10
1.095000
 20
-1.977500
  0
VERTEX
  8
gg1
 10
1.095000
 20
-1.962500
  0
SEQEND
  8
gg1
  0
POLYLINE
  8
gg1
 62
1
 40
0.000000
 41
0.000000
 66
  1
  0
VERTEX
  8
gg1
 10
1.217500
 20
-1.615000
  0
VERTEX
  8
gg1
 10
1.232500
 20
-1.615000
  0
SEQEND
  8
gg1
  0
POLYLINE
  8
gg1
 62
1
 40
0.000000
 41
0.000000
 66
  1
  0
VERTEX
  8
gg1
 10
1.225000
 20
-1.622500
  0
VERTEX
  8
gg1
 10
1.225000
 20
-1.607500
  0
SEQEND
  8
gg1
  0
POLYLINE
  8
gg1
 62
1
 40
0.000000
 41
0.000000
 66
  1
  0
VERTEX
  8
gg1
 10
0.737500
 20
-1.475000
  0
VERTEX
  8
gg1
 10
0.752500
 20
-1.475000
  0
SEQEND
  8
gg1
  0
POLYLINE
  8
gg1
 62
1
 40
0.000000
 41
0.000000
 66
  1
  0
VERTEX
  8
gg1
 10
0.745000
 20
-1.482500
  0
VERTEX
  8
gg1
 10
0.745000
 20
-1.467500
  0
SEQEND
  8
gg1
  0
POLYLINE
  8
gg1
 62
1
 40
0.000000
 41
0.000000
 66
  1
  0
VERTEX
  8
gg1
 10
-0.737500
 20
-1.970000
  0
VERTEX
  8
gg1
 10
-0.722500
 20
-1.970000
  0
SEQEND
  8
gg1
  0
POLYLINE
  8
gg1
 62
1
 40
0.000000
 41
0.000000
 66
  1
  0
VERTEX
  8
gg1
 10
-0.730000
 20
-1.977500
  0
VERTEX
  8
gg1
 10
-0.730000
 20
-1.962500
  0
SEQEND
  8
gg1
  0
POLYLINE
  8
gg1
 62
1
 40
0.000000
 41
0.000000
 66
  1
  0
VERTEX
  8
gg1
 10
-0.317500
 20
-1.695000
  0
VERTEX
  8
gg1
 10
-0.302500
 20
-1.695000
  0
SEQEND
  8
gg1
  0
POLYLINE
  8
gg1
 62
1
 40
0.000000
 41
0.000000
 66
  1
  0
VERTEX
  8
gg1
 10
-0.310000
 20
-1.702500
  0
VERTEX
  8
gg1
 10
-0.310000
 20
-1.687500
  0
SEQEND
  8
gg1
  0
POLYLINE
  8
gg1
 62
1
 40
0.000000
 41
0.000000
 66
  1
  0
VERTEX
  8
gg1
 10
-0.837500
 20
-1.405000
  0
VERTEX
  8
gg1
 10
-0.822500
 20
-1.405000
  0
SEQEND
  8
gg1
  0
POLYLINE
  8
gg1
 62
1
 40
0.000000
 41
0.000000
 66
  1
  0
VERTEX
  8
gg1
 10
-0.830000
 20
-1.412500
  0
VERTEX
  8
gg1
 10
-0.830000
 20
-1.397500
  0
SEQEND
  8
gg1
  0
POLYLINE
  8
gg1
 62
1
 40
0.000000
 41
0.000000
 66
  1
  0
VERTEX
  8
gg1
 10
-0.522500
 20
0.950000
  0
VERTEX
  8
gg1
 10
-0.507500
 20
0.950000
  0
SEQEND
  8
gg1
  0
POLYLINE
  8
gg1
 62
1
 40
0.000000
 41
0.000000
 66
  1
  0
VERTEX
  8
gg1
 10
-0.515000
 20
0.942500
  0
VERTEX
  8
gg1
 10
-0.515000
 20
0.957500
  0
SEQEND
  8
gg1
  0
POLYLINE
  8
gg1
 62
1
 40
0.000000
 41
0.000000
 66
  1
  0
VERTEX
  8
gg1
 10
0.497500
 20
0.805000
  0
VERTEX
  8
gg1
 10
0.512500
 20
0.805000
  0
SEQEND
  8
gg1
  0
POLYLINE
  8
gg1
 62
1
 40
0.000000
 41
0.000000
 66
  1
  0
VERTEX
  8
gg1
 10
0.505000
 20
0.797500
  0
VERTEX
  8
gg1
 10
0.505000
 20
0.812500
  0
SEQEND
  8
gg1
  0
POLYLINE
  8
gg1
 62
1
 40
0.000000
 41
0.000000
 66
  1
  0
VERTEX
  8
gg1
 10
0.557500
 20
1.230000
  0
VERTEX
  8
gg1
 10
0.572500
 20
1.230000
  0
SEQEND
  8
gg1
  0
POLYLINE
  8
gg1
 62
1
 40
0.000000
 41
0.000000
 66
  1
  0
VERTEX
  8
gg1
 10
0.565000
 20
1.222500
  0
VERTEX
  8
gg1
 10
0.565000
 20
1.237500
  0
SEQEND
  8
gg1
  0
POLYLINE
  8
gg1
 62
1
 40
0.000000
 41
0.000000
 66
  1
  0
VERTEX
  8
gg1
 10
-0.717500
 20
1.060000
  0
VERTEX
  8
gg1
 10
-0.702500
 20
1.060000
  0
SEQEND
  8
gg1
  0
POLYLINE
  8
gg1
 62
1
 40
0.000000
 41
0.000000
 66
  1
  0
VERTEX
  8
gg1
 10
-0.710000
 20
1.052500
  0
VERTEX
  8
gg1
 10
-0.710000
 20
1.067500
  0
SEQEND
  8
gg1
  0
POLYLINE
  8
gg1
 62
1
 40
0.000000
 41
0.000000
 66
  1
  0
VERTEX
  8
gg1
 10
-0.667500
 20
1.060000
  0
VERTEX
  8
gg1
 10
-0.652500
 20
1.060000
  0
SEQEND
  8
gg1
  0
POLYLINE
  8
gg1
 62
1
 40
0.000000
 41
0.000000
 66
  1
  0
VERTEX
  8
gg1
 10
-0.660000
 20
1.052500
  0
VERTEX
  8
gg1
 10
-0.660000
 20
1.067500
  0
SEQEND
  8
gg1
  0
POLYLINE
  8
gg1
 62
1
 40
0.000000
 41
0.000000
 66
  1
  0
VERTEX
  8
gg1
 10
-0.642500
 20
1.045000
  0
VERTEX
  8
gg1
 10
-0.627500
 20
1.045000
  0
SEQEND
  8
gg1
  0
POLYLINE
  8
gg1
 62
1
 40
0.000000
 41
0.000000
 66
  1
  0
VERTEX
  8
gg1
 10
-0.635000
 20
1.037500
  0
VERTEX
  8
gg1
 10
-0.635000
 20
1.052500
  0
SEQEND
  8
gg1
  0
POLYLINE
  8
gg1
 62
1
 40
0.000000
 41
0.000000
 66
  1
  0
VERTEX
  8
gg1
 10
-1.667500
 20
0.250000
  0
VERTEX
  8
gg1
 10
-1.652500
 20
0.250000
  0
SEQEND
  8
gg1
  0
POLYLINE
  8
gg1
 62
1
 40
0.000000
 41
0.000000
 66
  1
  0
VERTEX
  8
gg1
 10
-1.660000
 20
0.242500
  0
VERTEX
  8
gg1
 10
-1.660000
 20
0.257500
  0
SEQEND
  8
gg1
  0
POLYLINE
  8
gg1
 62
1
 40
0.000000
 41
0.000000
 66
  1
  0
VERTEX
  8
gg1
 10
-1.512500
 20
0.270000
  0
VERTEX
  8
gg1
 10
-1.497500
 20
0.270000
  0
SEQEND
  8
gg1
  0
POLYLINE
  8
gg1
 62
1
 40
0.000000
 41
0.000000
 66
  1
  0
VERTEX
  8
gg1
 10
-1.505000
 20
0.262500
  0
VERTEX
  8
gg1
 10
-1.505000
 20
0.277500
  0
SEQEND
  8
gg1
  0
POLYLINE
  8
gg1
 62
1
 40
0.000000
 41
0.000000
 66
  1
  0
VERTEX
  8
gg1
 10
-1.407500
 20
0.495000
  0
VERTEX
  8
gg1
 10
-1.392500
 20
0.495000
  0
SEQEND
  8
gg1
  0
POLYLINE
  8
gg1
 62
1
 40
0.000000
 41
0.000000
 66
  1
  0
VERTEX
  8
gg1
 10
-1.400000
 20
0.487500
  0
VERTEX
  8
gg1
 10
-1.400000
 20
0.502500
  0
SEQEND
  8
gg1
  0
POLYLINE
  8
gg1
 62
1
 40
0.000000
 41
0.000000
 66
  1
  0
VERTEX
  8
gg1
 10
-1.442500
 20
0.320000
  0
VERTEX
  8
gg1
 10
-1.427500
 20
0.320000
  0
SEQEND
  8
gg1
  0
POLYLINE
  8
gg1
 62
1
 40
0.000000
 41
0.000000
 66
  1
  0
VERTEX
  8
gg1
 10
-1.435000
 20
0.312500
  0
VERTEX
  8
gg1
 10
-1.435000
 20
0.327500
  0
SEQEND
  8
gg1
  0
POLYLINE
  8
gg1
 62
1
 40
0.000000
 41
0.000000
 66
  1
  0
VERTEX
  8
gg1
 10
-1.297500
 20
0.320000
  0
VERTEX
  8
gg1
 10
-1.282500
 20
0.320000
  0
SEQEND
  8
gg1
  0
POLYLINE
  8
gg1
 62
1
 40
0.000000
 41
0.000000
 66
  1
  0
VERTEX
  8
gg1
 10
-1.290000
 20
0.312500
  0
VERTEX
  8
gg1
 10
-1.290000
 20
0.327500
  0
SEQEND
  8
gg1
  0
POLYLINE
  8
gg1
 62
1
 40
0.000000
 41
0.000000
 66
  1
  0
VERTEX
  8
gg1
 10
-1.512500
 20
0.320000
  0
VERTEX
  8
gg1
 10
-1.497500
 20
0.320000
  0
SEQEND
  8
gg1
  0
POLYLINE
  8
gg1
 62
1
 40
0.000000
 41
0.000000
 66
  1
  0
VERTEX
  8
gg1
 10
-1.505000
 20
0.312500
  0
VERTEX
  8
gg1
 10
-1.505000
 20
0.327500
  0
SEQEND
  8
gg1
  0
POLYLINE
  8
gg1
 62
1
 40
0.000000
 41
0.000000
 66
  1
  0
VERTEX
  8
gg1
 10
-1.667500
 20
0.345000
  0
VERTEX
  8
gg1
 10
-1.652500
 20
0.345000
  0
SEQEND
  8
gg1
  0
POLYLINE
  8
gg1
 62
1
 40
0.000000
 41
0.000000
 66
  1
  0
VERTEX
  8
gg1
 10
-1.660000
 20
0.337500
  0
VERTEX
  8
gg1
 10
-1.660000
 20
0.352500
  0
SEQEND
  8
gg1
  0
POLYLINE
  8
gg1
 62
1
 40
0.000000
 41
0.000000
 66
  1
  0
VERTEX
  8
gg1
 10
-1.297500
 20
0.365000
  0
VERTEX
  8
gg1
 10
-1.282500
 20
0.365000
  0
SEQEND
  8
gg1
  0
POLYLINE
  8
gg1
 62
1
 40
0.000000
 41
0.000000
 66
  1
  0
VERTEX
  8
gg1
 10
-1.290000
 20
0.357500
  0
VERTEX
  8
gg1
 10
-1.290000
 20
0.372500
  0
SEQEND
  8
gg1
  0
POLYLINE
  8
gg1
 62
1
 40
0.000000
 41
0.000000
 66
  1
  0
VERTEX
  8
gg1
 10
1.267500
 20
0.475000
  0
VERTEX
  8
gg1
 10
1.282500
 20
0.475000
  0
SEQEND
  8
gg1
  0
POLYLINE
  8
gg1
 62
1
 40
0.000000
 41
0.000000
 66
  1
  0
VERTEX
  8
gg1
 10
1.275000
 20
0.467500
  0
VERTEX
  8
gg1
 10
1.275000
 20
0.482500
  0
SEQEND
  8
gg1
  0
POLYLINE
  8
gg1
 62
1
 40
0.000000
 41
0.000000
 66
  1
  0
VERTEX
  8
gg1
 10
-1.102500
 20
0.230000
  0
VERTEX
  8
gg1
 10
-1.087500
 20
0.230000
  0
SEQEND
  8
gg1
  0
POLYLINE
  8
gg1
 62
1
 40
0.000000
 41
0.000000
 66
  1
  0
VERTEX
  8
gg1
 10
-1.095000
 20
0.222500
  0
VERTEX
  8
gg1
 10
-1.095000
 20
0.237500
  0
SEQEND
  8
gg1
  0
POLYLINE
  8
gg1
 62
1
 40
0.000000
 41
0.000000
 66
  1
  0
VERTEX
  8
gg1
 10
-1.022500
 20
0.230000
  0
VERTEX
  8
gg1
 10
-1.007500
 20
0.230000
  0
SEQEND
  8
gg1
  0
POLYLINE
  8
gg1
 62
1
 40
0.000000
 41
0.000000
 66
  1
  0
VERTEX
  8
gg1
 10
-1.015000
 20
0.222500
  0
VERTEX
  8
gg1
 10
-1.015000
 20
0.237500
  0
SEQEND
  8
gg1
  0
POLYLINE
  8
gg1
 62
1
 40
0.000000
 41
0.000000
 66
  1
  0
VERTEX
  8
gg1
 10
-0.997500
 20
0.345000
  0
VERTEX
  8
gg1
 10
-0.982500
 20
0.345000
  0
SEQEND
  8
gg1
  0
POLYLINE
  8
gg1
 62
1
 40
0.000000
 41
0.000000
 66
  1
  0
VERTEX
  8
gg1
 10
-0.990000
 20
0.337500
  0
VERTEX
  8
gg1
 10
-0.990000
 20
0.352500
  0
SEQEND
  8
gg1
  0
POLYLINE
  8
gg1
 62
1
 40
0.000000
 41
0.000000
 66
  1
  0
VERTEX
  8
gg1
 10
-0.952500
 20
0.300000
  0
VERTEX
  8
gg1
 10
-0.937500
 20
0.300000
  0
SEQEND
  8
gg1
  0
POLYLINE
  8
gg1
 62
1
 40
0.000000
 41
0.000000
 66
  1
  0
VERTEX
  8
gg1
 10
-0.945000
 20
0.292500
  0
VERTEX
  8
gg1
 10
-0.945000
 20
0.307500
  0
SEQEND
  8
gg1
  0
POLYLINE
  8
gg1
 62
1
 40
0.000000
 41
0.000000
 66
  1
  0
VERTEX
  8
gg1
 10
-0.797500
 20
-0.585000
  0
VERTEX
  8
gg1
 10
-0.782500
 20
-0.585000
  0
SEQEND
  8
gg1
  0
POLYLINE
  8
gg1
 62
1
 40
0.000000
 41
0.000000
 66
  1
  0
VERTEX
  8
gg1
 10
-0.790000
 20
-0.592500
  0
VERTEX
  8
gg1
 10
-0.790000
 20
-0.577500
  0
SEQEND
  8
gg1
  0
POLYLINE
  8
gg1
 62
1
 40
0.000000
 41
0.000000
 66
  1
  0
VERTEX
  8
gg1
 10
-0.397500
 20
-0.585000
  0
VERTEX
  8
gg1
 10
-0.382500
 20
-0.585000
  0
SEQEND
  8
gg1
  0
POLYLINE
  8
gg1
 62
1
 40
0.000000
 41
0.000000
 66
  1
  0
VERTEX
  8
gg1
 10
-0.390000
 20
-0.592500
  0
VERTEX
  8
gg1
 10
-0.390000
 20
-0.577500
  0
SEQEND
  8
gg1
  0
POLYLINE
  8
gg1
 62
1
 40
0.000000
 41
0.000000
 66
  1
  0
VERTEX
  8
gg1
 10
-0.797500
 20
-0.415000
  0
VERTEX
  8
gg1
 10
-0.782500
 20
-0.415000
  0
SEQEND
  8
gg1
  0
POLYLINE
  8
gg1
 62
1
 40
0.000000
 41
0.000000
 66
  1
  0
VERTEX
  8
gg1
 10
-0.790000
 20
-0.422500
  0
VERTEX
  8
gg1
 10
-0.790000
 20
-0.407500
  0
SEQEND
  8
gg1
  0
POLYLINE
  8
gg1
 62
1
 40
0.000000
 41
0.000000
 66
  1
  0
VERTEX
  8
gg1
 10
-0.697500
 20
-0.415000
  0
VERTEX
  8
gg1
 10
-0.682500
 20
-0.415000
  0
SEQEND
  8
gg1
  0
POLYLINE
  8
gg1
 62
1
 40
0.000000
 41
0.000000
 66
  1
  0
VERTEX
  8
gg1
 10
-0.690000
 20
-0.422500
  0
VERTEX
  8
gg1
 10
-0.690000
 20
-0.407500
  0
SEQEND
  8
gg1
  0
POLYLINE
  8
gg1
 62
1
 40
0.000000
 41
0.000000
 66
  1
  0
VERTEX
  8
gg1
 10
-0.497500
 20
-0.415000
  0
VERTEX
  8
gg1
 10
-0.482500
 20
-0.415000
  0
SEQEND
  8
gg1
  0
POLYLINE
  8
gg1
 62
1
 40
0.000000
 41
0.000000
 66
  1
  0
VERTEX
  8
gg1
 10
-0.490000
 20
-0.422500
  0
VERTEX
  8
gg1
 10
-0.490000
 20
-0.407500
  0
SEQEND
  8
gg1
  0
POLYLINE
  8
gg1
 62
1
 40
0.000000
 41
0.000000
 66
  1
  0
VERTEX
  8
gg1
 10
-0.597500
 20
-0.415000
  0
VERTEX
  8
gg1
 10
-0.582500
 20
-0.415000
  0
SEQEND
  8
gg1
  0
POLYLINE
  8
gg1
 62
1
 40
0.000000
 41
0.000000
 66
  1
  0
VERTEX
  8
gg1
 10
-0.590000
 20
-0.422500
  0
VERTEX
  8
gg1
 10
-0.590000
 20
-0.407500
  0
SEQEND
  8
gg1
  0
POLYLINE
  8
gg1
 62
1
 40
0.000000
 41
0.000000
 66
  1
  0
VERTEX
  8
gg1
 10
-0.152500
 20
-0.870000
  0
VERTEX
  8
gg1
 10
-0.137500
 20
-0.870000
  0
SEQEND
  8
gg1
  0
POLYLINE
  8
gg1
 62
1
 40
0.000000
 41
0.000000
 66
  1
  0
VERTEX
  8
gg1
 10
-0.145000
 20
-0.877500
  0
VERTEX
  8
gg1
 10
-0.145000
 20
-0.862500
  0
SEQEND
  8
gg1
  0
POLYLINE
  8
gg1
 62
1
 40
0.000000
 41
0.000000
 66
  1
  0
VERTEX
  8
gg1
 10
-0.897500
 20
-0.805000
  0
VERTEX
  8
gg1
 10
-0.882500
 20
-0.805000
  0
SEQEND
  8
gg1
  0
POLYLINE
  8
gg1
 62
1
 40
0.000000
 41
0.000000
 66
  1
  0
VERTEX
  8
gg1
 10
-0.890000
 20
-0.812500
  0
VERTEX
  8
gg1
 10
-0.890000
 20
-0.797500
  0
SEQEND
  8
gg1
  0
POLYLINE
  8
gg1
 62
1
 40
0.000000
 41
0.000000
 66
  1
  0
VERTEX
  8
gg1
 10
-0.807500
 20
-0.805000
  0
VERTEX
  8
gg1
 10
-0.792500
 20
-0.805000
  0
SEQEND
  8
gg1
  0
POLYLINE
  8
gg1
 62
1
 40
0.000000
 41
0.000000
 66
  1
  0
VERTEX
  8
gg1
 10
-0.800000
 20
-0.812500
  0
VERTEX
  8
gg1
 10
-0.800000
 20
-0.797500
  0
SEQEND
  8
gg1
  0
POLYLINE
  8
gg1
 62
1
 40
0.000000
 41
0.000000
 66
  1
  0
VERTEX
  8
gg1
 10
-0.667500
 20
-0.805000
  0
VERTEX
  8
gg1
 10
-0.652500
 20
-0.805000
  0
SEQEND
  8
gg1
  0
POLYLINE
  8
gg1
 62
1
 40
0.000000
 41
0.000000
 66
  1
  0
VERTEX
  8
gg1
 10
-0.660000
 20
-0.812500
  0
VERTEX
  8
gg1
 10
-0.660000
 20
-0.797500
  0
SEQEND
  8
gg1
  0
POLYLINE
  8
gg1
 62
1
 40
0.000000
 41
0.000000
 66
  1
  0
VERTEX
  8
gg1
 10
-0.527500
 20
-0.805000
  0
VERTEX
  8
gg1
 10
-0.512500
 20
-0.805000
  0
SEQEND
  8
gg1
  0
POLYLINE
  8
gg1
 62
1
 40
0.000000
 41
0.000000
 66
  1
  0
VERTEX
  8
gg1
 10
-0.520000
 20
-0.812500
  0
VERTEX
  8
gg1
 10
-0.520000
 20
-0.797500
  0
SEQEND
  8
gg1
  0
POLYLINE
  8
gg1
 62
1
 40
0.000000
 41
0.000000
 66
  1
  0
VERTEX
  8
gg1
 10
-0.387500
 20
-0.805000
  0
VERTEX
  8
gg1
 10
-0.372500
 20
-0.805000
  0
SEQEND
  8
gg1
  0
POLYLINE
  8
gg1
 62
1
 40
0.000000
 41
0.000000
 66
  1
  0
VERTEX
  8
gg1
 10
-0.380000
 20
-0.812500
  0
VERTEX
  8
gg1
 10
-0.380000
 20
-0.797500
  0
SEQEND
  8
gg1
  0
POLYLINE
  8
gg1
 62
1
 40
0.000000
 41
0.000000
 66
  1
  0
VERTEX
  8
gg1
 10
-0.297500
 20
-0.805000
  0
VERTEX
  8
gg1
 10
-0.282500
 20
-0.805000
  0
SEQEND
  8
gg1
  0
POLYLINE
  8
gg1
 62
1
 40
0.000000
 41
0.000000
 66
  1
  0
VERTEX
  8
gg1
 10
-0.290000
 20
-0.812500
  0
VERTEX
  8
gg1
 10
-0.290000
 20
-0.797500
  0
SEQEND
  8
gg1
  0
POLYLINE
  8
gg1
 62
1
 40
0.000000
 41
0.000000
 66
  1
  0
VERTEX
  8
gg1
 10
-0.997500
 20
-0.075000
  0
VERTEX
  8
gg1
 10
-0.982500
 20
-0.075000
  0
SEQEND
  8
gg1
  0
POLYLINE
  8
gg1
 62
1
 40
0.000000
 41
0.000000
 66
  1
  0
VERTEX
  8
gg1
 10
-0.990000
 20
-0.082500
  0
VERTEX
  8
gg1
 10
-0.990000
 20
-0.067500
  0
SEQEND
  8
gg1
  0
POLYLINE
  8
gg1
 62
1
 40
0.000000
 41
0.000000
 66
  1
  0
VERTEX
  8
gg1
 10
-0.997500
 20
-0.175000
  0
VERTEX
  8
gg1
 10
-0.982500
 20
-0.175000
  0
SEQEND
  8
gg1
  0
POLYLINE
  8
gg1
 62
1
 40
0.000000
 41
0.000000
 66
  1
  0
VERTEX
  8
gg1
 10
-0.990000
 20
-0.182500
  0
VERTEX
  8
gg1
 10
-0.990000
 20
-0.167500
  0
SEQEND
  8
gg1
  0
POLYLINE
  8
gg1
 62
1
 40
0.000000
 41
0.000000
 66
  1
  0
VERTEX
  8
gg1
 10
-0.997500
 20
-0.275000
  0
VERTEX
  8
gg1
 10
-0.982500
 20
-0.275000
  0
SEQEND
  8
gg1
  0
POLYLINE
  8
gg1
 62
1
 40
0.000000
 41
0.000000
 66
  1
  0
VERTEX
  8
gg1
 10
-0.990000
 20
-0.282500
  0
VERTEX
  8
gg1
 10
-0.990000
 20
-0.267500
  0
SEQEND
  8
gg1
  0
POLYLINE
  8
gg1
 62
1
 40
0.000000
 41
0.000000
 66
  1
  0
VERTEX
  8
gg1
 10
-0.647500
 20
-0.225000
  0
VERTEX
  8
gg1
 10
-0.632500
 20
-0.225000
  0
SEQEND
  8
gg1
  0
POLYLINE
  8
gg1
 62
1
 40
0.000000
 41
0.000000
 66
  1
  0
VERTEX
  8
gg1
 10
-0.640000
 20
-0.232500
  0
VERTEX
  8
gg1
 10
-0.640000
 20
-0.217500
  0
SEQEND
  8
gg1
  0
POLYLINE
  8
gg1
 62
1
 40
0.000000
 41
0.000000
 66
  1
  0
VERTEX
  8
gg1
 10
-0.747500
 20
-0.225000
  0
VERTEX
  8
gg1
 10
-0.732500
 20
-0.225000
  0
SEQEND
  8
gg1
  0
POLYLINE
  8
gg1
 62
1
 40
0.000000
 41
0.000000
 66
  1
  0
VERTEX
  8
gg1
 10
-0.740000
 20
-0.232500
  0
VERTEX
  8
gg1
 10
-0.740000
 20
-0.217500
  0
SEQEND
  8
gg1
  0
POLYLINE
  8
gg1
 62
1
 40
0.000000
 41
0.000000
 66
  1
  0
VERTEX
  8
gg1
 10
-0.847500
 20
-0.225000
  0
VERTEX
  8
gg1
 10
-0.832500
 20
-0.225000
  0
SEQEND
  8
gg1
  0
POLYLINE
  8
gg1
 62
1
 40
0.000000
 41
0.000000
 66
  1
  0
VERTEX
  8
gg1
 10
-0.840000
 20
-0.232500
  0
VERTEX
  8
gg1
 10
-0.840000
 20
-0.217500
  0
SEQEND
  8
gg1
  0
POLYLINE
  8
gg1
 62
1
 40
0.000000
 41
0.000000
 66
  1
  0
VERTEX
  8
gg1
 10
-1.447500
 20
-0.315000
  0
VERTEX
  8
gg1
 10
-1.432500
 20
-0.315000
  0
SEQEND
  8
gg1
  0
POLYLINE
  8
gg1
 62
1
 40
0.000000
 41
0.000000
 66
  1
  0
VERTEX
  8
gg1
 10
-1.440000
 20
-0.322500
  0
VERTEX
  8
gg1
 10
-1.440000
 20
-0.307500
  0
SEQEND
  8
gg1
  0
POLYLINE
  8
gg1
 62
1
 40
0.000000
 41
0.000000
 66
  1
  0
VERTEX
  8
gg1
 10
-1.757500
 20
-0.855000
  0
VERTEX
  8
gg1
 10
-1.742500
 20
-0.855000
  0
SEQEND
  8
gg1
  0
POLYLINE
  8
gg1
 62
1
 40
0.000000
 41
0.000000
 66
  1
  0
VERTEX
  8
gg1
 10
-1.750000
 20
-0.862500
  0
VERTEX
  8
gg1
 10
-1.750000
 20
-0.847500
  0
SEQEND
  8
gg1
  0
POLYLINE
  8
gg1
 62
1
 40
0.000000
 41
0.000000
 66
  1
  0
VERTEX
  8
gg1
 10
-1.847500
 20
-0.855000
  0
VERTEX
  8
gg1
 10
-1.832500
 20
-0.855000
  0
SEQEND
  8
gg1
  0
POLYLINE
  8
gg1
 62
1
 40
0.000000
 41
0.000000
 66
  1
  0
VERTEX
  8
gg1
 10
-1.840000
 20
-0.862500
  0
VERTEX
  8
gg1
 10
-1.840000
 20
-0.847500
  0
SEQEND
  8
gg1
  0
POLYLINE
  8
gg1
 62
1
 40
0.000000
 41
0.000000
 66
  1
  0
VERTEX
  8
gg1
 10
-1.967500
 20
-1.100000
  0
VERTEX
  8
gg1
 10
-1.952500
 20
-1.100000
  0
SEQEND
  8
gg1
  0
POLYLINE
  8
gg1
 62
1
 40
0.000000
 41
0.000000
 66
  1
  0
VERTEX
  8
gg1
 10
-1.960000
 20
-1.107500
  0
VERTEX
  8
gg1
 10
-1.960000
 20
-1.092500
  0
SEQEND
  8
gg1
  0
POLYLINE
  8
gg1
 62
1
 40
0.000000
 41
0.000000
 66
  1
  0
VERTEX
  8
gg1
 10
-2.067500
 20
-1.100000
  0
VERTEX
  8
gg1
 10
-2.052500
 20
-1.100000
  0
SEQEND
  8
gg1
  0
POLYLINE
  8
gg1
 62
1
 40
0.000000
 41
0.000000
 66
  1
  0
VERTEX
  8
gg1
 10
-2.060000
 20
-1.107500
  0
VERTEX
  8
gg1
 10
-2.060000
 20
-1.092500
  0
SEQEND
  8
gg1
  0
POLYLINE
  8
gg1
 62
1
 40
0.000000
 41
0.000000
 66
  1
  0
VERTEX
  8
gg1
 10
-2.067500
 20
-1.000000
  0
VERTEX
  8
gg1
 10
-2.052500
 20
-1.000000
  0
SEQEND
  8
gg1
  0
POLYLINE
  8
gg1
 62
1
 40
0.000000
 41
0.000000
 66
  1
  0
VERTEX
  8
gg1
 10
-2.060000
 20
-1.007500
  0
VERTEX
  8
gg1
 10
-2.060000
 20
-0.992500
  0
SEQEND
  8
gg1
  0
POLYLINE
  8
gg1
 62
1
 40
0.000000
 41
0.000000
 66
  1
  0
VERTEX
  8
gg1
 10
-2.017500
 20
-0.775000
  0
VERTEX
  8
gg1
 10
-2.002500
 20
-0.775000
  0
SEQEND
  8
gg1
  0
POLYLINE
  8
gg1
 62
1
 40
0.000000
 41
0.000000
 66
  1
  0
VERTEX
  8
gg1
 10
-2.010000
 20
-0.782500
  0
VERTEX
  8
gg1
 10
-2.010000
 20
-0.767500
  0
SEQEND
  8
gg1
  0
POLYLINE
  8
gg1
 62
1
 40
0.000000
 41
0.000000
 66
  1
  0
VERTEX
  8
gg1
 10
-1.982500
 20
-0.775000
  0
VERTEX
  8
gg1
 10
-1.967500
 20
-0.775000
  0
SEQEND
  8
gg1
  0
POLYLINE
  8
gg1
 62
1
 40
0.000000
 41
0.000000
 66
  1
  0
VERTEX
  8
gg1
 10
-1.975000
 20
-0.782500
  0
VERTEX
  8
gg1
 10
-1.975000
 20
-0.767500
  0
SEQEND
  8
gg1
  0
POLYLINE
  8
gg1
 62
1
 40
0.000000
 41
0.000000
 66
  1
  0
VERTEX
  8
gg1
 10
-1.952500
 20
-0.715000
  0
VERTEX
  8
gg1
 10
-1.937500
 20
-0.715000
  0
SEQEND
  8
gg1
  0
POLYLINE
  8
gg1
 62
1
 40
0.000000
 41
0.000000
 66
  1
  0
VERTEX
  8
gg1
 10
-1.945000
 20
-0.722500
  0
VERTEX
  8
gg1
 10
-1.945000
 20
-0.707500
  0
SEQEND
  8
gg1
  0
POLYLINE
  8
gg1
 62
1
 40
0.000000
 41
0.000000
 66
  1
  0
VERTEX
  8
gg1
 10
-1.952500
 20
-0.680000
  0
VERTEX
  8
gg1
 10
-1.937500
 20
-0.680000
  0
SEQEND
  8
gg1
  0
POLYLINE
  8
gg1
 62
1
 40
0.000000
 41
0.000000
 66
  1
  0
VERTEX
  8
gg1
 10
-1.945000
 20
-0.687500
  0
VERTEX
  8
gg1
 10
-1.945000
 20
-0.672500
  0
SEQEND
  8
gg1
  0
POLYLINE
  8
gg1
 62
1
 40
0.000000
 41
0.000000
 66
  1
  0
VERTEX
  8
gg1
 10
-1.967500
 20
-0.855000
  0
VERTEX
  8
gg1
 10
-1.952500
 20
-0.855000
  0
SEQEND
  8
gg1
  0
POLYLINE
  8
gg1
 62
1
 40
0.000000
 41
0.000000
 66
  1
  0
VERTEX
  8
gg1
 10
-1.960000
 20
-0.862500
  0
VERTEX
  8
gg1
 10
-1.960000
 20
-0.847500
  0
SEQEND
  8
gg1
  0
POLYLINE
  8
gg1
 62
1
 40
0.000000
 41
0.000000
 66
  1
  0
VERTEX
  8
gg1
 10
-1.952500
 20
-0.750000
  0
VERTEX
  8
gg1
 10
-1.937500
 20
-0.750000
  0
SEQEND
  8
gg1
  0
POLYLINE
  8
gg1
 62
1
 40
0.000000
 41
0.000000
 66
  1
  0
VERTEX
  8
gg1
 10
-1.945000
 20
-0.757500
  0
VERTEX
  8
gg1
 10
-1.945000
 20
-0.742500
  0
SEQEND
  8
gg1
  0
POLYLINE
  8
gg1
 62
1
 40
0.000000
 41
0.000000
 66
  1
  0
VERTEX
  8
gg1
 10
-1.707500
 20
-0.765000
  0
VERTEX
  8
gg1
 10
-1.692500
 20
-0.765000
  0
SEQEND
  8
gg1
  0
POLYLINE
  8
gg1
 62
1
 40
0.000000
 41
0.000000
 66
  1
  0
VERTEX
  8
gg1
 10
-1.700000
 20
-0.772500
  0
VERTEX
  8
gg1
 10
-1.700000
 20
-0.757500
  0
SEQEND
  8
gg1
  0
POLYLINE
  8
gg1
 62
1
 40
0.000000
 41
0.000000
 66
  1
  0
VERTEX
  8
gg1
 10
-0.987500
 20
-1.805000
  0
VERTEX
  8
gg1
 10
-0.972500
 20
-1.805000
  0
SEQEND
  8
gg1
  0
POLYLINE
  8
gg1
 62
1
 40
0.000000
 41
0.000000
 66
  1
  0
VERTEX
  8
gg1
 10
-0.980000
 20
-1.812500
  0
VERTEX
  8
gg1
 10
-0.980000
 20
-1.797500
  0
SEQEND
  8
gg1
  0
POLYLINE
  8
gg1
 62
1
 40
0.000000
 41
0.000000
 66
  1
  0
VERTEX
  8
gg1
 10
-1.292500
 20
-1.545000
  0
VERTEX
  8
gg1
 10
-1.277500
 20
-1.545000
  0
SEQEND
  8
gg1
  0
POLYLINE
  8
gg1
 62
1
 40
0.000000
 41
0.000000
 66
  1
  0
VERTEX
  8
gg1
 10
-1.285000
 20
-1.552500
  0
VERTEX
  8
gg1
 10
-1.285000
 20
-1.537500
  0
SEQEND
  8
gg1
  0
POLYLINE
  8
gg1
 62
1
 40
0.000000
 41
0.000000
 66
  1
  0
VERTEX
  8
gg1
 10
-1.117500
 20
-1.545000
  0
VERTEX
  8
gg1
 10
-1.102500
 20
-1.545000
  0
SEQEND
  8
gg1
  0
POLYLINE
  8
gg1
 62
1
 40
0.000000
 41
0.000000
 66
  1
  0
VERTEX
  8
gg1
 10
-1.110000
 20
-1.552500
  0
VERTEX
  8
gg1
 10
-1.110000
 20
-1.537500
  0
SEQEND
  8
gg1
  0
POLYLINE
  8
gg1
 62
1
 40
0.000000
 41
0.000000
 66
  1
  0
VERTEX
  8
gg1
 10
-1.622500
 20
-1.530000
  0
VERTEX
  8
gg1
 10
-1.607500
 20
-1.530000
  0
SEQEND
  8
gg1
  0
POLYLINE
  8
gg1
 62
1
 40
0.000000
 41
0.000000
 66
  1
  0
VERTEX
  8
gg1
 10
-1.615000
 20
-1.537500
  0
VERTEX
  8
gg1
 10
-1.615000
 20
-1.522500
  0
SEQEND
  8
gg1
  0
POLYLINE
  8
gg1
 62
1
 40
0.000000
 41
0.000000
 66
  1
  0
VERTEX
  8
gg1
 10
-0.512500
 20
-1.545000
  0
VERTEX
  8
gg1
 10
-0.497500
 20
-1.545000
  0
SEQEND
  8
gg1
  0
POLYLINE
  8
gg1
 62
1
 40
0.000000
 41
0.000000
 66
  1
  0
VERTEX
  8
gg1
 10
-0.505000
 20
-1.552500
  0
VERTEX
  8
gg1
 10
-0.505000
 20
-1.537500
  0
SEQEND
  8
gg1
  0
POLYLINE
  8
gg1
 62
1
 40
0.000000
 41
0.000000
 66
  1
  0
VERTEX
  8
gg1
 10
0.057500
 20
-1.775000
  0
VERTEX
  8
gg1
 10
0.072500
 20
-1.775000
  0
SEQEND
  8
gg1
  0
POLYLINE
  8
gg1
 62
1
 40
0.000000
 41
0.000000
 66
  1
  0
VERTEX
  8
gg1
 10
0.065000
 20
-1.782500
  0
VERTEX
  8
gg1
 10
0.065000
 20
-1.767500
  0
SEQEND
  8
gg1
  0
POLYLINE
  8
gg1
 62
1
 40
0.000000
 41
0.000000
 66
  1
  0
VERTEX
  8
gg1
 10
-0.682500
 20
-1.545000
  0
VERTEX
  8
gg1
 10
-0.667500
 20
-1.545000
  0
SEQEND
  8
gg1
  0
POLYLINE
  8
gg1
 62
1
 40
0.000000
 41
0.000000
 66
  1
  0
VERTEX
  8
gg1
 10
-0.675000
 20
-1.552500
  0
VERTEX
  8
gg1
 10
-0.675000
 20
-1.537500
  0
SEQEND
  8
gg1
  0
POLYLINE
  8
gg1
 62
1
 40
0.000000
 41
0.000000
 66
  1
  0
VERTEX
  8
gg1
 10
0.722500
 20
-1.390000
  0
VERTEX
  8
gg1
 10
0.737500
 20
-1.390000
  0
SEQEND
  8
gg1
  0
POLYLINE
  8
gg1
 62
1
 40
0.000000
 41
0.000000
 66
  1
  0
VERTEX
  8
gg1
 10
0.730000
 20
-1.397500
  0
VERTEX
  8
gg1
 10
0.730000
 20
-1.382500
  0
SEQEND
  8
gg1
  0
POLYLINE
  8
gg1
 62
1
 40
0.000000
 41
0.000000
 66
  1
  0
VERTEX
  8
gg1
 10
0.867500
 20
-1.745000
  0
VERTEX
  8
gg1
 10
0.882500
 20
-1.745000
  0
SEQEND
  8
gg1
  0
POLYLINE
  8
gg1
 62
1
 40
0.000000
 41
0.000000
 66
  1
  0
VERTEX
  8
gg1
 10
0.875000
 20
-1.752500
  0
VERTEX
  8
gg1
 10
0.875000
 20
-1.737500
  0
SEQEND
  8
gg1
  0
POLYLINE
  8
gg1
 62
1
 40
0.000000
 41
0.000000
 66
  1
  0
VERTEX
  8
gg1
 10
0.867500
 20
-1.525000
  0
VERTEX
  8
gg1
 10
0.882500
 20
-1.525000
  0
SEQEND
  8
gg1
  0
POLYLINE
  8
gg1
 62
1
 40
0.000000
 41
0.000000
 66
  1
  0
VERTEX
  8
gg1
 10
0.875000
 20
-1.532500
  0
VERTEX
  8
gg1
 10
0.875000
 20
-1.517500
  0
SEQEND
  8
gg1
  0
POLYLINE
  8
gg1
 62
1
 40
0.000000
 41
0.000000
 66
  1
  0
VERTEX
  8
gg1
 10
-0.737500
 20
-1.805000
  0
VERTEX
  8
gg1
 10
-0.722500
 20
-1.805000
  0
SEQEND
  8
gg1
  0
POLYLINE
  8
gg1
 62
1
 40
0.000000
 41
0.000000
 66
  1
  0
VERTEX
  8
gg1
 10
-0.730000
 20
-1.812500
  0
VERTEX
  8
gg1
 10
-0.730000
 20
-1.797500
  0
SEQEND
  8
gg1
  0
POLYLINE
  8
gg1
 62
1
 40
0.000000
 41
0.000000
 66
  1
  0
VERTEX
  8
gg1
 10
-0.482500
 20
-1.695000
  0
VERTEX
  8
gg1
 10
-0.467500
 20
-1.695000
  0
SEQEND
  8
gg1
  0
POLYLINE
  8
gg1
 62
1
 40
0.000000
 41
0.000000
 66
  1
  0
VERTEX
  8
gg1
 10
-0.475000
 20
-1.702500
  0
VERTEX
  8
gg1
 10
-0.475000
 20
-1.687500
  0
SEQEND
  8
gg1
  0
POLYLINE
  8
gg1
 62
1
 40
0.000000
 41
0.000000
 66
  1
  0
VERTEX
  8
gg1
 10
-0.612500
 20
-1.865000
  0
VERTEX
  8
gg1
 10
-0.597500
 20
-1.865000
  0
SEQEND
  8
gg1
  0
POLYLINE
  8
gg1
 62
1
 40
0.000000
 41
0.000000
 66
  1
  0
VERTEX
  8
gg1
 10
-0.605000
 20
-1.872500
  0
VERTEX
  8
gg1
 10
-0.605000
 20
-1.857500
  0
SEQEND
  8
gg1
  0
POLYLINE
  8
gg1
 62
1
 40
0.000000
 41
0.000000
 66
  1
  0
VERTEX
  8
gg1
 10
-0.897500
 20
-0.345000
  0
VERTEX
  8
gg1
 10
-0.882500
 20
-0.345000
  0
SEQEND
  8
gg1
  0
POLYLINE
  8
gg1
 62
1
 40
0.000000
 41
0.000000
 66
  1
  0
VERTEX
  8
gg1
 10
-0.890000
 20
-0.352500
  0
VERTEX
  8
gg1
 10
-0.890000
 20
-0.337500
  0
SEQEND
  8
gg1
  0
POLYLINE
  8
gg1
 62
1
 40
0.000000
 41
0.000000
 66
  1
  0
VERTEX
  8
gg1
 10
-1.697500
 20
-0.445000
  0
VERTEX
  8
gg1
 10
-1.682500
 20
-0.445000
  0
SEQEND
  8
gg1
  0
POLYLINE
  8
gg1
 62
1
 40
0.000000
 41
0.000000
 66
  1
  0
VERTEX
  8
gg1
 10
-1.690000
 20
-0.452500
  0
VERTEX
  8
gg1
 10
-1.690000
 20
-0.437500
  0
SEQEND
  8
gg1
  0
POLYLINE
  8
gg1
 62
1
 40
0.000000
 41
0.000000
 66
  1
  0
VERTEX
  8
gg1
 10
1.332500
 20
0.800000
  0
VERTEX
  8
gg1
 10
1.347500
 20
0.800000
  0
SEQEND
  8
gg1
  0
POLYLINE
  8
gg1
 62
1
 40
0.000000
 41
0.000000
 66
  1
  0
VERTEX
  8
gg1
 10
1.340000
 20
0.792500
  0
VERTEX
  8
gg1
 10
1.340000
 20
0.807500
  0
SEQEND
  8
gg1
  0
POLYLINE
  8
gg1
 62
1
 40
0.000000
 41
0.000000
 66
  1
  0
VERTEX
  8
gg1
 10
1.747500
 20
0.850000
  0
VERTEX
  8
gg1
 10
1.762500
 20
0.850000
  0
SEQEND
  8
gg1
  0
POLYLINE
  8
gg1
 62
1
 40
0.000000
 41
0.000000
 66
  1
  0
VERTEX
  8
gg1
 10
1.755000
 20
0.842500
  0
VERTEX
  8
gg1
 10
1.755000
 20
0.857500
  0
SEQEND
  8
gg1
  0
POLYLINE
  8
gg1
 62
1
 40
0.000000
 41
0.000000
 66
  1
  0
VERTEX
  8
gg1
 10
1.222500
 20
0.850000
  0
VERTEX
  8
gg1
 10
1.237500
 20
0.850000
  0
SEQEND
  8
gg1
  0
POLYLINE
  8
gg1
 62
1
 40
0.000000
 41
0.000000
 66
  1
  0
VERTEX
  8
gg1
 10
1.230000
 20
0.842500
  0
VERTEX
  8
gg1
 10
1.230000
 20
0.857500
  0
SEQEND
  8
gg1
  0
POLYLINE
  8
gg1
 62
1
 40
0.000000
 41
0.000000
 66
  1
  0
VERTEX
  8
gg1
 10
1.397500
 20
0.795000
  0
VERTEX
  8
gg1
 10
1.412500
 20
0.795000
  0
SEQEND
  8
gg1
  0
POLYLINE
  8
gg1
 62
1
 40
0.000000
 41
0.000000
 66
  1
  0
VERTEX
  8
gg1
 10
1.405000
 20
0.787500
  0
VERTEX
  8
gg1
 10
1.405000
 20
0.802500
  0
SEQEND
  8
gg1
  0
POLYLINE
  8
gg1
 62
1
 40
0.000000
 41
0.000000
 66
  1
  0
VERTEX
  8
gg1
 10
1.522500
 20
0.795000
  0
VERTEX
  8
gg1
 10
1.537500
 20
0.795000
  0
SEQEND
  8
gg1
  0
POLYLINE
  8
gg1
 62
1
 40
0.000000
 41
0.000000
 66
  1
  0
VERTEX
  8
gg1
 10
1.530000
 20
0.787500
  0
VERTEX
  8
gg1
 10
1.530000
 20
0.802500
  0
SEQEND
  8
gg1
  0
POLYLINE
  8
gg1
 62
1
 40
0.000000
 41
0.000000
 66
  1
  0
VERTEX
  8
gg1
 10
1.647500
 20
0.750000
  0
VERTEX
  8
gg1
 10
1.662500
 20
0.750000
  0
SEQEND
  8
gg1
  0
POLYLINE
  8
gg1
 62
1
 40
0.000000
 41
0.000000
 66
  1
  0
VERTEX
  8
gg1
 10
1.655000
 20
0.742500
  0
VERTEX
  8
gg1
 10
1.655000
 20
0.757500
  0
SEQEND
  8
gg1
  0
POLYLINE
  8
gg1
 62
1
 40
0.000000
 41
0.000000
 66
  1
  0
VERTEX
  8
gg1
 10
1.647500
 20
0.795000
  0
VERTEX
  8
gg1
 10
1.662500
 20
0.795000
  0
SEQEND
  8
gg1
  0
POLYLINE
  8
gg1
 62
1
 40
0.000000
 41
0.000000
 66
  1
  0
VERTEX
  8
gg1
 10
1.655000
 20
0.787500
  0
VERTEX
  8
gg1
 10
1.655000
 20
0.802500
  0
SEQEND
  8
gg1
  0
POLYLINE
  8
gg1
 62
1
 40
0.000000
 41
0.000000
 66
  1
  0
VERTEX
  8
gg1
 10
1.162500
 20
0.955000
  0
VERTEX
  8
gg1
 10
1.177500
 20
0.955000
  0
SEQEND
  8
gg1
  0
POLYLINE
  8
gg1
 62
1
 40
0.000000
 41
0.000000
 66
  1
  0
VERTEX
  8
gg1
 10
1.170000
 20
0.947500
  0
VERTEX
  8
gg1
 10
1.170000
 20
0.962500
  0
SEQEND
  8
gg1
  0
POLYLINE
  8
gg1
 62
1
 40
0.000000
 41
0.000000
 66
  1
  0
VERTEX
  8
gg1
 10
-1.206800
 20
-0.365000
  0
VERTEX
  8
gg1
 10
-1.191800
 20
-0.365000
  0
SEQEND
  8
gg1
  0
POLYLINE
  8
gg1
 62
1
 40
0.000000
 41
0.000000
 66
  1
  0
VERTEX
  8
gg1
 10
-1.199300
 20
-0.372500
  0
VERTEX
  8
gg1
 10
-1.199300
 20
-0.357500
  0
SEQEND
  8
gg1
  0
POLYLINE
  8
gg1
 62
1
 40
0.000000
 41
0.000000
 66
  1
  0
VERTEX
  8
gg1
 10
-1.238200
 20
-0.365000
  0
VERTEX
  8
gg1
 10
-1.223200
 20
-0.365000
  0
SEQEND
  8
gg1
  0
POLYLINE
  8
gg1
 62
1
 40
0.000000
 41
0.000000
 66
  1
  0
VERTEX
  8
gg1
 10
-1.230700
 20
-0.372500
  0
VERTEX
  8
gg1
 10
-1.230700
 20
-0.357500
  0
SEQEND
  8
gg1
  0
POLYLINE
  8
gg1
 62
1
 40
0.000000
 41
0.000000
 66
  1
  0
VERTEX
  8
gg1
 10
1.461800
 20
0.365000
  0
VERTEX
  8
gg1
 10
1.476800
 20
0.365000
  0
SEQEND
  8
gg1
  0
POLYLINE
  8
gg1
 62
1
 40
0.000000
 41
0.000000
 66
  1
  0
VERTEX
  8
gg1
 10
1.469300
 20
0.357500
  0
VERTEX
  8
gg1
 10
1.469300
 20
0.372500
  0
SEQEND
  8
gg1
  0
POLYLINE
  8
gg1
 62
1
 40
0.000000
 41
0.000000
 66
  1
  0
VERTEX
  8
gg1
 10
1.493200
 20
0.365000
  0
VERTEX
  8
gg1
 10
1.508200
 20
0.365000
  0
SEQEND
  8
gg1
  0
POLYLINE
  8
gg1
 62
1
 40
0.000000
 41
0.000000
 66
  1
  0
VERTEX
  8
gg1
 10
1.500700
 20
0.357500
  0
VERTEX
  8
gg1
 10
1.500700
 20
0.372500
  0
SEQEND
  8
gg1
  0
POLYLINE
  8
gg1
 62
1
 40
0.000000
 41
0.000000
 66
  1
  0
VERTEX
  8
gg1
 10
-0.179200
 20
-1.430500
  0
VERTEX
  8
gg1
 10
-0.164200
 20
-1.430500
  0
SEQEND
  8
gg1
  0
POLYLINE
  8
gg1
 62
1
 40
0.000000
 41
0.000000
 66
  1
  0
VERTEX
  8
gg1
 10
-0.171700
 20
-1.438000
  0
VERTEX
  8
gg1
 10
-0.171700
 20
-1.423000
  0
SEQEND
  8
gg1
  0
POLYLINE
  8
gg1
 62
1
 40
0.000000
 41
0.000000
 66
  1
  0
VERTEX
  8
gg1
 10
-0.179200
 20
-1.493500
  0
VERTEX
  8
gg1
 10
-0.164200
 20
-1.493500
  0
SEQEND
  8
gg1
  0
POLYLINE
  8
gg1
 62
1
 40
0.000000
 41
0.000000
 66
  1
  0
VERTEX
  8
gg1
 10
-0.171700
 20
-1.501000
  0
VERTEX
  8
gg1
 10
-0.171700
 20
-1.486000
  0
SEQEND
  8
gg1
  0
POLYLINE
  8
gg1
 62
1
 40
0.000000
 41
0.000000
 66
  1
  0
VERTEX
  8
gg1
 10
-0.147800
 20
-1.493500
  0
VERTEX
  8
gg1
 10
-0.132800
 20
-1.493500
  0
SEQEND
  8
gg1
  0
POLYLINE
  8
gg1
 62
1
 40
0.000000
 41
0.000000
 66
  1
  0
VERTEX
  8
gg1
 10
-0.140300
 20
-1.501000
  0
VERTEX
  8
gg1
 10
-0.140300
 20
-1.486000
  0
SEQEND
  8
gg1
  0
POLYLINE
  8
gg1
 62
1
 40
0.000000
 41
0.000000
 66
  1
  0
VERTEX
  8
gg1
 10
-0.147800
 20
-1.430500
  0
VERTEX
  8
gg1
 10
-0.132800
 20
-1.430500
  0
SEQEND
  8
gg1
  0
POLYLINE
  8
gg1
 62
1
 40
0.000000
 41
0.000000
 66
  1
  0
VERTEX
  8
gg1
 10
-0.140300
 20
-1.438000
  0
VERTEX
  8
gg1
 10
-0.140300
 20
-1.423000
  0
SEQEND
  8
gg1
  0
POLYLINE
  8
gg1
 62
1
 40
0.000000
 41
0.000000
 66
  1
  0
VERTEX
  8
gg1
 10
-0.163500
 20
-1.462000
  0
VERTEX
  8
gg1
 10
-0.148500
 20
-1.462000
  0
SEQEND
  8
gg1
  0
POLYLINE
  8
gg1
 62
1
 40
0.000000
 41
0.000000
 66
  1
  0
VERTEX
  8
gg1
 10
-0.156000
 20
-1.469500
  0
VERTEX
  8
gg1
 10
-0.156000
 20
-1.454500
  0
SEQEND
  8
gg1
  0
POLYLINE
  8
gg1
 62
1
 40
0.000000
 41
0.000000
 66
  1
  0
VERTEX
  8
gg1
 10
-0.922500
 20
0.675000
  0
VERTEX
  8
gg1
 10
-0.907500
 20
0.675000
  0
SEQEND
  8
gg1
  0
POLYLINE
  8
gg1
 62
1
 40
0.000000
 41
0.000000
 66
  1
  0
VERTEX
  8
gg1
 10
-0.915000
 20
0.667500
  0
VERTEX
  8
gg1
 10
-0.915000
 20
0.682500
  0
SEQEND
  8
gg1
  0
POLYLINE
  8
gg1
 62
1
 40
0.000000
 41
0.000000
 66
  1
  0
VERTEX
  8
gg1
 10
-1.002500
 20
0.635000
  0
VERTEX
  8
gg1
 10
-0.987500
 20
0.635000
  0
SEQEND
  8
gg1
  0
POLYLINE
  8
gg1
 62
1
 40
0.000000
 41
0.000000
 66
  1
  0
VERTEX
  8
gg1
 10
-0.995000
 20
0.627500
  0
VERTEX
  8
gg1
 10
-0.995000
 20
0.642500
  0
SEQEND
  8
gg1
  0
POLYLINE
  8
gg1
 62
1
 40
0.000000
 41
0.000000
 66
  1
  0
VERTEX
  8
gg1
 10
-1.417500
 20
0.755000
  0
VERTEX
  8
gg1
 10
-1.402500
 20
0.755000
  0
SEQEND
  8
gg1
  0
POLYLINE
  8
gg1
 62
1
 40
0.000000
 41
0.000000
 66
  1
  0
VERTEX
  8
gg1
 10
-1.410000
 20
0.747500
  0
VERTEX
  8
gg1
 10
-1.410000
 20
0.762500
  0
SEQEND
  8
gg1
  0
POLYLINE
  8
gg1
 62
1
 40
0.000000
 41
0.000000
 66
  1
  0
VERTEX
  8
gg1
 10
-0.892500
 20
0.645000
  0
VERTEX
  8
gg1
 10
-0.877500
 20
0.645000
  0
SEQEND
  8
gg1
  0
POLYLINE
  8
gg1
 62
1
 40
0.000000
 41
0.000000
 66
  1
  0
VERTEX
  8
gg1
 10
-0.885000
 20
0.637500
  0
VERTEX
  8
gg1
 10
-0.885000
 20
0.652500
  0
SEQEND
  8
gg1
  0
POLYLINE
  8
gg1
 62
1
 40
0.000000
 41
0.000000
 66
  1
  0
VERTEX
  8
gg1
 10
-0.547500
 20
1.060000
  0
VERTEX
  8
gg1
 10
-0.532500
 20
1.060000
  0
SEQEND
  8
gg1
  0
POLYLINE
  8
gg1
 62
1
 40
0.000000
 41
0.000000
 66
  1
  0
VERTEX
  8
gg1
 10
-0.540000
 20
1.052500
  0
VERTEX
  8
gg1
 10
-0.540000
 20
1.067500
  0
SEQEND
  8
gg1
  0
POLYLINE
  8
gg1
 62
1
 40
0.000000
 41
0.000000
 66
  1
  0
VERTEX
  8
gg1
 10
-0.407500
 20
1.080000
  0
VERTEX
  8
gg1
 10
-0.392500
 20
1.080000
  0
SEQEND
  8
gg1
  0
POLYLINE
  8
gg1
 62
1
 40
0.000000
 41
0.000000
 66
  1
  0
VERTEX
  8
gg1
 10
-0.400000
 20
1.072500
  0
VERTEX
  8
gg1
 10
-0.400000
 20
1.087500
  0
SEQEND
  8
gg1
  0
POLYLINE
  8
gg1
 62
1
 40
0.000000
 41
0.000000
 66
  1
  0
VERTEX
  8
gg1
 10
-0.397500
 20
1.175000
  0
VERTEX
  8
gg1
 10
-0.382500
 20
1.175000
  0
SEQEND
  8
gg1
  0
POLYLINE
  8
gg1
 62
1
 40
0.000000
 41
0.000000
 66
  1
  0
VERTEX
  8
gg1
 10
-0.390000
 20
1.167500
  0
VERTEX
  8
gg1
 10
-0.390000
 20
1.182500
  0
SEQEND
  8
gg1
  0
POLYLINE
  8
gg1
 62
1
 40
0.000000
 41
0.000000
 66
  1
  0
VERTEX
  8
gg1
 10
-1.207100
 20
0.495000
  0
VERTEX
  8
gg1
 10
-1.192100
 20
0.495000
  0
SEQEND
  8
gg1
  0
POLYLINE
  8
gg1
 62
1
 40
0.000000
 41
0.000000
 66
  1
  0
VERTEX
  8
gg1
 10
-1.199600
 20
0.487500
  0
VERTEX
  8
gg1
 10
-1.199600
 20
0.502500
  0
SEQEND
  8
gg1
  0
POLYLINE
  8
gg1
 62
1
 40
0.000000
 41
0.000000
 66
  1
  0
VERTEX
  8
gg1
 10
-1.582500
 20
-1.870000
  0
VERTEX
  8
gg1
 10
-1.567500
 20
-1.870000
  0
SEQEND
  8
gg1
  0
POLYLINE
  8
gg1
 62
1
 40
0.000000
 41
0.000000
 66
  1
  0
VERTEX
  8
gg1
 10
-1.575000
 20
-1.877500
  0
VERTEX
  8
gg1
 10
-1.575000
 20
-1.862500
  0
SEQEND
  8
gg1
  0
POLYLINE
  8
gg1
 62
1
 40
0.000000
 41
0.000000
 66
  1
  0
VERTEX
  8
gg1
 10
1.672500
 20
-1.475000
  0
VERTEX
  8
gg1
 10
1.687500
 20
-1.475000
  0
SEQEND
  8
gg1
  0
POLYLINE
  8
gg1
 62
1
 40
0.000000
 41
0.000000
 66
  1
  0
VERTEX
  8
gg1
 10
1.680000
 20
-1.482500
  0
VERTEX
  8
gg1
 10
1.680000
 20
-1.467500
  0
SEQEND
  8
gg1
  0
POLYLINE
  8
gg1
 62
1
 40
0.000000
 41
0.000000
 66
  1
  0
VERTEX
  8
gg1
 10
1.487500
 20
-1.620000
  0
VERTEX
  8
gg1
 10
1.502500
 20
-1.620000
  0
SEQEND
  8
gg1
  0
POLYLINE
  8
gg1
 62
1
 40
0.000000
 41
0.000000
 66
  1
  0
VERTEX
  8
gg1
 10
1.495000
 20
-1.627500
  0
VERTEX
  8
gg1
 10
1.495000
 20
-1.612500
  0
SEQEND
  8
gg1
  0
POLYLINE
  8
gg1
 62
1
 40
0.000000
 41
0.000000
 66
  1
  0
VERTEX
  8
gg1
 10
1.992500
 20
-1.195000
  0
VERTEX
  8
gg1
 10
2.007500
 20
-1.195000
  0
SEQEND
  8
gg1
  0
POLYLINE
  8
gg1
 62
1
 40
0.000000
 41
0.000000
 66
  1
  0
VERTEX
  8
gg1
 10
2.000000
 20
-1.202500
  0
VERTEX
  8
gg1
 10
2.000000
 20
-1.187500
  0
SEQEND
  8
gg1
  0
POLYLINE
  8
gg1
 62
1
 40
0.000000
 41
0.000000
 66
  1
  0
VERTEX
  8
gg1
 10
1.547500
 20
-1.605000
  0
VERTEX
  8
gg1
 10
1.562500
 20
-1.605000
  0
SEQEND
  8
gg1
  0
POLYLINE
  8
gg1
 62
1
 40
0.000000
 41
0.000000
 66
  1
  0
VERTEX
  8
gg1
 10
1.555000
 20
-1.612500
  0
VERTEX
  8
gg1
 10
1.555000
 20
-1.597500
  0
SEQEND
  8
gg1
  0
POLYLINE
  8
gg1
 62
1
 40
0.000000
 41
0.000000
 66
  1
  0
VERTEX
  8
gg1
 10
0.387500
 20
-0.965000
  0
VERTEX
  8
gg1
 10
0.402500
 20
-0.965000
  0
SEQEND
  8
gg1
  0
POLYLINE
  8
gg1
 62
1
 40
0.000000
 41
0.000000
 66
  1
  0
VERTEX
  8
gg1
 10
0.395000
 20
-0.972500
  0
VERTEX
  8
gg1
 10
0.395000
 20
-0.957500
  0
SEQEND
  8
gg1
  0
POLYLINE
  8
gg1
 62
1
 40
0.000000
 41
0.000000
 66
  1
  0
VERTEX
  8
gg1
 10
0.837500
 20
0.990000
  0
VERTEX
  8
gg1
 10
0.852500
 20
0.990000
  0
SEQEND
  8
gg1
  0
POLYLINE
  8
gg1
 62
1
 40
0.000000
 41
0.000000
 66
  1
  0
VERTEX
  8
gg1
 10
0.845000
 20
0.982500
  0
VERTEX
  8
gg1
 10
0.845000
 20
0.997500
  0
SEQEND
  8
gg1
  0
POLYLINE
  8
gg1
 62
1
 40
0.000000
 41
0.000000
 66
  1
  0
VERTEX
  8
gg1
 10
0.792500
 20
0.990000
  0
VERTEX
  8
gg1
 10
0.807500
 20
0.990000
  0
SEQEND
  8
gg1
  0
POLYLINE
  8
gg1
 62
1
 40
0.000000
 41
0.000000
 66
  1
  0
VERTEX
  8
gg1
 10
0.800000
 20
0.982500
  0
VERTEX
  8
gg1
 10
0.800000
 20
0.997500
  0
SEQEND
  8
gg1
  0
POLYLINE
  8
gg1
 62
1
 40
0.000000
 41
0.000000
 66
  1
  0
VERTEX
  8
gg1
 10
0.937500
 20
0.940000
  0
VERTEX
  8
gg1
 10
0.952500
 20
0.940000
  0
SEQEND
  8
gg1
  0
POLYLINE
  8
gg1
 62
1
 40
0.000000
 41
0.000000
 66
  1
  0
VERTEX
  8
gg1
 10
0.945000
 20
0.932500
  0
VERTEX
  8
gg1
 10
0.945000
 20
0.947500
  0
SEQEND
  8
gg1
  0
POLYLINE
  8
gg1
 62
1
 40
0.000000
 41
0.000000
 66
  1
  0
VERTEX
  8
gg1
 10
1.177500
 20
0.890000
  0
VERTEX
  8
gg1
 10
1.192500
 20
0.890000
  0
SEQEND
  8
gg1
  0
POLYLINE
  8
gg1
 62
1
 40
0.000000
 41
0.000000
 66
  1
  0
VERTEX
  8
gg1
 10
1.185000
 20
0.882500
  0
VERTEX
  8
gg1
 10
1.185000
 20
0.897500
  0
SEQEND
  8
gg1
  0
ENDSEC
  0
EOF
