ISO-10303-21;
HEADER;
FILE_DESCRIPTION (( 'STEP AP214' ),
    '1' );
FILE_NAME ('magnetic-encoder-disc-for 20d-mm-metal-gearmotors-w1r02c.step',
    '2017-01-11T22:00:39',
    ( '' ),
    ( '' ),
    'SwSTEP 2.0',
    'SolidWorks 2016',
    '' );
FILE_SCHEMA (( 'AUTOMOTIVE_DESIGN' ));
ENDSEC;

DATA;
#1 = CARTESIAN_POINT ( 'NONE',  ( 1.000000000000000000, 1.224646799147353200E-016, 0.0000000000000000000 ) ) ;
#2 =( NAMED_UNIT ( * ) SI_UNIT ( $, .STERADIAN. ) SOLID_ANGLE_UNIT ( ) );
#3 = FACE_BOUND ( 'NONE', #147, .T. ) ;
#4 =( LENGTH_UNIT ( ) NAMED_UNIT ( * ) SI_UNIT ( .MILLI., .METRE. ) );
#5 = CARTESIAN_POINT ( 'NONE',  ( 0.0000000000000000000, 0.0000000000000000000, 2.000000000000000000 ) ) ;
#6 = DIRECTION ( 'NONE',  ( 0.0000000000000000000, 0.0000000000000000000, 1.000000000000000000 ) ) ;
#7 = ORIENTED_EDGE ( 'NONE', *, *, #202, .F. ) ;
#8 = VERTEX_POINT ( 'NONE', #205 ) ;
#9 = MECHANICAL_DESIGN_GEOMETRIC_PRESENTATION_REPRESENTATION (  '', ( #182 ), #19 ) ;
#10 = MANIFOLD_SOLID_BREP ( 'Boss-Extrude1', #180 ) ;
#11 = COLOUR_RGB ( '',0.2509803921568627400, 0.2509803921568627400, 0.2509803921568627400 ) ;
#12 = ORIENTED_EDGE ( 'NONE', *, *, #209, .F. ) ;
#13 = CARTESIAN_POINT ( 'NONE',  ( -1.000000000000000000, 0.0000000000000000000, 2.000000000000000000 ) ) ;
#14 = EDGE_LOOP ( 'NONE', ( #214, #88, #26, #114 ) ) ;
#15 = DIRECTION ( 'NONE',  ( 1.000000000000000000, 0.0000000000000000000, 0.0000000000000000000 ) ) ;
#16 = CARTESIAN_POINT ( 'NONE',  ( 0.0000000000000000000, 0.0000000000000000000, 2.000000000000000000 ) ) ;
#17 = PRESENTATION_STYLE_ASSIGNMENT (( #94 ) ) ;
#18 = FILL_AREA_STYLE ('',( #194 ) ) ;
#19 =( GEOMETRIC_REPRESENTATION_CONTEXT ( 3 ) GLOBAL_UNCERTAINTY_ASSIGNED_CONTEXT ( ( #68 ) ) GLOBAL_UNIT_ASSIGNED_CONTEXT ( ( #4, #33, #20 ) ) REPRESENTATION_CONTEXT ( 'NONE', 'WORKASPACE' ) );
#20 =( NAMED_UNIT ( * ) SI_UNIT ( $, .STERADIAN. ) SOLID_ANGLE_UNIT ( ) );
#21 = LINE ( 'NONE', #22, #181 ) ;
#22 = CARTESIAN_POINT ( 'NONE',  ( -4.849999999999999600, 0.0000000000000000000, 2.000000000000000000 ) ) ;
#23 = EDGE_LOOP ( 'NONE', ( #55, #24 ) ) ;
#24 = ORIENTED_EDGE ( 'NONE', *, *, #45, .T. ) ;
#25 = EDGE_LOOP ( 'NONE', ( #187, #159 ) ) ;
#26 = ORIENTED_EDGE ( 'NONE', *, *, #184, .T. ) ;
#27 = FILL_AREA_STYLE ('',( #91 ) ) ;
#28 = CARTESIAN_POINT ( 'NONE',  ( -1.000000000000000000, 0.0000000000000000000, 0.0000000000000000000 ) ) ;
#29 = AXIS2_PLACEMENT_3D ( 'NONE', #193, #208, #152 ) ;
#30 = FACE_OUTER_BOUND ( 'NONE', #127, .T. ) ;
#31 = PLANE ( 'NONE',  #61 ) ;
#32 = DIRECTION ( 'NONE',  ( -0.0000000000000000000, -0.0000000000000000000, -1.000000000000000000 ) ) ;
#33 =( NAMED_UNIT ( * ) PLANE_ANGLE_UNIT ( ) SI_UNIT ( $, .RADIAN. ) );
#34 = DIRECTION ( 'NONE',  ( 0.0000000000000000000, 0.0000000000000000000, 1.000000000000000000 ) ) ;
#35 = ORIENTED_EDGE ( 'NONE', *, *, #118, .T. ) ;
#36 = PRODUCT_DEFINITION_CONTEXT ( 'detailed design', #52, 'design' ) ;
#37 = AXIS2_PLACEMENT_3D ( 'NONE', #16, #32, #149 ) ;
#38 = PRODUCT_CONTEXT ( 'NONE', #139, 'mechanical' ) ;
#39 = ORIENTED_EDGE ( 'NONE', *, *, #146, .T. ) ;
#40 = UNCERTAINTY_MEASURE_WITH_UNIT (LENGTH_MEASURE( 1.000000000000000100E-005 ), #157, 'distance_accuracy_value', 'NONE');
#41 = VERTEX_POINT ( 'NONE', #60 ) ;
#42 = ORIENTED_EDGE ( 'NONE', *, *, #43, .T. ) ;
#43 = EDGE_CURVE ( 'NONE', #96, #145, #172, .T. ) ;
#44 = PRODUCT ( 'magnetic-encoder-disc-for 20d-mm-metal-gearmotors-w1r02c', 'magnetic-encoder-disc-for 20d-mm-metal-gearmotors-w1r02c', '', ( #38 ) ) ;
#45 = EDGE_CURVE ( 'NONE', #102, #145, #65, .T. ) ;
#46 = DIRECTION ( 'NONE',  ( -0.0000000000000000000, -0.0000000000000000000, -1.000000000000000000 ) ) ;
#47 = DIRECTION ( 'NONE',  ( -0.0000000000000000000, -0.0000000000000000000, -1.000000000000000000 ) ) ;
#48 = DIRECTION ( 'NONE',  ( 1.000000000000000000, 0.0000000000000000000, -0.0000000000000000000 ) ) ;
#49 = DIRECTION ( 'NONE',  ( 1.000000000000000000, 0.0000000000000000000, -0.0000000000000000000 ) ) ;
#50 = DIRECTION ( 'NONE',  ( -1.000000000000000000, 0.0000000000000000000, 0.0000000000000000000 ) ) ;
#51 = DIRECTION ( 'NONE',  ( 1.000000000000000000, 0.0000000000000000000, 0.0000000000000000000 ) ) ;
#52 = APPLICATION_CONTEXT ( 'automotive_design' ) ;
#53 =( GEOMETRIC_REPRESENTATION_CONTEXT ( 3 ) GLOBAL_UNCERTAINTY_ASSIGNED_CONTEXT ( ( #130 ) ) GLOBAL_UNIT_ASSIGNED_CONTEXT ( ( #128, #73, #2 ) ) REPRESENTATION_CONTEXT ( 'NONE', 'WORKASPACE' ) );
#54 = SURFACE_STYLE_FILL_AREA ( #27 ) ;
#55 = ORIENTED_EDGE ( 'NONE', *, *, #209, .T. ) ;
#56 = ADVANCED_FACE ( 'NONE', ( #165 ), #71, .T. ) ;
#57 = AXIS2_PLACEMENT_3D ( 'NONE', #167, #46, #129 ) ;
#58 = FACE_OUTER_BOUND ( 'NONE', #173, .T. ) ;
#59 = CYLINDRICAL_SURFACE ( 'NONE', #121, 4.849999999999999600 ) ;
#60 = CARTESIAN_POINT ( 'NONE',  ( 4.849999999999999600, 5.939536975864662000E-016, 2.000000000000000000 ) ) ;
#61 = AXIS2_PLACEMENT_3D ( 'NONE', #204, #92, #48 ) ;
#62 = DIRECTION ( 'NONE',  ( 1.000000000000000000, 0.0000000000000000000, 0.0000000000000000000 ) ) ;
#63 = FACE_OUTER_BOUND ( 'NONE', #124, .T. ) ;
#64 = CARTESIAN_POINT ( 'NONE',  ( -4.849999999999999600, 0.0000000000000000000, 0.0000000000000000000 ) ) ;
#65 = CIRCLE ( 'NONE', #211, 1.000000000000000000 ) ;
#66 = AXIS2_PLACEMENT_3D ( 'NONE', #170, #148, #111 ) ;
#67 = SURFACE_SIDE_STYLE ('',( #76 ) ) ;
#68 = UNCERTAINTY_MEASURE_WITH_UNIT (LENGTH_MEASURE( 1.000000000000000100E-005 ), #4, 'distance_accuracy_value', 'NONE');
#69 = LINE ( 'NONE', #185, #70 ) ;
#70 = VECTOR ( 'NONE', #113, 1000.000000000000000 ) ;
#71 = CYLINDRICAL_SURFACE ( 'NONE', #37, 4.849999999999999600 ) ;
#72 = AXIS2_PLACEMENT_3D ( 'NONE', #191, #189, #49 ) ;
#73 =( NAMED_UNIT ( * ) PLANE_ANGLE_UNIT ( ) SI_UNIT ( $, .RADIAN. ) );
#74 = PRESENTATION_LAYER_ASSIGNMENT (  '', '', ( #179 ) ) ;
#75 = CARTESIAN_POINT ( 'NONE',  ( -1.000000000000000000, 0.0000000000000000000, 2.000000000000000000 ) ) ;
#76 = SURFACE_STYLE_FILL_AREA ( #18 ) ;
#77 = ORIENTED_EDGE ( 'NONE', *, *, #190, .T. ) ;
#78 = DIRECTION ( 'NONE',  ( 0.0000000000000000000, 0.0000000000000000000, 1.000000000000000000 ) ) ;
#79 = CARTESIAN_POINT ( 'NONE',  ( 0.0000000000000000000, 0.0000000000000000000, 2.000000000000000000 ) ) ;
#80 = APPLICATION_PROTOCOL_DEFINITION ( 'draft international standard', 'automotive_design', 1998, #139 ) ;
#81 = ORIENTED_EDGE ( 'NONE', *, *, #107, .T. ) ;
#82 = AXIS2_PLACEMENT_3D ( 'NONE', #5, #85, #50 ) ;
#83 = DIRECTION ( 'NONE',  ( 0.0000000000000000000, 0.0000000000000000000, 1.000000000000000000 ) ) ;
#84 = CARTESIAN_POINT ( 'NONE',  ( 0.0000000000000000000, 0.0000000000000000000, 2.000000000000000000 ) ) ;
#85 = DIRECTION ( 'NONE',  ( -0.0000000000000000000, -0.0000000000000000000, -1.000000000000000000 ) ) ;
#86 = DIRECTION ( 'NONE',  ( -0.0000000000000000000, -0.0000000000000000000, -1.000000000000000000 ) ) ;
#87 = VERTEX_POINT ( 'NONE', #151 ) ;
#88 = ORIENTED_EDGE ( 'NONE', *, *, #134, .F. ) ;
#89 = AXIS2_PLACEMENT_3D ( 'NONE', #135, #34, #51 ) ;
#90 = FACE_OUTER_BOUND ( 'NONE', #25, .T. ) ;
#91 = FILL_AREA_STYLE_COLOUR ( '', #11 ) ;
#92 = DIRECTION ( 'NONE',  ( 0.0000000000000000000, 0.0000000000000000000, 1.000000000000000000 ) ) ;
#93 = AXIS2_PLACEMENT_3D ( 'NONE', #84, #175, #158 ) ;
#94 = SURFACE_STYLE_USAGE ( .BOTH. , #213 ) ;
#95 = FACE_BOUND ( 'NONE', #23, .T. ) ;
#96 = VERTEX_POINT ( 'NONE', #13 ) ;
#97 = SURFACE_STYLE_USAGE ( .BOTH. , #67 ) ;
#98 = PRESENTATION_STYLE_ASSIGNMENT (( #97 ) ) ;
#99 = VERTEX_POINT ( 'NONE', #133 ) ;
#100 = EDGE_CURVE ( 'NONE', #144, #87, #140, .T. ) ;
#101 = PLANE ( 'NONE',  #72 ) ;
#102 = VERTEX_POINT ( 'NONE', #1 ) ;
#103 = ORIENTED_EDGE ( 'NONE', *, *, #190, .F. ) ;
#104 = ADVANCED_FACE ( 'NONE', ( #120 ), #59, .T. ) ;
#105 = CYLINDRICAL_SURFACE ( 'NONE', #57, 1.000000000000000000 ) ;
#106 = ADVANCED_BREP_SHAPE_REPRESENTATION ( 'magnetic-encoder-disc-for 20d-mm-metal-gearmotors-w1r02c', ( #10, #162 ), #132 ) ;
#107 = EDGE_CURVE ( 'NONE', #87, #144, #156, .T. ) ;
#108 = CIRCLE ( 'NONE', #89, 1.000000000000000000 ) ;
#109 = ORIENTED_EDGE ( 'NONE', *, *, #100, .F. ) ;
#110 = DIRECTION ( 'NONE',  ( -1.000000000000000000, 0.0000000000000000000, 0.0000000000000000000 ) ) ;
#111 = DIRECTION ( 'NONE',  ( 1.000000000000000000, 0.0000000000000000000, 0.0000000000000000000 ) ) ;
#112 = AXIS2_PLACEMENT_3D ( 'NONE', #174, #83, #115 ) ;
#113 = DIRECTION ( 'NONE',  ( -0.0000000000000000000, -0.0000000000000000000, -1.000000000000000000 ) ) ;
#114 = ORIENTED_EDGE ( 'NONE', *, *, #100, .T. ) ;
#115 = DIRECTION ( 'NONE',  ( 1.000000000000000000, 0.0000000000000000000, 0.0000000000000000000 ) ) ;
#116 = CARTESIAN_POINT ( 'NONE',  ( 1.000000000000000000, 1.224646799147353200E-016, 2.000000000000000000 ) ) ;
#117 = CYLINDRICAL_SURFACE ( 'NONE', #82, 1.000000000000000000 ) ;
#118 = EDGE_CURVE ( 'NONE', #41, #87, #69, .T. ) ;
#119 =( NAMED_UNIT ( * ) SI_UNIT ( $, .STERADIAN. ) SOLID_ANGLE_UNIT ( ) );
#120 = FACE_OUTER_BOUND ( 'NONE', #212, .T. ) ;
#121 = AXIS2_PLACEMENT_3D ( 'NONE', #171, #47, #110 ) ;
#122 = ADVANCED_FACE ( 'NONE', ( #30 ), #105, .F. ) ;
#123 = ORIENTED_EDGE ( 'NONE', *, *, #43, .F. ) ;
#124 = EDGE_LOOP ( 'NONE', ( #109, #166 ) ) ;
#125 = ADVANCED_FACE ( 'NONE', ( #63, #95 ), #31, .F. ) ;
#126 = COLOUR_RGB ( '',0.2509803921568627400, 0.2509803921568627400, 0.2509803921568627400 ) ;
#127 = EDGE_LOOP ( 'NONE', ( #77, #142, #12, #123 ) ) ;
#128 =( LENGTH_UNIT ( ) NAMED_UNIT ( * ) SI_UNIT ( .MILLI., .METRE. ) );
#129 = DIRECTION ( 'NONE',  ( -1.000000000000000000, 0.0000000000000000000, 0.0000000000000000000 ) ) ;
#130 = UNCERTAINTY_MEASURE_WITH_UNIT (LENGTH_MEASURE( 1.000000000000000100E-005 ), #128, 'distance_accuracy_value', 'NONE');
#131 = CARTESIAN_POINT ( 'NONE',  ( 0.0000000000000000000, 0.0000000000000000000, 0.0000000000000000000 ) ) ;
#132 =( GEOMETRIC_REPRESENTATION_CONTEXT ( 3 ) GLOBAL_UNCERTAINTY_ASSIGNED_CONTEXT ( ( #40 ) ) GLOBAL_UNIT_ASSIGNED_CONTEXT ( ( #157, #155, #119 ) ) REPRESENTATION_CONTEXT ( 'NONE', 'WORKASPACE' ) );
#133 = CARTESIAN_POINT ( 'NONE',  ( -4.849999999999999600, 0.0000000000000000000, 2.000000000000000000 ) ) ;
#134 = EDGE_CURVE ( 'NONE', #99, #41, #150, .T. ) ;
#135 = CARTESIAN_POINT ( 'NONE',  ( 0.0000000000000000000, 0.0000000000000000000, 2.000000000000000000 ) ) ;
#136 = CIRCLE ( 'NONE', #29, 1.000000000000000000 ) ;
#137 = DIRECTION ( 'NONE',  ( 0.0000000000000000000, 0.0000000000000000000, 1.000000000000000000 ) ) ;
#138 = PRODUCT_DEFINITION_FORMATION_WITH_SPECIFIED_SOURCE ( 'ANY', '', #44, .NOT_KNOWN. ) ;
#139 = APPLICATION_CONTEXT ( 'automotive_design' ) ;
#140 = CIRCLE ( 'NONE', #66, 4.849999999999999600 ) ;
#141 = PRODUCT_DEFINITION ( 'UNKNOWN', '', #138, #36 ) ;
#142 = ORIENTED_EDGE ( 'NONE', *, *, #154, .T. ) ;
#143 = AXIS2_PLACEMENT_3D ( 'NONE', #79, #6, #188 ) ;
#144 = VERTEX_POINT ( 'NONE', #64 ) ;
#145 = VERTEX_POINT ( 'NONE', #28 ) ;
#146 = EDGE_CURVE ( 'NONE', #8, #96, #108, .T. ) ;
#147 = EDGE_LOOP ( 'NONE', ( #103, #164 ) ) ;
#148 = DIRECTION ( 'NONE',  ( 0.0000000000000000000, 0.0000000000000000000, 1.000000000000000000 ) ) ;
#149 = DIRECTION ( 'NONE',  ( -1.000000000000000000, 0.0000000000000000000, 0.0000000000000000000 ) ) ;
#150 = CIRCLE ( 'NONE', #143, 4.849999999999999600 ) ;
#151 = CARTESIAN_POINT ( 'NONE',  ( 4.849999999999999600, 5.939536975864662000E-016, 0.0000000000000000000 ) ) ;
#152 = DIRECTION ( 'NONE',  ( 1.000000000000000000, 0.0000000000000000000, 0.0000000000000000000 ) ) ;
#153 = DIRECTION ( 'NONE',  ( 1.000000000000000000, 0.0000000000000000000, 0.0000000000000000000 ) ) ;
#154 = EDGE_CURVE ( 'NONE', #8, #102, #201, .T. ) ;
#155 =( NAMED_UNIT ( * ) PLANE_ANGLE_UNIT ( ) SI_UNIT ( $, .RADIAN. ) );
#156 = CIRCLE ( 'NONE', #161, 4.849999999999999600 ) ;
#157 =( LENGTH_UNIT ( ) NAMED_UNIT ( * ) SI_UNIT ( .MILLI., .METRE. ) );
#158 = DIRECTION ( 'NONE',  ( 1.000000000000000000, 0.0000000000000000000, 0.0000000000000000000 ) ) ;
#159 = ORIENTED_EDGE ( 'NONE', *, *, #202, .T. ) ;
#160 = ADVANCED_FACE ( 'NONE', ( #58 ), #117, .F. ) ;
#161 = AXIS2_PLACEMENT_3D ( 'NONE', #131, #186, #15 ) ;
#162 = AXIS2_PLACEMENT_3D ( 'NONE', #207, #137, #153 ) ;
#163 = SHAPE_DEFINITION_REPRESENTATION ( #168, #106 ) ;
#164 = ORIENTED_EDGE ( 'NONE', *, *, #146, .F. ) ;
#165 = FACE_OUTER_BOUND ( 'NONE', #14, .T. ) ;
#166 = ORIENTED_EDGE ( 'NONE', *, *, #107, .F. ) ;
#167 = CARTESIAN_POINT ( 'NONE',  ( 0.0000000000000000000, 0.0000000000000000000, 2.000000000000000000 ) ) ;
#168 = PRODUCT_DEFINITION_SHAPE ( 'NONE', 'NONE',  #141 ) ;
#169 = ORIENTED_EDGE ( 'NONE', *, *, #184, .F. ) ;
#170 = CARTESIAN_POINT ( 'NONE',  ( 0.0000000000000000000, 0.0000000000000000000, 0.0000000000000000000 ) ) ;
#171 = CARTESIAN_POINT ( 'NONE',  ( 0.0000000000000000000, 0.0000000000000000000, 2.000000000000000000 ) ) ;
#172 = LINE ( 'NONE', #75, #210 ) ;
#173 = EDGE_LOOP ( 'NONE', ( #199, #39, #42, #197 ) ) ;
#174 = CARTESIAN_POINT ( 'NONE',  ( 0.0000000000000000000, 0.0000000000000000000, 0.0000000000000000000 ) ) ;
#175 = DIRECTION ( 'NONE',  ( 0.0000000000000000000, 0.0000000000000000000, 1.000000000000000000 ) ) ;
#176 = PRODUCT_RELATED_PRODUCT_CATEGORY ( 'part', '', ( #44 ) ) ;
#177 = APPLICATION_PROTOCOL_DEFINITION ( 'draft international standard', 'automotive_design', 1998, #52 ) ;
#178 = CIRCLE ( 'NONE', #112, 1.000000000000000000 ) ;
#179 = STYLED_ITEM ( 'NONE', ( #17 ), #10 ) ;
#180 = CLOSED_SHELL ( 'NONE', ( #122, #104, #195, #125, #56, #160 ) ) ;
#181 = VECTOR ( 'NONE', #86, 1000.000000000000000 ) ;
#182 = STYLED_ITEM ( 'NONE', ( #98 ), #106 ) ;
#183 = DIRECTION ( 'NONE',  ( -0.0000000000000000000, -0.0000000000000000000, -1.000000000000000000 ) ) ;
#184 = EDGE_CURVE ( 'NONE', #99, #144, #21, .T. ) ;
#185 = CARTESIAN_POINT ( 'NONE',  ( 4.849999999999999600, 5.939536975864662000E-016, 2.000000000000000000 ) ) ;
#186 = DIRECTION ( 'NONE',  ( 0.0000000000000000000, 0.0000000000000000000, 1.000000000000000000 ) ) ;
#187 = ORIENTED_EDGE ( 'NONE', *, *, #134, .T. ) ;
#188 = DIRECTION ( 'NONE',  ( 1.000000000000000000, 0.0000000000000000000, 0.0000000000000000000 ) ) ;
#189 = DIRECTION ( 'NONE',  ( 0.0000000000000000000, 0.0000000000000000000, 1.000000000000000000 ) ) ;
#190 = EDGE_CURVE ( 'NONE', #96, #8, #136, .T. ) ;
#191 = CARTESIAN_POINT ( 'NONE',  ( 0.0000000000000000000, 0.0000000000000000000, 2.000000000000000000 ) ) ;
#192 = CIRCLE ( 'NONE', #93, 4.849999999999999600 ) ;
#193 = CARTESIAN_POINT ( 'NONE',  ( 0.0000000000000000000, 0.0000000000000000000, 2.000000000000000000 ) ) ;
#194 = FILL_AREA_STYLE_COLOUR ( '', #126 ) ;
#195 = ADVANCED_FACE ( 'NONE', ( #90, #3 ), #101, .T. ) ;
#196 = VECTOR ( 'NONE', #206, 1000.000000000000000 ) ;
#197 = ORIENTED_EDGE ( 'NONE', *, *, #45, .F. ) ;
#198 = PRESENTATION_LAYER_ASSIGNMENT (  '', '', ( #182 ) ) ;
#199 = ORIENTED_EDGE ( 'NONE', *, *, #154, .F. ) ;
#200 = MECHANICAL_DESIGN_GEOMETRIC_PRESENTATION_REPRESENTATION (  '', ( #179 ), #53 ) ;
#201 = LINE ( 'NONE', #116, #196 ) ;
#202 = EDGE_CURVE ( 'NONE', #41, #99, #192, .T. ) ;
#203 = CARTESIAN_POINT ( 'NONE',  ( 0.0000000000000000000, 0.0000000000000000000, 0.0000000000000000000 ) ) ;
#204 = CARTESIAN_POINT ( 'NONE',  ( 0.0000000000000000000, 0.0000000000000000000, 0.0000000000000000000 ) ) ;
#205 = CARTESIAN_POINT ( 'NONE',  ( 1.000000000000000000, 1.224646799147353200E-016, 2.000000000000000000 ) ) ;
#206 = DIRECTION ( 'NONE',  ( -0.0000000000000000000, -0.0000000000000000000, -1.000000000000000000 ) ) ;
#207 = CARTESIAN_POINT ( 'NONE',  ( 0.0000000000000000000, 0.0000000000000000000, 0.0000000000000000000 ) ) ;
#208 = DIRECTION ( 'NONE',  ( 0.0000000000000000000, 0.0000000000000000000, 1.000000000000000000 ) ) ;
#209 = EDGE_CURVE ( 'NONE', #145, #102, #178, .T. ) ;
#210 = VECTOR ( 'NONE', #183, 1000.000000000000000 ) ;
#211 = AXIS2_PLACEMENT_3D ( 'NONE', #203, #78, #62 ) ;
#212 = EDGE_LOOP ( 'NONE', ( #7, #35, #81, #169 ) ) ;
#213 = SURFACE_SIDE_STYLE ('',( #54 ) ) ;
#214 = ORIENTED_EDGE ( 'NONE', *, *, #118, .F. ) ;
ENDSEC;
END-ISO-10303-21;
