ISO-10303-21;
HEADER;
FILE_DESCRIPTION (( 'STEP AP214' ),
    '1' );
FILE_NAME ('magnetic-encoder-for-mini-plastic-gearmotors-disc.step',
    '2016-08-19T17:10:23',
    ( '' ),
    ( '' ),
    'SwSTEP 2.0',
    'SolidWorks 2016',
    '' );
FILE_SCHEMA (( 'AUTOMOTIVE_DESIGN' ));
ENDSEC;

DATA;
#1 = LINE ( 'NONE', #56, #175 ) ;
#2 = ORIENTED_EDGE ( 'NONE', *, *, #124, .T. ) ;
#3 = DIRECTION ( 'NONE',  ( 1.000000000000000000, 0.0000000000000000000, 0.0000000000000000000 ) ) ;
#4 = DIRECTION ( 'NONE',  ( -0.0000000000000000000, -0.0000000000000000000, -1.000000000000000000 ) ) ;
#5 = CARTESIAN_POINT ( 'NONE',  ( 0.0000000000000000000, 0.0000000000000000000, 2.000000000000000000 ) ) ;
#6 = DIRECTION ( 'NONE',  ( 0.0000000000000000000, 0.0000000000000000000, 1.000000000000000000 ) ) ;
#7 = CIRCLE ( 'NONE', #148, 0.7500000000000001100 ) ;
#8 = EDGE_CURVE ( 'NONE', #128, #131, #30, .T. ) ;
#9 = EDGE_LOOP ( 'NONE', ( #163, #29, #11, #113 ) ) ;
#10 = CIRCLE ( 'NONE', #111, 0.7500000000000001100 ) ;
#11 = ORIENTED_EDGE ( 'NONE', *, *, #89, .T. ) ;
#12 = PRODUCT_DEFINITION ( 'UNKNOWN', '', #27, #55 ) ;
#13 = FACE_BOUND ( 'NONE', #94, .T. ) ;
#14 = ORIENTED_EDGE ( 'NONE', *, *, #95, .T. ) ;
#15 = EDGE_CURVE ( 'NONE', #155, #149, #1, .T. ) ;
#16 = CARTESIAN_POINT ( 'NONE',  ( -4.849999999999998800, 0.0000000000000000000, 2.000000000000000000 ) ) ;
#17 = ORIENTED_EDGE ( 'NONE', *, *, #15, .F. ) ;
#18 = CARTESIAN_POINT ( 'NONE',  ( 0.0000000000000000000, 0.0000000000000000000, 2.000000000000000000 ) ) ;
#19 = DIRECTION ( 'NONE',  ( 0.0000000000000000000, 0.0000000000000000000, 1.000000000000000000 ) ) ;
#20 = AXIS2_PLACEMENT_3D ( 'NONE', #106, #135, #169 ) ;
#21 = EDGE_LOOP ( 'NONE', ( #108, #211, #138, #71 ) ) ;
#22 = DIRECTION ( 'NONE',  ( -1.000000000000000000, 0.0000000000000000000, 0.0000000000000000000 ) ) ;
#23 = SURFACE_STYLE_USAGE ( .BOTH. , #104 ) ;
#24 = DIRECTION ( 'NONE',  ( 0.0000000000000000000, 0.0000000000000000000, 1.000000000000000000 ) ) ;
#25 = ORIENTED_EDGE ( 'NONE', *, *, #191, .T. ) ;
#26 = CARTESIAN_POINT ( 'NONE',  ( -0.7500000000000001100, 0.0000000000000000000, 2.000000000000000000 ) ) ;
#27 = PRODUCT_DEFINITION_FORMATION_WITH_SPECIFIED_SOURCE ( 'ANY', '', #190, .NOT_KNOWN. ) ;
#28 = CIRCLE ( 'NONE', #76, 4.849999999999998800 ) ;
#29 = ORIENTED_EDGE ( 'NONE', *, *, #15, .T. ) ;
#30 = LINE ( 'NONE', #200, #197 ) ;
#31 = EDGE_LOOP ( 'NONE', ( #48, #14 ) ) ;
#32 = AXIS2_PLACEMENT_3D ( 'NONE', #18, #110, #132 ) ;
#33 = ADVANCED_FACE ( 'NONE', ( #194 ), #44, .T. ) ;
#34 = UNCERTAINTY_MEASURE_WITH_UNIT (LENGTH_MEASURE( 1.000000000000000100E-005 ), #139, 'distance_accuracy_value', 'NONE');
#35 = ORIENTED_EDGE ( 'NONE', *, *, #42, .T. ) ;
#36 = PRODUCT_RELATED_PRODUCT_CATEGORY ( 'part', '', ( #190 ) ) ;
#37 = VECTOR ( 'NONE', #183, 1000.000000000000000 ) ;
#38 = DIRECTION ( 'NONE',  ( -0.0000000000000000000, -0.0000000000000000000, -1.000000000000000000 ) ) ;
#39 =( NAMED_UNIT ( * ) SI_UNIT ( $, .STERADIAN. ) SOLID_ANGLE_UNIT ( ) );
#40 = DIRECTION ( 'NONE',  ( -1.000000000000000000, 0.0000000000000000000, 0.0000000000000000000 ) ) ;
#41 = FILL_AREA_STYLE_COLOUR ( '', #173 ) ;
#42 = EDGE_CURVE ( 'NONE', #98, #149, #143, .T. ) ;
#43 = CARTESIAN_POINT ( 'NONE',  ( 0.0000000000000000000, 0.0000000000000000000, 2.000000000000000000 ) ) ;
#44 = CYLINDRICAL_SURFACE ( 'NONE', #165, 4.849999999999998800 ) ;
#45 = CIRCLE ( 'NONE', #32, 4.849999999999998800 ) ;
#46 = SURFACE_STYLE_FILL_AREA ( #72 ) ;
#47 = ORIENTED_EDGE ( 'NONE', *, *, #177, .F. ) ;
#48 = ORIENTED_EDGE ( 'NONE', *, *, #68, .T. ) ;
#49 = EDGE_CURVE ( 'NONE', #96, #98, #178, .T. ) ;
#50 = CARTESIAN_POINT ( 'NONE',  ( -4.849999999999998800, 0.0000000000000000000, 0.0000000000000000000 ) ) ;
#51 = MANIFOLD_SOLID_BREP ( 'Boss-Extrude1', #176 ) ;
#52 = CIRCLE ( 'NONE', #141, 4.849999999999998800 ) ;
#53 = CARTESIAN_POINT ( 'NONE',  ( -0.7500000000000001100, 0.0000000000000000000, 0.0000000000000000000 ) ) ;
#54 = AXIS2_PLACEMENT_3D ( 'NONE', #43, #79, #92 ) ;
#55 = PRODUCT_DEFINITION_CONTEXT ( 'detailed design', #86, 'design' ) ;
#56 = CARTESIAN_POINT ( 'NONE',  ( 4.849999999999998800, 5.939536975864661000E-016, 2.000000000000000000 ) ) ;
#57 = SURFACE_STYLE_USAGE ( .BOTH. , #181 ) ;
#58 = FILL_AREA_STYLE ('',( #87 ) ) ;
#59 = DIRECTION ( 'NONE',  ( 0.0000000000000000000, 0.0000000000000000000, 1.000000000000000000 ) ) ;
#60 = EDGE_LOOP ( 'NONE', ( #47, #80, #119, #66 ) ) ;
#61 =( GEOMETRIC_REPRESENTATION_CONTEXT ( 3 ) GLOBAL_UNCERTAINTY_ASSIGNED_CONTEXT ( ( #64 ) ) GLOBAL_UNIT_ASSIGNED_CONTEXT ( ( #74, #154, #180 ) ) REPRESENTATION_CONTEXT ( 'NONE', 'WORKASPACE' ) );
#62 = PRESENTATION_LAYER_ASSIGNMENT (  '', '', ( #156 ) ) ;
#63 = ORIENTED_EDGE ( 'NONE', *, *, #124, .F. ) ;
#64 = UNCERTAINTY_MEASURE_WITH_UNIT (LENGTH_MEASURE( 1.000000000000000100E-005 ), #74, 'distance_accuracy_value', 'NONE');
#65 = CIRCLE ( 'NONE', #54, 0.7500000000000001100 ) ;
#66 = ORIENTED_EDGE ( 'NONE', *, *, #95, .F. ) ;
#67 = CARTESIAN_POINT ( 'NONE',  ( 0.7500000000000001100, 9.184850993605150900E-017, 0.0000000000000000000 ) ) ;
#68 = EDGE_CURVE ( 'NONE', #131, #188, #210, .T. ) ;
#69 = DIRECTION ( 'NONE',  ( -1.000000000000000000, 0.0000000000000000000, 0.0000000000000000000 ) ) ;
#70 = ORIENTED_EDGE ( 'NONE', *, *, #49, .T. ) ;
#71 = ORIENTED_EDGE ( 'NONE', *, *, #8, .F. ) ;
#72 = FILL_AREA_STYLE ('',( #41 ) ) ;
#73 = DIRECTION ( 'NONE',  ( -0.0000000000000000000, -0.0000000000000000000, -1.000000000000000000 ) ) ;
#74 =( LENGTH_UNIT ( ) NAMED_UNIT ( * ) SI_UNIT ( .MILLI., .METRE. ) );
#75 = CARTESIAN_POINT ( 'NONE',  ( 0.7500000000000001100, 9.184850993605150900E-017, 2.000000000000000000 ) ) ;
#76 = AXIS2_PLACEMENT_3D ( 'NONE', #109, #6, #205 ) ;
#77 = CYLINDRICAL_SURFACE ( 'NONE', #103, 4.849999999999998800 ) ;
#78 = PRESENTATION_STYLE_ASSIGNMENT (( #23 ) ) ;
#79 = DIRECTION ( 'NONE',  ( 0.0000000000000000000, 0.0000000000000000000, 1.000000000000000000 ) ) ;
#80 = ORIENTED_EDGE ( 'NONE', *, *, #97, .T. ) ;
#81 = AXIS2_PLACEMENT_3D ( 'NONE', #125, #153, #140 ) ;
#82 = LINE ( 'NONE', #75, #37 ) ;
#83 = FACE_OUTER_BOUND ( 'NONE', #146, .T. ) ;
#84 =( NAMED_UNIT ( * ) PLANE_ANGLE_UNIT ( ) SI_UNIT ( $, .RADIAN. ) );
#85 = COLOUR_RGB ( '',0.2509803921568627400, 0.2509803921568627400, 0.2509803921568627400 ) ;
#86 = APPLICATION_CONTEXT ( 'automotive_design' ) ;
#87 = FILL_AREA_STYLE_COLOUR ( '', #85 ) ;
#88 = CARTESIAN_POINT ( 'NONE',  ( 0.0000000000000000000, 0.0000000000000000000, 2.000000000000000000 ) ) ;
#89 = EDGE_CURVE ( 'NONE', #149, #98, #28, .T. ) ;
#90 = CARTESIAN_POINT ( 'NONE',  ( 4.849999999999998800, 5.939536975864661000E-016, 0.0000000000000000000 ) ) ;
#91 = DIRECTION ( 'NONE',  ( -1.000000000000000000, 0.0000000000000000000, 0.0000000000000000000 ) ) ;
#92 = DIRECTION ( 'NONE',  ( 1.000000000000000000, 0.0000000000000000000, 0.0000000000000000000 ) ) ;
#93 = FACE_OUTER_BOUND ( 'NONE', #60, .T. ) ;
#94 = EDGE_LOOP ( 'NONE', ( #159, #157 ) ) ;
#95 = EDGE_CURVE ( 'NONE', #188, #131, #10, .T. ) ;
#96 = VERTEX_POINT ( 'NONE', #16 ) ;
#97 = EDGE_CURVE ( 'NONE', #129, #128, #65, .T. ) ;
#98 = VERTEX_POINT ( 'NONE', #50 ) ;
#99 = AXIS2_PLACEMENT_3D ( 'NONE', #136, #133, #150 ) ;
#100 = ADVANCED_FACE ( 'NONE', ( #161 ), #168, .F. ) ;
#101 = CARTESIAN_POINT ( 'NONE',  ( 4.849999999999998800, 5.939536975864661000E-016, 2.000000000000000000 ) ) ;
#102 = CARTESIAN_POINT ( 'NONE',  ( 0.0000000000000000000, 0.0000000000000000000, 0.0000000000000000000 ) ) ;
#103 = AXIS2_PLACEMENT_3D ( 'NONE', #203, #167, #69 ) ;
#104 = SURFACE_SIDE_STYLE ('',( #189 ) ) ;
#105 = CARTESIAN_POINT ( 'NONE',  ( 0.0000000000000000000, 0.0000000000000000000, 2.000000000000000000 ) ) ;
#106 = CARTESIAN_POINT ( 'NONE',  ( 0.0000000000000000000, 0.0000000000000000000, 0.0000000000000000000 ) ) ;
#107 = PLANE ( 'NONE',  #144 ) ;
#108 = ORIENTED_EDGE ( 'NONE', *, *, #206, .T. ) ;
#109 = CARTESIAN_POINT ( 'NONE',  ( 0.0000000000000000000, 0.0000000000000000000, 0.0000000000000000000 ) ) ;
#110 = DIRECTION ( 'NONE',  ( 0.0000000000000000000, 0.0000000000000000000, 1.000000000000000000 ) ) ;
#111 = AXIS2_PLACEMENT_3D ( 'NONE', #127, #24, #184 ) ;
#112 = DIRECTION ( 'NONE',  ( -0.0000000000000000000, -0.0000000000000000000, -1.000000000000000000 ) ) ;
#113 = ORIENTED_EDGE ( 'NONE', *, *, #49, .F. ) ;
#114 = CARTESIAN_POINT ( 'NONE',  ( 0.7500000000000001100, 9.184850993605150900E-017, 2.000000000000000000 ) ) ;
#115 = ORIENTED_EDGE ( 'NONE', *, *, #89, .F. ) ;
#116 =( GEOMETRIC_REPRESENTATION_CONTEXT ( 3 ) GLOBAL_UNCERTAINTY_ASSIGNED_CONTEXT ( ( #34 ) ) GLOBAL_UNIT_ASSIGNED_CONTEXT ( ( #139, #122, #39 ) ) REPRESENTATION_CONTEXT ( 'NONE', 'WORKASPACE' ) );
#117 = ORIENTED_EDGE ( 'NONE', *, *, #42, .F. ) ;
#118 = DIRECTION ( 'NONE',  ( -0.0000000000000000000, -0.0000000000000000000, -1.000000000000000000 ) ) ;
#119 = ORIENTED_EDGE ( 'NONE', *, *, #8, .T. ) ;
#120 = DIRECTION ( 'NONE',  ( 1.000000000000000000, 0.0000000000000000000, -0.0000000000000000000 ) ) ;
#121 = APPLICATION_CONTEXT ( 'automotive_design' ) ;
#122 =( NAMED_UNIT ( * ) PLANE_ANGLE_UNIT ( ) SI_UNIT ( $, .RADIAN. ) );
#123 = DIRECTION ( 'NONE',  ( 1.000000000000000000, 0.0000000000000000000, -0.0000000000000000000 ) ) ;
#124 = EDGE_CURVE ( 'NONE', #96, #155, #52, .T. ) ;
#125 = CARTESIAN_POINT ( 'NONE',  ( 0.0000000000000000000, 0.0000000000000000000, 0.0000000000000000000 ) ) ;
#126 = CARTESIAN_POINT ( 'NONE',  ( 0.0000000000000000000, 0.0000000000000000000, 2.000000000000000000 ) ) ;
#127 = CARTESIAN_POINT ( 'NONE',  ( 0.0000000000000000000, 0.0000000000000000000, 0.0000000000000000000 ) ) ;
#128 = VERTEX_POINT ( 'NONE', #26 ) ;
#129 = VERTEX_POINT ( 'NONE', #114 ) ;
#130 = AXIS2_PLACEMENT_3D ( 'NONE', #126, #38, #40 ) ;
#131 = VERTEX_POINT ( 'NONE', #53 ) ;
#132 = DIRECTION ( 'NONE',  ( 1.000000000000000000, 0.0000000000000000000, 0.0000000000000000000 ) ) ;
#133 = DIRECTION ( 'NONE',  ( 0.0000000000000000000, 0.0000000000000000000, 1.000000000000000000 ) ) ;
#134 = DIRECTION ( 'NONE',  ( 0.0000000000000000000, 0.0000000000000000000, 1.000000000000000000 ) ) ;
#135 = DIRECTION ( 'NONE',  ( 0.0000000000000000000, 0.0000000000000000000, 1.000000000000000000 ) ) ;
#136 = CARTESIAN_POINT ( 'NONE',  ( 0.0000000000000000000, 0.0000000000000000000, 0.0000000000000000000 ) ) ;
#137 = FACE_OUTER_BOUND ( 'NONE', #172, .T. ) ;
#138 = ORIENTED_EDGE ( 'NONE', *, *, #68, .F. ) ;
#139 =( LENGTH_UNIT ( ) NAMED_UNIT ( * ) SI_UNIT ( .MILLI., .METRE. ) );
#140 = DIRECTION ( 'NONE',  ( 1.000000000000000000, 0.0000000000000000000, 0.0000000000000000000 ) ) ;
#141 = AXIS2_PLACEMENT_3D ( 'NONE', #88, #19, #198 ) ;
#142 =( GEOMETRIC_REPRESENTATION_CONTEXT ( 3 ) GLOBAL_UNCERTAINTY_ASSIGNED_CONTEXT ( ( #185 ) ) GLOBAL_UNIT_ASSIGNED_CONTEXT ( ( #202, #84, #193 ) ) REPRESENTATION_CONTEXT ( 'NONE', 'WORKASPACE' ) );
#143 = CIRCLE ( 'NONE', #20, 4.849999999999998800 ) ;
#144 = AXIS2_PLACEMENT_3D ( 'NONE', #102, #59, #123 ) ;
#145 = PRESENTATION_STYLE_ASSIGNMENT (( #57 ) ) ;
#146 = EDGE_LOOP ( 'NONE', ( #117, #115 ) ) ;
#147 = ADVANCED_FACE ( 'NONE', ( #93 ), #213, .F. ) ;
#148 = AXIS2_PLACEMENT_3D ( 'NONE', #105, #134, #3 ) ;
#149 = VERTEX_POINT ( 'NONE', #90 ) ;
#150 = DIRECTION ( 'NONE',  ( 1.000000000000000000, 0.0000000000000000000, 0.0000000000000000000 ) ) ;
#151 = CARTESIAN_POINT ( 'NONE',  ( -4.849999999999998800, 0.0000000000000000000, 2.000000000000000000 ) ) ;
#152 = AXIS2_PLACEMENT_3D ( 'NONE', #207, #112, #91 ) ;
#153 = DIRECTION ( 'NONE',  ( 0.0000000000000000000, 0.0000000000000000000, 1.000000000000000000 ) ) ;
#154 =( NAMED_UNIT ( * ) PLANE_ANGLE_UNIT ( ) SI_UNIT ( $, .RADIAN. ) );
#155 = VERTEX_POINT ( 'NONE', #101 ) ;
#156 = STYLED_ITEM ( 'NONE', ( #78 ), #51 ) ;
#157 = ORIENTED_EDGE ( 'NONE', *, *, #97, .F. ) ;
#158 = AXIS2_PLACEMENT_3D ( 'NONE', #5, #164, #120 ) ;
#159 = ORIENTED_EDGE ( 'NONE', *, *, #206, .F. ) ;
#160 = DIRECTION ( 'NONE',  ( -0.0000000000000000000, -0.0000000000000000000, -1.000000000000000000 ) ) ;
#161 = FACE_OUTER_BOUND ( 'NONE', #21, .T. ) ;
#162 = APPLICATION_PROTOCOL_DEFINITION ( 'draft international standard', 'automotive_design', 1998, #121 ) ;
#163 = ORIENTED_EDGE ( 'NONE', *, *, #191, .F. ) ;
#164 = DIRECTION ( 'NONE',  ( 0.0000000000000000000, 0.0000000000000000000, 1.000000000000000000 ) ) ;
#165 = AXIS2_PLACEMENT_3D ( 'NONE', #182, #4, #22 ) ;
#166 = PRODUCT_CONTEXT ( 'NONE', #121, 'mechanical' ) ;
#167 = DIRECTION ( 'NONE',  ( -0.0000000000000000000, -0.0000000000000000000, -1.000000000000000000 ) ) ;
#168 = CYLINDRICAL_SURFACE ( 'NONE', #152, 0.7500000000000001100 ) ;
#169 = DIRECTION ( 'NONE',  ( 1.000000000000000000, 0.0000000000000000000, 0.0000000000000000000 ) ) ;
#170 = STYLED_ITEM ( 'NONE', ( #145 ), #195 ) ;
#171 = VECTOR ( 'NONE', #73, 1000.000000000000000 ) ;
#172 = EDGE_LOOP ( 'NONE', ( #17, #63, #70, #35 ) ) ;
#173 = COLOUR_RGB ( '',0.2509803921568627400, 0.2509803921568627400, 0.2509803921568627400 ) ;
#174 = SHAPE_DEFINITION_REPRESENTATION ( #186, #195 ) ;
#175 = VECTOR ( 'NONE', #118, 1000.000000000000000 ) ;
#176 = CLOSED_SHELL ( 'NONE', ( #100, #33, #212, #192, #214, #147 ) ) ;
#177 = EDGE_CURVE ( 'NONE', #129, #188, #82, .T. ) ;
#178 = LINE ( 'NONE', #151, #171 ) ;
#179 = PRESENTATION_LAYER_ASSIGNMENT (  '', '', ( #170 ) ) ;
#180 =( NAMED_UNIT ( * ) SI_UNIT ( $, .STERADIAN. ) SOLID_ANGLE_UNIT ( ) );
#181 = SURFACE_SIDE_STYLE ('',( #46 ) ) ;
#182 = CARTESIAN_POINT ( 'NONE',  ( 0.0000000000000000000, 0.0000000000000000000, 2.000000000000000000 ) ) ;
#183 = DIRECTION ( 'NONE',  ( -0.0000000000000000000, -0.0000000000000000000, -1.000000000000000000 ) ) ;
#184 = DIRECTION ( 'NONE',  ( 1.000000000000000000, 0.0000000000000000000, 0.0000000000000000000 ) ) ;
#185 = UNCERTAINTY_MEASURE_WITH_UNIT (LENGTH_MEASURE( 1.000000000000000100E-005 ), #202, 'distance_accuracy_value', 'NONE');
#186 = PRODUCT_DEFINITION_SHAPE ( 'NONE', 'NONE',  #12 ) ;
#187 = EDGE_LOOP ( 'NONE', ( #2, #25 ) ) ;
#188 = VERTEX_POINT ( 'NONE', #67 ) ;
#189 = SURFACE_STYLE_FILL_AREA ( #58 ) ;
#190 = PRODUCT ( 'magnetic-encoder-for-mini-plastic-gearmotors-disc', 'magnetic-encoder-for-mini-plastic-gearmotors-disc', '', ( #166 ) ) ;
#191 = EDGE_CURVE ( 'NONE', #155, #96, #45, .T. ) ;
#192 = ADVANCED_FACE ( 'NONE', ( #83, #204 ), #107, .F. ) ;
#193 =( NAMED_UNIT ( * ) SI_UNIT ( $, .STERADIAN. ) SOLID_ANGLE_UNIT ( ) );
#194 = FACE_OUTER_BOUND ( 'NONE', #9, .T. ) ;
#195 = ADVANCED_BREP_SHAPE_REPRESENTATION ( 'magnetic-encoder-for-mini-plastic-gearmotors-disc', ( #51, #99 ), #116 ) ;
#196 = APPLICATION_PROTOCOL_DEFINITION ( 'draft international standard', 'automotive_design', 1998, #86 ) ;
#197 = VECTOR ( 'NONE', #160, 1000.000000000000000 ) ;
#198 = DIRECTION ( 'NONE',  ( 1.000000000000000000, 0.0000000000000000000, 0.0000000000000000000 ) ) ;
#199 = MECHANICAL_DESIGN_GEOMETRIC_PRESENTATION_REPRESENTATION (  '', ( #156 ), #142 ) ;
#200 = CARTESIAN_POINT ( 'NONE',  ( -0.7500000000000001100, 0.0000000000000000000, 2.000000000000000000 ) ) ;
#201 = PLANE ( 'NONE',  #158 ) ;
#202 =( LENGTH_UNIT ( ) NAMED_UNIT ( * ) SI_UNIT ( .MILLI., .METRE. ) );
#203 = CARTESIAN_POINT ( 'NONE',  ( 0.0000000000000000000, 0.0000000000000000000, 2.000000000000000000 ) ) ;
#204 = FACE_BOUND ( 'NONE', #31, .T. ) ;
#205 = DIRECTION ( 'NONE',  ( 1.000000000000000000, 0.0000000000000000000, 0.0000000000000000000 ) ) ;
#206 = EDGE_CURVE ( 'NONE', #128, #129, #7, .T. ) ;
#207 = CARTESIAN_POINT ( 'NONE',  ( 0.0000000000000000000, 0.0000000000000000000, 2.000000000000000000 ) ) ;
#208 = MECHANICAL_DESIGN_GEOMETRIC_PRESENTATION_REPRESENTATION (  '', ( #170 ), #61 ) ;
#209 = FACE_OUTER_BOUND ( 'NONE', #187, .T. ) ;
#210 = CIRCLE ( 'NONE', #81, 0.7500000000000001100 ) ;
#211 = ORIENTED_EDGE ( 'NONE', *, *, #177, .T. ) ;
#212 = ADVANCED_FACE ( 'NONE', ( #209, #13 ), #201, .T. ) ;
#213 = CYLINDRICAL_SURFACE ( 'NONE', #130, 0.7500000000000001100 ) ;
#214 = ADVANCED_FACE ( 'NONE', ( #137 ), #77, .T. ) ;
ENDSEC;
END-ISO-10303-21;
