  0
SECTION
  2
HEADER
  9
$EXTMIN
 10
-0.202000
 20
-0.164000
  9
$EXTMAX
 10
0.505000
 20
0.605000
  9
$LIMMIN
 10
-0.202000
 20
-0.164000
  9
$LIMMAX
 10
0.505000
 20
0.605000
  9
$FILLMODE
 70
  1
  0
ENDSEC
  0
SECTION
  2
TABLES
  0
TABLE
  2
LTYPE
 70
  1
  0
LTYPE
  2
CONTINUOUS
 70
 64
  3
Solid line
 72
 65
 73
  0
 40
0.0
  0
ENDTAB
  0
TABLE
  2
LAYER
 70
 1
  0
LAYER
  2
0
 70
  0
 62
7
  6
CONTINUOUS
  0
LAYER
  2
gg1
 70
  0
 62
1
  6
CONTINUOUS
  0
ENDTAB
  0
TABLE
  2
STYLE
 70
  1
  0
STYLE
  2
STANDARD
 70
  0
 40
0.0
 41
1.0
 50
0.0
 71
  0
 42
0.2
  3
txt
  4

  0
ENDTAB
  0
ENDSEC
  0
SECTION
  2
BLOCKS
  0
BLOCK
  8
0
  2
D10
 70
64
 10
0.0
 20
0.0
  3
D10
  0
CIRCLE
  8
0
 10
0.000000
 20
0.000000
 40
0.005000
 0
ENDBLK
  8
0
  0
BLOCK
  8
0
  2
D11
 70
64
 10
0.0
 20
0.0
  3
D11
  0
CIRCLE
  8
0
 10
0.000000
 20
0.000000
 40
0.002500
 0
ENDBLK
  8
0
  0
BLOCK
  8
0
  2
D12
 70
64
 10
0.0
 20
0.0
  3
D12
  0
CIRCLE
  8
0
 10
0.000000
 20
0.000000
 40
0.003000
 0
ENDBLK
  8
0
  0
BLOCK
  8
0
  2
D13
 70
64
 10
0.0
 20
0.0
  3
D13
  0
CIRCLE
  8
0
 10
0.000000
 20
0.000000
 40
0.001000
 0
ENDBLK
  8
0
  0
ENDSEC
  0
SECTION
  2
ENTITIES
  0
POLYLINE
  8
gg1
 62
1
 40
0.000000
 41
0.000000
 66
  1
  0
VERTEX
  8
gg1
 10
0.400000
 20
-0.135000
  0
VERTEX
  8
gg1
 10
0.400000
 20
-0.010000
  0
SEQEND
  8
gg1
  0
POLYLINE
  8
gg1
 62
1
 40
0.000000
 41
0.000000
 66
  1
  0
VERTEX
  8
gg1
 10
0.000000
 20
-0.135000
  0
VERTEX
  8
gg1
 10
0.000000
 20
-0.010000
  0
SEQEND
  8
gg1
  0
POLYLINE
  8
gg1
 62
1
 40
0.000000
 41
0.000000
 66
  1
  0
VERTEX
  8
gg1
 10
-0.100000
 20
-0.125000
  0
VERTEX
  8
gg1
 10
0.000000
 20
-0.125000
  0
SEQEND
  8
gg1
  0
POLYLINE
  8
gg1
 62
1
 40
0.000000
 41
0.000000
 66
  1
  0
VERTEX
  8
gg1
 10
0.400000
 20
-0.125000
  0
VERTEX
  8
gg1
 10
0.500000
 20
-0.125000
  0
SEQEND
  8
gg1
  0
POLYLINE
  8
gg1
 62
1
 40
0.000000
 41
0.000000
 66
  1
  0
VERTEX
  8
gg1
 10
-0.060000
 20
-0.105000
  0
VERTEX
  8
gg1
 10
0.000000
 20
-0.125000
  0
SEQEND
  8
gg1
  0
POLYLINE
  8
gg1
 62
1
 40
0.000000
 41
0.000000
 66
  1
  0
VERTEX
  8
gg1
 10
-0.060000
 20
-0.145000
  0
VERTEX
  8
gg1
 10
0.000000
 20
-0.125000
  0
SEQEND
  8
gg1
  0
POLYLINE
  8
gg1
 62
1
 40
0.000000
 41
0.000000
 66
  1
  0
VERTEX
  8
gg1
 10
0.400000
 20
-0.125000
  0
VERTEX
  8
gg1
 10
0.460000
 20
-0.145000
  0
SEQEND
  8
gg1
  0
POLYLINE
  8
gg1
 62
1
 40
0.000000
 41
0.000000
 66
  1
  0
VERTEX
  8
gg1
 10
0.400000
 20
-0.125000
  0
VERTEX
  8
gg1
 10
0.460000
 20
-0.105000
  0
SEQEND
  8
gg1
  0
POLYLINE
  8
gg1
 62
1
 40
0.000000
 41
0.000000
 66
  1
  0
VERTEX
  8
gg1
 10
-0.185000
 20
0.600000
  0
VERTEX
  8
gg1
 10
-0.010000
 20
0.600000
  0
SEQEND
  8
gg1
  0
POLYLINE
  8
gg1
 62
1
 40
0.000000
 41
0.000000
 66
  1
  0
VERTEX
  8
gg1
 10
-0.185000
 20
0.000000
  0
VERTEX
  8
gg1
 10
-0.010000
 20
0.000000
  0
SEQEND
  8
gg1
  0
POLYLINE
  8
gg1
 62
1
 40
0.000000
 41
0.000000
 66
  1
  0
VERTEX
  8
gg1
 10
-0.175000
 20
0.455000
  0
VERTEX
  8
gg1
 10
-0.175000
 20
0.600000
  0
SEQEND
  8
gg1
  0
POLYLINE
  8
gg1
 62
1
 40
0.000000
 41
0.000000
 66
  1
  0
VERTEX
  8
gg1
 10
-0.175000
 20
0.000000
  0
VERTEX
  8
gg1
 10
-0.175000
 20
0.113000
  0
SEQEND
  8
gg1
  0
POLYLINE
  8
gg1
 62
1
 40
0.000000
 41
0.000000
 66
  1
  0
VERTEX
  8
gg1
 10
-0.195000
 20
0.540000
  0
VERTEX
  8
gg1
 10
-0.175000
 20
0.600000
  0
VERTEX
  8
gg1
 10
-0.155000
 20
0.540000
  0
SEQEND
  8
gg1
  0
POLYLINE
  8
gg1
 62
1
 40
0.000000
 41
0.000000
 66
  1
  0
VERTEX
  8
gg1
 10
-0.175000
 20
0.000000
  0
VERTEX
  8
gg1
 10
-0.155000
 20
0.060000
  0
SEQEND
  8
gg1
  0
POLYLINE
  8
gg1
 62
1
 40
0.000000
 41
0.000000
 66
  1
  0
VERTEX
  8
gg1
 10
-0.195000
 20
0.060000
  0
VERTEX
  8
gg1
 10
-0.175000
 20
0.000000
  0
SEQEND
  8
gg1
  0
POLYLINE
  8
gg1
 62
1
 40
0.000000
 41
0.000000
 66
  1
  0
VERTEX
  8
gg1
 10
0.000000
 20
0.000000
  0
VERTEX
  8
gg1
 10
0.400000
 20
0.000000
  0
VERTEX
  8
gg1
 10
0.400000
 20
0.600000
  0
SEQEND
  8
gg1
  0
POLYLINE
  8
gg1
 62
1
 40
0.000000
 41
0.000000
 66
  1
  0
VERTEX
  8
gg1
 10
0.000000
 20
0.600000
  0
VERTEX
  8
gg1
 10
0.400000
 20
0.600000
  0
SEQEND
  8
gg1
  0
POLYLINE
  8
gg1
 62
1
 40
0.000000
 41
0.000000
 66
  1
  0
VERTEX
  8
gg1
 10
0.000000
 20
0.000000
  0
VERTEX
  8
gg1
 10
0.000000
 20
0.600000
  0
SEQEND
  8
gg1
  0
POLYLINE
  8
gg1
 62
1
 40
0.000000
 41
0.000000
 66
  1
  0
VERTEX
  8
gg1
 10
0.059000
 20
-0.161000
  0
VERTEX
  8
gg1
 10
0.059000
 20
-0.101000
  0
VERTEX
  8
gg1
 10
0.029100
 20
-0.131000
  0
VERTEX
  8
gg1
 10
0.069000
 20
-0.131000
  0
SEQEND
  8
gg1
  0
POLYLINE
  8
gg1
 62
1
 40
0.000000
 41
0.000000
 66
  1
  0
VERTEX
  8
gg1
 10
0.089000
 20
-0.111000
  0
VERTEX
  8
gg1
 10
0.099000
 20
-0.101000
  0
VERTEX
  8
gg1
 10
0.119000
 20
-0.101000
  0
VERTEX
  8
gg1
 10
0.129000
 20
-0.111000
  0
VERTEX
  8
gg1
 10
0.129000
 20
-0.151000
  0
VERTEX
  8
gg1
 10
0.119000
 20
-0.161000
  0
VERTEX
  8
gg1
 10
0.099000
 20
-0.161000
  0
VERTEX
  8
gg1
 10
0.089000
 20
-0.151000
  0
VERTEX
  8
gg1
 10
0.089000
 20
-0.111000
  0
SEQEND
  8
gg1
  0
POLYLINE
  8
gg1
 62
1
 40
0.000000
 41
0.000000
 66
  1
  0
VERTEX
  8
gg1
 10
0.149000
 20
-0.111000
  0
VERTEX
  8
gg1
 10
0.159000
 20
-0.101000
  0
VERTEX
  8
gg1
 10
0.179000
 20
-0.101000
  0
VERTEX
  8
gg1
 10
0.189000
 20
-0.111000
  0
VERTEX
  8
gg1
 10
0.189000
 20
-0.151000
  0
VERTEX
  8
gg1
 10
0.179000
 20
-0.161000
  0
VERTEX
  8
gg1
 10
0.159000
 20
-0.161000
  0
VERTEX
  8
gg1
 10
0.149000
 20
-0.151000
  0
VERTEX
  8
gg1
 10
0.149000
 20
-0.111000
  0
SEQEND
  8
gg1
  0
POLYLINE
  8
gg1
 62
1
 40
0.000000
 41
0.000000
 66
  1
  0
VERTEX
  8
gg1
 10
0.209000
 20
-0.161000
  0
VERTEX
  8
gg1
 10
0.209000
 20
-0.121000
  0
VERTEX
  8
gg1
 10
0.219000
 20
-0.121000
  0
VERTEX
  8
gg1
 10
0.229000
 20
-0.131000
  0
VERTEX
  8
gg1
 10
0.229000
 20
-0.161000
  0
VERTEX
  8
gg1
 10
0.229000
 20
-0.131000
  0
VERTEX
  8
gg1
 10
0.239000
 20
-0.121000
  0
VERTEX
  8
gg1
 10
0.249000
 20
-0.131000
  0
VERTEX
  8
gg1
 10
0.249000
 20
-0.161000
  0
SEQEND
  8
gg1
  0
POLYLINE
  8
gg1
 62
1
 40
0.000000
 41
0.000000
 66
  1
  0
VERTEX
  8
gg1
 10
0.269000
 20
-0.161000
  0
VERTEX
  8
gg1
 10
0.289000
 20
-0.161000
  0
VERTEX
  8
gg1
 10
0.279000
 20
-0.161000
  0
VERTEX
  8
gg1
 10
0.279000
 20
-0.121000
  0
VERTEX
  8
gg1
 10
0.269000
 20
-0.121000
  0
SEQEND
  8
gg1
  0
POLYLINE
  8
gg1
 62
1
 40
0.000000
 41
0.000000
 66
  1
  0
VERTEX
  8
gg1
 10
0.319000
 20
-0.161000
  0
VERTEX
  8
gg1
 10
0.339000
 20
-0.161000
  0
VERTEX
  8
gg1
 10
0.329000
 20
-0.161000
  0
VERTEX
  8
gg1
 10
0.329000
 20
-0.101000
  0
VERTEX
  8
gg1
 10
0.319000
 20
-0.101000
  0
SEQEND
  8
gg1
  0
POLYLINE
  8
gg1
 62
1
 40
0.000000
 41
0.000000
 66
  1
  0
VERTEX
  8
gg1
 10
-0.199000
 20
0.169000
  0
VERTEX
  8
gg1
 10
-0.189000
 20
0.149000
  0
VERTEX
  8
gg1
 10
-0.169000
 20
0.129100
  0
VERTEX
  8
gg1
 10
-0.149000
 20
0.129100
  0
VERTEX
  8
gg1
 10
-0.139000
 20
0.139000
  0
VERTEX
  8
gg1
 10
-0.139000
 20
0.159000
  0
VERTEX
  8
gg1
 10
-0.149000
 20
0.169000
  0
VERTEX
  8
gg1
 10
-0.159000
 20
0.169000
  0
VERTEX
  8
gg1
 10
-0.169000
 20
0.159000
  0
VERTEX
  8
gg1
 10
-0.169000
 20
0.129100
  0
SEQEND
  8
gg1
  0
POLYLINE
  8
gg1
 62
1
 40
0.000000
 41
0.000000
 66
  1
  0
VERTEX
  8
gg1
 10
-0.189000
 20
0.189000
  0
VERTEX
  8
gg1
 10
-0.199000
 20
0.199000
  0
VERTEX
  8
gg1
 10
-0.199000
 20
0.219000
  0
VERTEX
  8
gg1
 10
-0.189000
 20
0.229000
  0
VERTEX
  8
gg1
 10
-0.149000
 20
0.229000
  0
VERTEX
  8
gg1
 10
-0.139000
 20
0.219000
  0
VERTEX
  8
gg1
 10
-0.139000
 20
0.199000
  0
VERTEX
  8
gg1
 10
-0.149000
 20
0.189000
  0
VERTEX
  8
gg1
 10
-0.189000
 20
0.189000
  0
SEQEND
  8
gg1
  0
POLYLINE
  8
gg1
 62
1
 40
0.000000
 41
0.000000
 66
  1
  0
VERTEX
  8
gg1
 10
-0.189000
 20
0.249000
  0
VERTEX
  8
gg1
 10
-0.199000
 20
0.259000
  0
VERTEX
  8
gg1
 10
-0.199000
 20
0.279000
  0
VERTEX
  8
gg1
 10
-0.189000
 20
0.289000
  0
VERTEX
  8
gg1
 10
-0.149000
 20
0.289000
  0
VERTEX
  8
gg1
 10
-0.139000
 20
0.279000
  0
VERTEX
  8
gg1
 10
-0.139000
 20
0.259000
  0
VERTEX
  8
gg1
 10
-0.149000
 20
0.249000
  0
VERTEX
  8
gg1
 10
-0.189000
 20
0.249000
  0
SEQEND
  8
gg1
  0
POLYLINE
  8
gg1
 62
1
 40
0.000000
 41
0.000000
 66
  1
  0
VERTEX
  8
gg1
 10
-0.139000
 20
0.309000
  0
VERTEX
  8
gg1
 10
-0.179000
 20
0.309000
  0
VERTEX
  8
gg1
 10
-0.179000
 20
0.319000
  0
VERTEX
  8
gg1
 10
-0.169000
 20
0.329000
  0
VERTEX
  8
gg1
 10
-0.139000
 20
0.329000
  0
VERTEX
  8
gg1
 10
-0.169000
 20
0.329000
  0
VERTEX
  8
gg1
 10
-0.179000
 20
0.339000
  0
VERTEX
  8
gg1
 10
-0.169000
 20
0.349000
  0
VERTEX
  8
gg1
 10
-0.139000
 20
0.349000
  0
SEQEND
  8
gg1
  0
POLYLINE
  8
gg1
 62
1
 40
0.000000
 41
0.000000
 66
  1
  0
VERTEX
  8
gg1
 10
-0.139000
 20
0.369000
  0
VERTEX
  8
gg1
 10
-0.139000
 20
0.389000
  0
VERTEX
  8
gg1
 10
-0.139000
 20
0.379000
  0
VERTEX
  8
gg1
 10
-0.179000
 20
0.379000
  0
VERTEX
  8
gg1
 10
-0.179000
 20
0.369000
  0
SEQEND
  8
gg1
  0
POLYLINE
  8
gg1
 62
1
 40
0.000000
 41
0.000000
 66
  1
  0
VERTEX
  8
gg1
 10
-0.139000
 20
0.419000
  0
VERTEX
  8
gg1
 10
-0.139000
 20
0.439000
  0
VERTEX
  8
gg1
 10
-0.139000
 20
0.429000
  0
VERTEX
  8
gg1
 10
-0.199000
 20
0.429000
  0
VERTEX
  8
gg1
 10
-0.199000
 20
0.419000
  0
SEQEND
  8
gg1
  0
POLYLINE
  8
gg1
 62
1
 40
0.000000
 41
0.000000
 66
  1
  0
VERTEX
  8
gg1
 10
0.330000
 20
0.050000
  0
VERTEX
  8
gg1
 10
0.370000
 20
0.050000
  0
SEQEND
  8
gg1
  0
POLYLINE
  8
gg1
 62
1
 40
0.000000
 41
0.000000
 66
  1
  0
VERTEX
  8
gg1
 10
0.350000
 20
0.030000
  0
VERTEX
  8
gg1
 10
0.350000
 20
0.070000
  0
SEQEND
  8
gg1
  0
POLYLINE
  8
gg1
 62
1
 40
0.000000
 41
0.000000
 66
  1
  0
VERTEX
  8
gg1
 10
0.230000
 20
0.050000
  0
VERTEX
  8
gg1
 10
0.270000
 20
0.050000
  0
SEQEND
  8
gg1
  0
POLYLINE
  8
gg1
 62
1
 40
0.000000
 41
0.000000
 66
  1
  0
VERTEX
  8
gg1
 10
0.250000
 20
0.030000
  0
VERTEX
  8
gg1
 10
0.250000
 20
0.070000
  0
SEQEND
  8
gg1
  0
POLYLINE
  8
gg1
 62
1
 40
0.000000
 41
0.000000
 66
  1
  0
VERTEX
  8
gg1
 10
0.130000
 20
0.050000
  0
VERTEX
  8
gg1
 10
0.170000
 20
0.050000
  0
SEQEND
  8
gg1
  0
POLYLINE
  8
gg1
 62
1
 40
0.000000
 41
0.000000
 66
  1
  0
VERTEX
  8
gg1
 10
0.150000
 20
0.030000
  0
VERTEX
  8
gg1
 10
0.150000
 20
0.070000
  0
SEQEND
  8
gg1
  0
POLYLINE
  8
gg1
 62
1
 40
0.000000
 41
0.000000
 66
  1
  0
VERTEX
  8
gg1
 10
0.030000
 20
0.050000
  0
VERTEX
  8
gg1
 10
0.070000
 20
0.050000
  0
SEQEND
  8
gg1
  0
POLYLINE
  8
gg1
 62
1
 40
0.000000
 41
0.000000
 66
  1
  0
VERTEX
  8
gg1
 10
0.050000
 20
0.030000
  0
VERTEX
  8
gg1
 10
0.050000
 20
0.070000
  0
SEQEND
  8
gg1
  0
POLYLINE
  8
gg1
 62
1
 40
0.000000
 41
0.000000
 66
  1
  0
VERTEX
  8
gg1
 10
0.027500
 20
0.115000
  0
VERTEX
  8
gg1
 10
0.042500
 20
0.115000
  0
SEQEND
  8
gg1
  0
POLYLINE
  8
gg1
 62
1
 40
0.000000
 41
0.000000
 66
  1
  0
VERTEX
  8
gg1
 10
0.035000
 20
0.107500
  0
VERTEX
  8
gg1
 10
0.035000
 20
0.122500
  0
SEQEND
  8
gg1
  0
POLYLINE
  8
gg1
 62
1
 40
0.000000
 41
0.000000
 66
  1
  0
VERTEX
  8
gg1
 10
0.330500
 20
0.172000
  0
VERTEX
  8
gg1
 10
0.345500
 20
0.172000
  0
SEQEND
  8
gg1
  0
POLYLINE
  8
gg1
 62
1
 40
0.000000
 41
0.000000
 66
  1
  0
VERTEX
  8
gg1
 10
0.338000
 20
0.164500
  0
VERTEX
  8
gg1
 10
0.338000
 20
0.179500
  0
SEQEND
  8
gg1
  0
POLYLINE
  8
gg1
 62
1
 40
0.000000
 41
0.000000
 66
  1
  0
VERTEX
  8
gg1
 10
0.288500
 20
0.261000
  0
VERTEX
  8
gg1
 10
0.303500
 20
0.261000
  0
SEQEND
  8
gg1
  0
POLYLINE
  8
gg1
 62
1
 40
0.000000
 41
0.000000
 66
  1
  0
VERTEX
  8
gg1
 10
0.296000
 20
0.253500
  0
VERTEX
  8
gg1
 10
0.296000
 20
0.268500
  0
SEQEND
  8
gg1
  0
POLYLINE
  8
gg1
 62
1
 40
0.000000
 41
0.000000
 66
  1
  0
VERTEX
  8
gg1
 10
0.258500
 20
0.261000
  0
VERTEX
  8
gg1
 10
0.273500
 20
0.261000
  0
SEQEND
  8
gg1
  0
POLYLINE
  8
gg1
 62
1
 40
0.000000
 41
0.000000
 66
  1
  0
VERTEX
  8
gg1
 10
0.266000
 20
0.253500
  0
VERTEX
  8
gg1
 10
0.266000
 20
0.268500
  0
SEQEND
  8
gg1
  0
POLYLINE
  8
gg1
 62
1
 40
0.000000
 41
0.000000
 66
  1
  0
VERTEX
  8
gg1
 10
0.030500
 20
0.296000
  0
VERTEX
  8
gg1
 10
0.045500
 20
0.296000
  0
SEQEND
  8
gg1
  0
POLYLINE
  8
gg1
 62
1
 40
0.000000
 41
0.000000
 66
  1
  0
VERTEX
  8
gg1
 10
0.038000
 20
0.288500
  0
VERTEX
  8
gg1
 10
0.038000
 20
0.303500
  0
SEQEND
  8
gg1
  0
POLYLINE
  8
gg1
 62
1
 40
0.000000
 41
0.000000
 66
  1
  0
VERTEX
  8
gg1
 10
0.248500
 20
0.304000
  0
VERTEX
  8
gg1
 10
0.263500
 20
0.304000
  0
SEQEND
  8
gg1
  0
POLYLINE
  8
gg1
 62
1
 40
0.000000
 41
0.000000
 66
  1
  0
VERTEX
  8
gg1
 10
0.256000
 20
0.296500
  0
VERTEX
  8
gg1
 10
0.256000
 20
0.311500
  0
SEQEND
  8
gg1
  0
POLYLINE
  8
gg1
 62
1
 40
0.000000
 41
0.000000
 66
  1
  0
VERTEX
  8
gg1
 10
0.030500
 20
0.330000
  0
VERTEX
  8
gg1
 10
0.045500
 20
0.330000
  0
SEQEND
  8
gg1
  0
POLYLINE
  8
gg1
 62
1
 40
0.000000
 41
0.000000
 66
  1
  0
VERTEX
  8
gg1
 10
0.038000
 20
0.322500
  0
VERTEX
  8
gg1
 10
0.038000
 20
0.337500
  0
SEQEND
  8
gg1
  0
ENDSEC
  0
EOF
