  0
SECTION
  2
HEADER
  9
$EXTMIN
 10
-0.848000
 20
-0.804000
  9
$EXTMAX
 10
0.399000
 20
0.412000
  9
$LIMMIN
 10
-0.848000
 20
-0.804000
  9
$LIMMAX
 10
0.399000
 20
0.412000
  9
$FILLMODE
 70
  1
  0
ENDSEC
  0
SECTION
  2
TABLES
  0
TABLE
  2
LTYPE
 70
  1
  0
LTYPE
  2
CONTINUOUS
 70
 64
  3
Solid line
 72
 65
 73
  0
 40
0.0
  0
ENDTAB
  0
TABLE
  2
LAYER
 70
 1
  0
LAYER
  2
0
 70
  0
 62
7
  6
CONTINUOUS
  0
LAYER
  2
gg1
 70
  0
 62
1
  6
CONTINUOUS
  0
ENDTAB
  0
TABLE
  2
STYLE
 70
  1
  0
STYLE
  2
STANDARD
 70
  0
 40
0.0
 41
1.0
 50
0.0
 71
  0
 42
0.2
  3
txt
  4

  0
ENDTAB
  0
ENDSEC
  0
SECTION
  2
BLOCKS
  0
BLOCK
  8
0
  2
D10
 70
64
 10
0.0
 20
0.0
  3
D10
  0
CIRCLE
  8
0
 10
0.000000
 20
0.000000
 40
0.002500
 0
ENDBLK
  8
0
  0
BLOCK
  8
0
  2
D11
 70
64
 10
0.0
 20
0.0
  3
D11
  0
CIRCLE
  8
0
 10
0.000000
 20
0.000000
 40
0.005000
 0
ENDBLK
  8
0
  0
BLOCK
  8
0
  2
D12
 70
64
 10
0.0
 20
0.0
  3
D12
  0
CIRCLE
  8
0
 10
0.000000
 20
0.000000
 40
0.003000
 0
ENDBLK
  8
0
  0
BLOCK
  8
0
  2
D13
 70
64
 10
0.0
 20
0.0
  3
D13
  0
CIRCLE
  8
0
 10
0.000000
 20
0.000000
 40
0.001000
 0
ENDBLK
  8
0
  0
ENDSEC
  0
SECTION
  2
ENTITIES
  0
POLYLINE
  8
gg1
 62
1
 40
0.000000
 41
0.000000
 66
  1
  0
VERTEX
  8
gg1
 10
0.323000
 20
-0.225000
  0
VERTEX
  8
gg1
 10
0.323000
 20
-0.225000
  0
VERTEX
  8
gg1
 10
0.323000
 20
-0.225000
 42
0.313742
  0
VERTEX
  8
gg1
 10
0.323100
 20
0.225000
  0
VERTEX
  8
gg1
 10
0.323100
 20
0.225000
  0
SEQEND
  8
gg1
  0
POLYLINE
  8
gg1
 62
1
 40
0.000000
 41
0.000000
 66
  1
  0
VERTEX
  8
gg1
 10
-0.323100
 20
0.225000
  0
VERTEX
  8
gg1
 10
-0.323100
 20
0.225000
  0
VERTEX
  8
gg1
 10
-0.323100
 20
0.225000
 42
0.314037
  0
VERTEX
  8
gg1
 10
-0.323000
 20
-0.225100
  0
VERTEX
  8
gg1
 10
-0.323000
 20
-0.225100
  0
SEQEND
  8
gg1
  0
POLYLINE
  8
gg1
 62
1
 40
0.000000
 41
0.000000
 66
  1
  0
VERTEX
  8
gg1
 10
-0.323000
 20
-0.512600
  0
VERTEX
  8
gg1
 10
-0.323000
 20
-0.225000
  0
SEQEND
  8
gg1
  0
POLYLINE
  8
gg1
 62
1
 40
0.000000
 41
0.000000
 66
  1
  0
VERTEX
  8
gg1
 10
0.323000
 20
-0.512600
  0
VERTEX
  8
gg1
 10
0.323000
 20
-0.225000
  0
SEQEND
  8
gg1
  0
POLYLINE
  8
gg1
 62
1
 40
0.000000
 41
0.000000
 66
  1
  0
VERTEX
  8
gg1
 10
-0.323000
 20
0.225000
  0
VERTEX
  8
gg1
 10
0.323000
 20
0.225000
  0
SEQEND
  8
gg1
  0
POLYLINE
  8
gg1
 62
1
 40
0.000000
 41
0.000000
 66
  1
  0
VERTEX
  8
gg1
 10
-0.323000
 20
-0.512600
  0
VERTEX
  8
gg1
 10
0.323000
 20
-0.512600
  0
SEQEND
  8
gg1
  0
POLYLINE
  8
gg1
 62
1
 40
0.000000
 41
0.000000
 66
  1
  0
VERTEX
  8
gg1
 10
0.323000
 20
-0.630000
  0
VERTEX
  8
gg1
 10
0.323000
 20
-0.522600
  0
SEQEND
  8
gg1
  0
POLYLINE
  8
gg1
 62
1
 40
0.000000
 41
0.000000
 66
  1
  0
VERTEX
  8
gg1
 10
-0.323000
 20
-0.630000
  0
VERTEX
  8
gg1
 10
-0.323000
 20
-0.522600
  0
SEQEND
  8
gg1
  0
POLYLINE
  8
gg1
 62
1
 40
0.000000
 41
0.000000
 66
  1
  0
VERTEX
  8
gg1
 10
0.154900
 20
-0.620000
  0
VERTEX
  8
gg1
 10
0.323000
 20
-0.620000
  0
SEQEND
  8
gg1
  0
POLYLINE
  8
gg1
 62
1
 40
0.000000
 41
0.000000
 66
  1
  0
VERTEX
  8
gg1
 10
-0.323000
 20
-0.620000
  0
VERTEX
  8
gg1
 10
-0.186900
 20
-0.620000
  0
SEQEND
  8
gg1
  0
POLYLINE
  8
gg1
 62
1
 40
0.000000
 41
0.000000
 66
  1
  0
VERTEX
  8
gg1
 10
0.263000
 20
-0.600000
  0
VERTEX
  8
gg1
 10
0.323000
 20
-0.620000
  0
SEQEND
  8
gg1
  0
POLYLINE
  8
gg1
 62
1
 40
0.000000
 41
0.000000
 66
  1
  0
VERTEX
  8
gg1
 10
0.263000
 20
-0.640000
  0
VERTEX
  8
gg1
 10
0.323000
 20
-0.620000
  0
SEQEND
  8
gg1
  0
POLYLINE
  8
gg1
 62
1
 40
0.000000
 41
0.000000
 66
  1
  0
VERTEX
  8
gg1
 10
-0.323000
 20
-0.620000
  0
VERTEX
  8
gg1
 10
-0.263000
 20
-0.640000
  0
SEQEND
  8
gg1
  0
POLYLINE
  8
gg1
 62
1
 40
0.000000
 41
0.000000
 66
  1
  0
VERTEX
  8
gg1
 10
-0.323000
 20
-0.620000
  0
VERTEX
  8
gg1
 10
-0.263000
 20
-0.600000
  0
SEQEND
  8
gg1
  0
POLYLINE
  8
gg1
 62
1
 40
0.000000
 41
0.000000
 66
  1
  0
VERTEX
  8
gg1
 10
0.393700
 20
-0.775000
  0
VERTEX
  8
gg1
 10
0.393700
 20
-0.105000
  0
SEQEND
  8
gg1
  0
POLYLINE
  8
gg1
 62
1
 40
0.000000
 41
0.000000
 66
  1
  0
VERTEX
  8
gg1
 10
-0.393700
 20
-0.775000
  0
VERTEX
  8
gg1
 10
-0.393700
 20
-0.102500
  0
SEQEND
  8
gg1
  0
POLYLINE
  8
gg1
 62
1
 40
0.000000
 41
0.000000
 66
  1
  0
VERTEX
  8
gg1
 10
0.110000
 20
-0.765000
  0
VERTEX
  8
gg1
 10
0.393700
 20
-0.765000
  0
SEQEND
  8
gg1
  0
POLYLINE
  8
gg1
 62
1
 40
0.000000
 41
0.000000
 66
  1
  0
VERTEX
  8
gg1
 10
-0.393700
 20
-0.765000
  0
VERTEX
  8
gg1
 10
-0.142000
 20
-0.765000
  0
SEQEND
  8
gg1
  0
POLYLINE
  8
gg1
 62
1
 40
0.000000
 41
0.000000
 66
  1
  0
VERTEX
  8
gg1
 10
0.333700
 20
-0.745000
  0
VERTEX
  8
gg1
 10
0.393700
 20
-0.765000
  0
SEQEND
  8
gg1
  0
POLYLINE
  8
gg1
 62
1
 40
0.000000
 41
0.000000
 66
  1
  0
VERTEX
  8
gg1
 10
0.333700
 20
-0.785000
  0
VERTEX
  8
gg1
 10
0.393700
 20
-0.765000
  0
SEQEND
  8
gg1
  0
POLYLINE
  8
gg1
 62
1
 40
0.000000
 41
0.000000
 66
  1
  0
VERTEX
  8
gg1
 10
-0.393700
 20
-0.765000
  0
VERTEX
  8
gg1
 10
-0.333700
 20
-0.785000
  0
SEQEND
  8
gg1
  0
POLYLINE
  8
gg1
 62
1
 40
0.000000
 41
0.000000
 66
  1
  0
VERTEX
  8
gg1
 10
-0.393700
 20
-0.765000
  0
VERTEX
  8
gg1
 10
-0.333700
 20
-0.745000
  0
SEQEND
  8
gg1
  0
POLYLINE
  8
gg1
 62
1
 40
0.000000
 41
0.000000
 66
  1
  0
VERTEX
  8
gg1
 10
-0.493000
 20
0.000000
  0
VERTEX
  8
gg1
 10
-0.493000
 20
0.310900
  0
SEQEND
  8
gg1
  0
POLYLINE
  8
gg1
 62
1
 40
0.000000
 41
0.000000
 66
  1
  0
VERTEX
  8
gg1
 10
-0.493000
 20
0.000000
  0
VERTEX
  8
gg1
 10
-0.393700
 20
0.000000
  0
SEQEND
  8
gg1
  0
POLYLINE
  8
gg1
 62
1
 40
0.000000
 41
0.000000
 66
  1
  0
VERTEX
  8
gg1
 10
-0.453700
 20
0.020000
  0
VERTEX
  8
gg1
 10
-0.393700
 20
0.000000
  0
SEQEND
  8
gg1
  0
POLYLINE
  8
gg1
 62
1
 40
0.000000
 41
0.000000
 66
  1
  0
VERTEX
  8
gg1
 10
-0.453700
 20
-0.020000
  0
VERTEX
  8
gg1
 10
-0.393700
 20
0.000000
  0
SEQEND
  8
gg1
  0
POLYLINE
  8
gg1
 62
1
 40
0.000000
 41
0.000000
 66
  1
  0
VERTEX
  8
gg1
 10
-0.530000
 20
-0.512600
  0
VERTEX
  8
gg1
 10
-0.333000
 20
-0.512600
  0
SEQEND
  8
gg1
  0
POLYLINE
  8
gg1
 62
1
 40
0.000000
 41
0.000000
 66
  1
  0
VERTEX
  8
gg1
 10
-0.530000
 20
-0.225000
  0
VERTEX
  8
gg1
 10
-0.335500
 20
-0.225000
  0
SEQEND
  8
gg1
  0
POLYLINE
  8
gg1
 62
1
 40
0.000000
 41
0.000000
 66
  1
  0
VERTEX
  8
gg1
 10
-0.520000
 20
-0.512600
  0
VERTEX
  8
gg1
 10
-0.520000
 20
-0.368800
  0
VERTEX
  8
gg1
 10
-0.520000
 20
-0.225000
  0
SEQEND
  8
gg1
  0
POLYLINE
  8
gg1
 62
1
 40
0.000000
 41
0.000000
 66
  1
  0
VERTEX
  8
gg1
 10
-0.520000
 20
-0.512600
  0
VERTEX
  8
gg1
 10
-0.500000
 20
-0.452600
  0
SEQEND
  8
gg1
  0
POLYLINE
  8
gg1
 62
1
 40
0.000000
 41
0.000000
 66
  1
  0
VERTEX
  8
gg1
 10
-0.540000
 20
-0.452600
  0
VERTEX
  8
gg1
 10
-0.520000
 20
-0.512600
  0
SEQEND
  8
gg1
  0
POLYLINE
  8
gg1
 62
1
 40
0.000000
 41
0.000000
 66
  1
  0
VERTEX
  8
gg1
 10
-0.540000
 20
-0.285000
  0
VERTEX
  8
gg1
 10
-0.520000
 20
-0.225000
  0
VERTEX
  8
gg1
 10
-0.500000
 20
-0.285000
  0
SEQEND
  8
gg1
  0
POLYLINE
  8
gg1
 62
1
 40
0.000000
 41
0.000000
 66
  1
  0
VERTEX
  8
gg1
 10
0.323000
 20
0.235000
  0
VERTEX
  8
gg1
 10
0.323000
 20
0.395000
  0
SEQEND
  8
gg1
  0
POLYLINE
  8
gg1
 62
1
 40
0.000000
 41
0.000000
 66
  1
  0
VERTEX
  8
gg1
 10
-0.323000
 20
0.235000
  0
VERTEX
  8
gg1
 10
-0.323000
 20
0.395000
  0
SEQEND
  8
gg1
  0
POLYLINE
  8
gg1
 62
1
 40
0.000000
 41
0.000000
 66
  1
  0
VERTEX
  8
gg1
 10
0.154900
 20
0.385000
  0
VERTEX
  8
gg1
 10
0.323000
 20
0.385000
  0
SEQEND
  8
gg1
  0
POLYLINE
  8
gg1
 62
1
 40
0.000000
 41
0.000000
 66
  1
  0
VERTEX
  8
gg1
 10
-0.323000
 20
0.385000
  0
VERTEX
  8
gg1
 10
-0.186900
 20
0.385000
  0
SEQEND
  8
gg1
  0
POLYLINE
  8
gg1
 62
1
 40
0.000000
 41
0.000000
 66
  1
  0
VERTEX
  8
gg1
 10
0.263000
 20
0.405000
  0
VERTEX
  8
gg1
 10
0.323000
 20
0.385000
  0
SEQEND
  8
gg1
  0
POLYLINE
  8
gg1
 62
1
 40
0.000000
 41
0.000000
 66
  1
  0
VERTEX
  8
gg1
 10
0.263000
 20
0.365000
  0
VERTEX
  8
gg1
 10
0.323000
 20
0.385000
  0
SEQEND
  8
gg1
  0
POLYLINE
  8
gg1
 62
1
 40
0.000000
 41
0.000000
 66
  1
  0
VERTEX
  8
gg1
 10
-0.323000
 20
0.385000
  0
VERTEX
  8
gg1
 10
-0.263000
 20
0.365000
  0
SEQEND
  8
gg1
  0
POLYLINE
  8
gg1
 62
1
 40
0.000000
 41
0.000000
 66
  1
  0
VERTEX
  8
gg1
 10
-0.323000
 20
0.385000
  0
VERTEX
  8
gg1
 10
-0.263000
 20
0.405000
  0
SEQEND
  8
gg1
  0
POLYLINE
  8
gg1
 62
1
 40
0.000000
 41
0.000000
 66
  1
  0
VERTEX
  8
gg1
 10
-0.825000
 20
0.225000
  0
VERTEX
  8
gg1
 10
-0.333000
 20
0.225000
  0
SEQEND
  8
gg1
  0
POLYLINE
  8
gg1
 62
1
 40
0.000000
 41
0.000000
 66
  1
  0
VERTEX
  8
gg1
 10
-0.825000
 20
-0.512600
  0
VERTEX
  8
gg1
 10
-0.333000
 20
-0.512600
  0
SEQEND
  8
gg1
  0
POLYLINE
  8
gg1
 62
1
 40
0.000000
 41
0.000000
 66
  1
  0
VERTEX
  8
gg1
 10
-0.815000
 20
0.011200
  0
VERTEX
  8
gg1
 10
-0.815000
 20
0.225000
  0
SEQEND
  8
gg1
  0
POLYLINE
  8
gg1
 62
1
 40
0.000000
 41
0.000000
 66
  1
  0
VERTEX
  8
gg1
 10
-0.815000
 20
-0.512600
  0
VERTEX
  8
gg1
 10
-0.815000
 20
-0.330700
  0
SEQEND
  8
gg1
  0
POLYLINE
  8
gg1
 62
1
 40
0.000000
 41
0.000000
 66
  1
  0
VERTEX
  8
gg1
 10
-0.835000
 20
0.165000
  0
VERTEX
  8
gg1
 10
-0.815000
 20
0.225000
  0
VERTEX
  8
gg1
 10
-0.795000
 20
0.165000
  0
SEQEND
  8
gg1
  0
POLYLINE
  8
gg1
 62
1
 40
0.000000
 41
0.000000
 66
  1
  0
VERTEX
  8
gg1
 10
-0.815000
 20
-0.512600
  0
VERTEX
  8
gg1
 10
-0.795000
 20
-0.452600
  0
SEQEND
  8
gg1
  0
POLYLINE
  8
gg1
 62
1
 40
0.000000
 41
0.000000
 66
  1
  0
VERTEX
  8
gg1
 10
-0.835000
 20
-0.452600
  0
VERTEX
  8
gg1
 10
-0.815000
 20
-0.512600
  0
SEQEND
  8
gg1
  0
POLYLINE
  8
gg1
 62
1
 40
0.000000
 41
0.000000
 66
  1
  0
VERTEX
  8
gg1
 10
-0.131000
 20
-0.596000
  0
VERTEX
  8
gg1
 10
-0.151000
 20
-0.606000
  0
VERTEX
  8
gg1
 10
-0.170900
 20
-0.626000
  0
VERTEX
  8
gg1
 10
-0.170900
 20
-0.646000
  0
VERTEX
  8
gg1
 10
-0.161000
 20
-0.656000
  0
VERTEX
  8
gg1
 10
-0.141000
 20
-0.656000
  0
VERTEX
  8
gg1
 10
-0.131000
 20
-0.646000
  0
VERTEX
  8
gg1
 10
-0.131000
 20
-0.636000
  0
VERTEX
  8
gg1
 10
-0.141000
 20
-0.626000
  0
VERTEX
  8
gg1
 10
-0.170900
 20
-0.626000
  0
SEQEND
  8
gg1
  0
POLYLINE
  8
gg1
 62
1
 40
0.000000
 41
0.000000
 66
  1
  0
VERTEX
  8
gg1
 10
-0.081000
 20
-0.656000
  0
VERTEX
  8
gg1
 10
-0.081000
 20
-0.596000
  0
VERTEX
  8
gg1
 10
-0.111000
 20
-0.626000
  0
VERTEX
  8
gg1
 10
-0.071000
 20
-0.626000
  0
SEQEND
  8
gg1
  0
POLYLINE
  8
gg1
 62
1
 40
0.000000
 41
0.000000
 66
  1
  0
VERTEX
  8
gg1
 10
-0.011000
 20
-0.596000
  0
VERTEX
  8
gg1
 10
-0.031000
 20
-0.606000
  0
VERTEX
  8
gg1
 10
-0.051000
 20
-0.626000
  0
VERTEX
  8
gg1
 10
-0.051000
 20
-0.646000
  0
VERTEX
  8
gg1
 10
-0.041000
 20
-0.656000
  0
VERTEX
  8
gg1
 10
-0.021000
 20
-0.656000
  0
VERTEX
  8
gg1
 10
-0.011000
 20
-0.646000
  0
VERTEX
  8
gg1
 10
-0.011000
 20
-0.636000
  0
VERTEX
  8
gg1
 10
-0.021000
 20
-0.626000
  0
VERTEX
  8
gg1
 10
-0.051000
 20
-0.626000
  0
SEQEND
  8
gg1
  0
POLYLINE
  8
gg1
 62
1
 40
0.000000
 41
0.000000
 66
  1
  0
VERTEX
  8
gg1
 10
0.009000
 20
-0.656000
  0
VERTEX
  8
gg1
 10
0.009000
 20
-0.616000
  0
VERTEX
  8
gg1
 10
0.019000
 20
-0.616000
  0
VERTEX
  8
gg1
 10
0.029000
 20
-0.626000
  0
VERTEX
  8
gg1
 10
0.029000
 20
-0.656000
  0
VERTEX
  8
gg1
 10
0.029000
 20
-0.626000
  0
VERTEX
  8
gg1
 10
0.039000
 20
-0.616000
  0
VERTEX
  8
gg1
 10
0.049000
 20
-0.626000
  0
VERTEX
  8
gg1
 10
0.049000
 20
-0.656000
  0
SEQEND
  8
gg1
  0
POLYLINE
  8
gg1
 62
1
 40
0.000000
 41
0.000000
 66
  1
  0
VERTEX
  8
gg1
 10
0.069000
 20
-0.656000
  0
VERTEX
  8
gg1
 10
0.089000
 20
-0.656000
  0
VERTEX
  8
gg1
 10
0.079000
 20
-0.656000
  0
VERTEX
  8
gg1
 10
0.079000
 20
-0.616000
  0
VERTEX
  8
gg1
 10
0.069000
 20
-0.616000
  0
SEQEND
  8
gg1
  0
POLYLINE
  8
gg1
 62
1
 40
0.000000
 41
0.000000
 66
  1
  0
VERTEX
  8
gg1
 10
0.119000
 20
-0.656000
  0
VERTEX
  8
gg1
 10
0.139000
 20
-0.656000
  0
VERTEX
  8
gg1
 10
0.129000
 20
-0.656000
  0
VERTEX
  8
gg1
 10
0.129000
 20
-0.596000
  0
VERTEX
  8
gg1
 10
0.119000
 20
-0.596000
  0
SEQEND
  8
gg1
  0
POLYLINE
  8
gg1
 62
1
 40
0.000000
 41
0.000000
 66
  1
  0
VERTEX
  8
gg1
 10
-0.086000
 20
-0.801000
  0
VERTEX
  8
gg1
 10
-0.126000
 20
-0.801000
  0
VERTEX
  8
gg1
 10
-0.086000
 20
-0.761000
  0
VERTEX
  8
gg1
 10
-0.086000
 20
-0.751000
  0
VERTEX
  8
gg1
 10
-0.096000
 20
-0.741000
  0
VERTEX
  8
gg1
 10
-0.116000
 20
-0.741000
  0
VERTEX
  8
gg1
 10
-0.126000
 20
-0.751000
  0
SEQEND
  8
gg1
  0
POLYLINE
  8
gg1
 62
1
 40
0.000000
 41
0.000000
 66
  1
  0
VERTEX
  8
gg1
 10
-0.066000
 20
-0.751000
  0
VERTEX
  8
gg1
 10
-0.056000
 20
-0.741000
  0
VERTEX
  8
gg1
 10
-0.036000
 20
-0.741000
  0
VERTEX
  8
gg1
 10
-0.026000
 20
-0.751000
  0
VERTEX
  8
gg1
 10
-0.026000
 20
-0.791000
  0
VERTEX
  8
gg1
 10
-0.036000
 20
-0.801000
  0
VERTEX
  8
gg1
 10
-0.056000
 20
-0.801000
  0
VERTEX
  8
gg1
 10
-0.066000
 20
-0.791000
  0
VERTEX
  8
gg1
 10
-0.066000
 20
-0.751000
  0
SEQEND
  8
gg1
  0
POLYLINE
  8
gg1
 62
1
 40
0.000000
 41
0.000000
 66
  1
  0
VERTEX
  8
gg1
 10
-0.006000
 20
-0.801000
  0
VERTEX
  8
gg1
 10
-0.006000
 20
-0.761000
  0
VERTEX
  8
gg1
 10
0.004000
 20
-0.761000
  0
VERTEX
  8
gg1
 10
0.014000
 20
-0.771000
  0
VERTEX
  8
gg1
 10
0.014000
 20
-0.801000
  0
VERTEX
  8
gg1
 10
0.014000
 20
-0.771000
  0
VERTEX
  8
gg1
 10
0.024000
 20
-0.761000
  0
VERTEX
  8
gg1
 10
0.034000
 20
-0.771000
  0
VERTEX
  8
gg1
 10
0.034000
 20
-0.801000
  0
SEQEND
  8
gg1
  0
POLYLINE
  8
gg1
 62
1
 40
0.000000
 41
0.000000
 66
  1
  0
VERTEX
  8
gg1
 10
0.054000
 20
-0.801000
  0
VERTEX
  8
gg1
 10
0.054000
 20
-0.761000
  0
VERTEX
  8
gg1
 10
0.064000
 20
-0.761000
  0
VERTEX
  8
gg1
 10
0.074000
 20
-0.771000
  0
VERTEX
  8
gg1
 10
0.074000
 20
-0.801000
  0
VERTEX
  8
gg1
 10
0.074000
 20
-0.771000
  0
VERTEX
  8
gg1
 10
0.084000
 20
-0.761000
  0
VERTEX
  8
gg1
 10
0.094000
 20
-0.771000
  0
VERTEX
  8
gg1
 10
0.094000
 20
-0.801000
  0
SEQEND
  8
gg1
  0
POLYLINE
  8
gg1
 62
1
 40
0.000000
 41
0.000000
 66
  1
  0
VERTEX
  8
gg1
 10
-0.844900
 20
0.274900
  0
VERTEX
  8
gg1
 10
-0.844900
 20
0.334800
  0
VERTEX
  8
gg1
 10
-0.814900
 20
0.334800
  0
VERTEX
  8
gg1
 10
-0.804900
 20
0.324800
  0
VERTEX
  8
gg1
 10
-0.804900
 20
0.304900
  0
VERTEX
  8
gg1
 10
-0.814900
 20
0.294900
  0
VERTEX
  8
gg1
 10
-0.844900
 20
0.294900
  0
SEQEND
  8
gg1
  0
POLYLINE
  8
gg1
 62
1
 40
0.000000
 41
0.000000
 66
  1
  0
VERTEX
  8
gg1
 10
-0.824900
 20
0.294900
  0
VERTEX
  8
gg1
 10
-0.804900
 20
0.274900
  0
SEQEND
  8
gg1
  0
POLYLINE
  8
gg1
 62
1
 40
0.000000
 41
0.000000
 66
  1
  0
VERTEX
  8
gg1
 10
-0.724900
 20
0.274900
  0
VERTEX
  8
gg1
 10
-0.704900
 20
0.274900
  0
VERTEX
  8
gg1
 10
-0.714900
 20
0.274900
  0
VERTEX
  8
gg1
 10
-0.714900
 20
0.334800
  0
VERTEX
  8
gg1
 10
-0.724900
 20
0.324800
  0
SEQEND
  8
gg1
  0
POLYLINE
  8
gg1
 62
1
 40
0.000000
 41
0.000000
 66
  1
  0
VERTEX
  8
gg1
 10
-0.674900
 20
0.324800
  0
VERTEX
  8
gg1
 10
-0.665000
 20
0.334800
  0
VERTEX
  8
gg1
 10
-0.645000
 20
0.334800
  0
VERTEX
  8
gg1
 10
-0.635000
 20
0.324800
  0
VERTEX
  8
gg1
 10
-0.635000
 20
0.284900
  0
VERTEX
  8
gg1
 10
-0.645000
 20
0.274900
  0
VERTEX
  8
gg1
 10
-0.665000
 20
0.274900
  0
VERTEX
  8
gg1
 10
-0.674900
 20
0.284900
  0
VERTEX
  8
gg1
 10
-0.674900
 20
0.324800
  0
SEQEND
  8
gg1
  0
POLYLINE
  8
gg1
 62
1
 40
0.000000
 41
0.000000
 66
  1
  0
VERTEX
  8
gg1
 10
-0.615000
 20
0.274900
  0
VERTEX
  8
gg1
 10
-0.615000
 20
0.314800
  0
VERTEX
  8
gg1
 10
-0.605000
 20
0.314800
  0
VERTEX
  8
gg1
 10
-0.595000
 20
0.304900
  0
VERTEX
  8
gg1
 10
-0.595000
 20
0.274900
  0
VERTEX
  8
gg1
 10
-0.595000
 20
0.304900
  0
VERTEX
  8
gg1
 10
-0.585000
 20
0.314800
  0
VERTEX
  8
gg1
 10
-0.575000
 20
0.304900
  0
VERTEX
  8
gg1
 10
-0.575000
 20
0.274900
  0
SEQEND
  8
gg1
  0
POLYLINE
  8
gg1
 62
1
 40
0.000000
 41
0.000000
 66
  1
  0
VERTEX
  8
gg1
 10
-0.555000
 20
0.274900
  0
VERTEX
  8
gg1
 10
-0.555000
 20
0.314800
  0
VERTEX
  8
gg1
 10
-0.545000
 20
0.314800
  0
VERTEX
  8
gg1
 10
-0.535000
 20
0.304900
  0
VERTEX
  8
gg1
 10
-0.535000
 20
0.274900
  0
VERTEX
  8
gg1
 10
-0.535000
 20
0.304900
  0
VERTEX
  8
gg1
 10
-0.525000
 20
0.314800
  0
VERTEX
  8
gg1
 10
-0.515000
 20
0.304900
  0
VERTEX
  8
gg1
 10
-0.515000
 20
0.274900
  0
SEQEND
  8
gg1
  0
POLYLINE
  8
gg1
 62
1
 40
0.000000
 41
0.000000
 66
  1
  0
VERTEX
  8
gg1
 10
-0.580000
 20
-0.450000
  0
VERTEX
  8
gg1
 10
-0.580000
 20
-0.490000
  0
VERTEX
  8
gg1
 10
-0.620000
 20
-0.450000
  0
VERTEX
  8
gg1
 10
-0.630000
 20
-0.450000
  0
VERTEX
  8
gg1
 10
-0.640000
 20
-0.460000
  0
VERTEX
  8
gg1
 10
-0.640000
 20
-0.480000
  0
VERTEX
  8
gg1
 10
-0.630000
 20
-0.490000
  0
SEQEND
  8
gg1
  0
POLYLINE
  8
gg1
 62
1
 40
0.000000
 41
0.000000
 66
  1
  0
VERTEX
  8
gg1
 10
-0.630000
 20
-0.430000
  0
VERTEX
  8
gg1
 10
-0.640000
 20
-0.420000
  0
VERTEX
  8
gg1
 10
-0.640000
 20
-0.400000
  0
VERTEX
  8
gg1
 10
-0.630000
 20
-0.390000
  0
VERTEX
  8
gg1
 10
-0.620000
 20
-0.390000
  0
VERTEX
  8
gg1
 10
-0.610000
 20
-0.400000
  0
VERTEX
  8
gg1
 10
-0.600000
 20
-0.390000
  0
VERTEX
  8
gg1
 10
-0.590000
 20
-0.390000
  0
VERTEX
  8
gg1
 10
-0.580000
 20
-0.400000
  0
VERTEX
  8
gg1
 10
-0.580000
 20
-0.420000
  0
VERTEX
  8
gg1
 10
-0.590000
 20
-0.430000
  0
VERTEX
  8
gg1
 10
-0.600000
 20
-0.430000
  0
VERTEX
  8
gg1
 10
-0.610000
 20
-0.420000
  0
VERTEX
  8
gg1
 10
-0.620000
 20
-0.430000
  0
VERTEX
  8
gg1
 10
-0.630000
 20
-0.430000
  0
SEQEND
  8
gg1
  0
POLYLINE
  8
gg1
 62
1
 40
0.000000
 41
0.000000
 66
  1
  0
VERTEX
  8
gg1
 10
-0.610000
 20
-0.420000
  0
VERTEX
  8
gg1
 10
-0.610000
 20
-0.400000
  0
SEQEND
  8
gg1
  0
POLYLINE
  8
gg1
 62
1
 40
0.000000
 41
0.000000
 66
  1
  0
VERTEX
  8
gg1
 10
-0.630000
 20
-0.370000
  0
VERTEX
  8
gg1
 10
-0.640000
 20
-0.360000
  0
VERTEX
  8
gg1
 10
-0.640000
 20
-0.340000
  0
VERTEX
  8
gg1
 10
-0.630000
 20
-0.330100
  0
VERTEX
  8
gg1
 10
-0.620000
 20
-0.330100
  0
VERTEX
  8
gg1
 10
-0.610000
 20
-0.340000
  0
VERTEX
  8
gg1
 10
-0.600000
 20
-0.330100
  0
VERTEX
  8
gg1
 10
-0.590000
 20
-0.330100
  0
VERTEX
  8
gg1
 10
-0.580000
 20
-0.340000
  0
VERTEX
  8
gg1
 10
-0.580000
 20
-0.360000
  0
VERTEX
  8
gg1
 10
-0.590000
 20
-0.370000
  0
VERTEX
  8
gg1
 10
-0.600000
 20
-0.370000
  0
VERTEX
  8
gg1
 10
-0.610000
 20
-0.360000
  0
VERTEX
  8
gg1
 10
-0.620000
 20
-0.370000
  0
VERTEX
  8
gg1
 10
-0.630000
 20
-0.370000
  0
SEQEND
  8
gg1
  0
POLYLINE
  8
gg1
 62
1
 40
0.000000
 41
0.000000
 66
  1
  0
VERTEX
  8
gg1
 10
-0.610000
 20
-0.360000
  0
VERTEX
  8
gg1
 10
-0.610000
 20
-0.340000
  0
SEQEND
  8
gg1
  0
POLYLINE
  8
gg1
 62
1
 40
0.000000
 41
0.000000
 66
  1
  0
VERTEX
  8
gg1
 10
-0.580000
 20
-0.310100
  0
VERTEX
  8
gg1
 10
-0.620000
 20
-0.310100
  0
VERTEX
  8
gg1
 10
-0.620000
 20
-0.300100
  0
VERTEX
  8
gg1
 10
-0.610000
 20
-0.290100
  0
VERTEX
  8
gg1
 10
-0.580000
 20
-0.290100
  0
VERTEX
  8
gg1
 10
-0.610000
 20
-0.290100
  0
VERTEX
  8
gg1
 10
-0.620000
 20
-0.280100
  0
VERTEX
  8
gg1
 10
-0.610000
 20
-0.270100
  0
VERTEX
  8
gg1
 10
-0.580000
 20
-0.270100
  0
SEQEND
  8
gg1
  0
POLYLINE
  8
gg1
 62
1
 40
0.000000
 41
0.000000
 66
  1
  0
VERTEX
  8
gg1
 10
-0.580000
 20
-0.250100
  0
VERTEX
  8
gg1
 10
-0.580000
 20
-0.230100
  0
VERTEX
  8
gg1
 10
-0.580000
 20
-0.240100
  0
VERTEX
  8
gg1
 10
-0.620000
 20
-0.240100
  0
VERTEX
  8
gg1
 10
-0.620000
 20
-0.250100
  0
SEQEND
  8
gg1
  0
POLYLINE
  8
gg1
 62
1
 40
0.000000
 41
0.000000
 66
  1
  0
VERTEX
  8
gg1
 10
-0.580000
 20
-0.200100
  0
VERTEX
  8
gg1
 10
-0.580000
 20
-0.180100
  0
VERTEX
  8
gg1
 10
-0.580000
 20
-0.190100
  0
VERTEX
  8
gg1
 10
-0.640000
 20
-0.190100
  0
VERTEX
  8
gg1
 10
-0.640000
 20
-0.200100
  0
SEQEND
  8
gg1
  0
POLYLINE
  8
gg1
 62
1
 40
0.000000
 41
0.000000
 66
  1
  0
VERTEX
  8
gg1
 10
-0.131000
 20
0.409000
  0
VERTEX
  8
gg1
 10
-0.151000
 20
0.399000
  0
VERTEX
  8
gg1
 10
-0.170900
 20
0.379000
  0
VERTEX
  8
gg1
 10
-0.170900
 20
0.359000
  0
VERTEX
  8
gg1
 10
-0.161000
 20
0.349000
  0
VERTEX
  8
gg1
 10
-0.141000
 20
0.349000
  0
VERTEX
  8
gg1
 10
-0.131000
 20
0.359000
  0
VERTEX
  8
gg1
 10
-0.131000
 20
0.369000
  0
VERTEX
  8
gg1
 10
-0.141000
 20
0.379000
  0
VERTEX
  8
gg1
 10
-0.170900
 20
0.379000
  0
SEQEND
  8
gg1
  0
POLYLINE
  8
gg1
 62
1
 40
0.000000
 41
0.000000
 66
  1
  0
VERTEX
  8
gg1
 10
-0.081000
 20
0.349000
  0
VERTEX
  8
gg1
 10
-0.081000
 20
0.409000
  0
VERTEX
  8
gg1
 10
-0.111000
 20
0.379000
  0
VERTEX
  8
gg1
 10
-0.071000
 20
0.379000
  0
SEQEND
  8
gg1
  0
POLYLINE
  8
gg1
 62
1
 40
0.000000
 41
0.000000
 66
  1
  0
VERTEX
  8
gg1
 10
-0.011000
 20
0.409000
  0
VERTEX
  8
gg1
 10
-0.031000
 20
0.399000
  0
VERTEX
  8
gg1
 10
-0.051000
 20
0.379000
  0
VERTEX
  8
gg1
 10
-0.051000
 20
0.359000
  0
VERTEX
  8
gg1
 10
-0.041000
 20
0.349000
  0
VERTEX
  8
gg1
 10
-0.021000
 20
0.349000
  0
VERTEX
  8
gg1
 10
-0.011000
 20
0.359000
  0
VERTEX
  8
gg1
 10
-0.011000
 20
0.369000
  0
VERTEX
  8
gg1
 10
-0.021000
 20
0.379000
  0
VERTEX
  8
gg1
 10
-0.051000
 20
0.379000
  0
SEQEND
  8
gg1
  0
POLYLINE
  8
gg1
 62
1
 40
0.000000
 41
0.000000
 66
  1
  0
VERTEX
  8
gg1
 10
0.009000
 20
0.349000
  0
VERTEX
  8
gg1
 10
0.009000
 20
0.389000
  0
VERTEX
  8
gg1
 10
0.019000
 20
0.389000
  0
VERTEX
  8
gg1
 10
0.029000
 20
0.379000
  0
VERTEX
  8
gg1
 10
0.029000
 20
0.349000
  0
VERTEX
  8
gg1
 10
0.029000
 20
0.379000
  0
VERTEX
  8
gg1
 10
0.039000
 20
0.389000
  0
VERTEX
  8
gg1
 10
0.049000
 20
0.379000
  0
VERTEX
  8
gg1
 10
0.049000
 20
0.349000
  0
SEQEND
  8
gg1
  0
POLYLINE
  8
gg1
 62
1
 40
0.000000
 41
0.000000
 66
  1
  0
VERTEX
  8
gg1
 10
0.069000
 20
0.349000
  0
VERTEX
  8
gg1
 10
0.089000
 20
0.349000
  0
VERTEX
  8
gg1
 10
0.079000
 20
0.349000
  0
VERTEX
  8
gg1
 10
0.079000
 20
0.389000
  0
VERTEX
  8
gg1
 10
0.069000
 20
0.389000
  0
SEQEND
  8
gg1
  0
POLYLINE
  8
gg1
 62
1
 40
0.000000
 41
0.000000
 66
  1
  0
VERTEX
  8
gg1
 10
0.119000
 20
0.349000
  0
VERTEX
  8
gg1
 10
0.139000
 20
0.349000
  0
VERTEX
  8
gg1
 10
0.129000
 20
0.349000
  0
VERTEX
  8
gg1
 10
0.129000
 20
0.409000
  0
VERTEX
  8
gg1
 10
0.119000
 20
0.409000
  0
SEQEND
  8
gg1
  0
POLYLINE
  8
gg1
 62
1
 40
0.000000
 41
0.000000
 66
  1
  0
VERTEX
  8
gg1
 10
-0.839000
 20
-0.314700
  0
VERTEX
  8
gg1
 10
-0.839000
 20
-0.274800
  0
VERTEX
  8
gg1
 10
-0.829000
 20
-0.274800
  0
VERTEX
  8
gg1
 10
-0.789000
 20
-0.314700
  0
VERTEX
  8
gg1
 10
-0.779000
 20
-0.314700
  0
SEQEND
  8
gg1
  0
POLYLINE
  8
gg1
 62
1
 40
0.000000
 41
0.000000
 66
  1
  0
VERTEX
  8
gg1
 10
-0.829000
 20
-0.254800
  0
VERTEX
  8
gg1
 10
-0.839000
 20
-0.244800
  0
VERTEX
  8
gg1
 10
-0.839000
 20
-0.224800
  0
VERTEX
  8
gg1
 10
-0.829000
 20
-0.214800
  0
VERTEX
  8
gg1
 10
-0.819000
 20
-0.214800
  0
VERTEX
  8
gg1
 10
-0.809000
 20
-0.224800
  0
VERTEX
  8
gg1
 10
-0.809000
 20
-0.234800
  0
VERTEX
  8
gg1
 10
-0.809000
 20
-0.224800
  0
VERTEX
  8
gg1
 10
-0.799000
 20
-0.214800
  0
VERTEX
  8
gg1
 10
-0.789000
 20
-0.214800
  0
VERTEX
  8
gg1
 10
-0.779000
 20
-0.224800
  0
VERTEX
  8
gg1
 10
-0.779000
 20
-0.244800
  0
VERTEX
  8
gg1
 10
-0.789000
 20
-0.254800
  0
SEQEND
  8
gg1
  0
POLYLINE
  8
gg1
 62
1
 40
0.000000
 41
0.000000
 66
  1
  0
VERTEX
  8
gg1
 10
-0.829000
 20
-0.194800
  0
VERTEX
  8
gg1
 10
-0.839000
 20
-0.184800
  0
VERTEX
  8
gg1
 10
-0.839000
 20
-0.164800
  0
VERTEX
  8
gg1
 10
-0.829000
 20
-0.154800
  0
VERTEX
  8
gg1
 10
-0.819000
 20
-0.154800
  0
VERTEX
  8
gg1
 10
-0.809000
 20
-0.164800
  0
VERTEX
  8
gg1
 10
-0.799000
 20
-0.154800
  0
VERTEX
  8
gg1
 10
-0.789000
 20
-0.154800
  0
VERTEX
  8
gg1
 10
-0.779000
 20
-0.164800
  0
VERTEX
  8
gg1
 10
-0.779000
 20
-0.184800
  0
VERTEX
  8
gg1
 10
-0.789000
 20
-0.194800
  0
VERTEX
  8
gg1
 10
-0.799000
 20
-0.194800
  0
VERTEX
  8
gg1
 10
-0.809000
 20
-0.184800
  0
VERTEX
  8
gg1
 10
-0.819000
 20
-0.194800
  0
VERTEX
  8
gg1
 10
-0.829000
 20
-0.194800
  0
SEQEND
  8
gg1
  0
POLYLINE
  8
gg1
 62
1
 40
0.000000
 41
0.000000
 66
  1
  0
VERTEX
  8
gg1
 10
-0.809000
 20
-0.184800
  0
VERTEX
  8
gg1
 10
-0.809000
 20
-0.164800
  0
SEQEND
  8
gg1
  0
POLYLINE
  8
gg1
 62
1
 40
0.000000
 41
0.000000
 66
  1
  0
VERTEX
  8
gg1
 10
-0.779000
 20
-0.134800
  0
VERTEX
  8
gg1
 10
-0.819000
 20
-0.134800
  0
VERTEX
  8
gg1
 10
-0.819000
 20
-0.124800
  0
VERTEX
  8
gg1
 10
-0.809000
 20
-0.114800
  0
VERTEX
  8
gg1
 10
-0.779000
 20
-0.114800
  0
VERTEX
  8
gg1
 10
-0.809000
 20
-0.114800
  0
VERTEX
  8
gg1
 10
-0.819000
 20
-0.104800
  0
VERTEX
  8
gg1
 10
-0.809000
 20
-0.094800
  0
VERTEX
  8
gg1
 10
-0.779000
 20
-0.094800
  0
SEQEND
  8
gg1
  0
POLYLINE
  8
gg1
 62
1
 40
0.000000
 41
0.000000
 66
  1
  0
VERTEX
  8
gg1
 10
-0.779000
 20
-0.074800
  0
VERTEX
  8
gg1
 10
-0.779000
 20
-0.054800
  0
VERTEX
  8
gg1
 10
-0.779000
 20
-0.064800
  0
VERTEX
  8
gg1
 10
-0.819000
 20
-0.064800
  0
VERTEX
  8
gg1
 10
-0.819000
 20
-0.074800
  0
SEQEND
  8
gg1
  0
POLYLINE
  8
gg1
 62
1
 40
0.000000
 41
0.000000
 66
  1
  0
VERTEX
  8
gg1
 10
-0.779000
 20
-0.024800
  0
VERTEX
  8
gg1
 10
-0.779000
 20
-0.004800
  0
VERTEX
  8
gg1
 10
-0.779000
 20
-0.014800
  0
VERTEX
  8
gg1
 10
-0.839000
 20
-0.014800
  0
VERTEX
  8
gg1
 10
-0.839000
 20
-0.024800
  0
SEQEND
  8
gg1
  0
POLYLINE
  8
gg1
 62
1
 40
0.000000
 41
0.000000
 66
  1
  0
VERTEX
  8
gg1
 10
-0.288400
 20
-0.010000
  0
VERTEX
  8
gg1
 10
-0.249000
 20
-0.010000
  0
SEQEND
  8
gg1
  0
POLYLINE
  8
gg1
 62
1
 40
0.000000
 41
0.000000
 66
  1
  0
VERTEX
  8
gg1
 10
-0.268700
 20
-0.029700
  0
VERTEX
  8
gg1
 10
-0.268700
 20
0.009700
  0
SEQEND
  8
gg1
  0
POLYLINE
  8
gg1
 62
1
 40
0.000000
 41
0.000000
 66
  1
  0
VERTEX
  8
gg1
 10
-0.102500
 20
0.000000
  0
VERTEX
  8
gg1
 10
0.102500
 20
0.000000
  0
SEQEND
  8
gg1
  0
POLYLINE
  8
gg1
 62
1
 40
0.000000
 41
0.000000
 66
  1
  0
VERTEX
  8
gg1
 10
0.000000
 20
-0.102500
  0
VERTEX
  8
gg1
 10
0.000000
 20
0.102500
  0
SEQEND
  8
gg1
  0
POLYLINE
  8
gg1
 62
1
 40
0.000000
 41
0.000000
 66
  1
  0
VERTEX
  8
gg1
 10
0.249000
 20
0.010000
  0
VERTEX
  8
gg1
 10
0.288400
 20
0.010000
  0
SEQEND
  8
gg1
  0
POLYLINE
  8
gg1
 62
1
 40
0.000000
 41
0.000000
 66
  1
  0
VERTEX
  8
gg1
 10
0.268700
 20
-0.009700
  0
VERTEX
  8
gg1
 10
0.268700
 20
0.029700
  0
SEQEND
  8
gg1
  0
POLYLINE
  8
gg1
 62
1
 40
0.000000
 41
0.000000
 66
  1
  0
VERTEX
  8
gg1
 10
0.279500
 20
0.066500
  0
VERTEX
  8
gg1
 10
0.318900
 20
0.066500
  0
SEQEND
  8
gg1
  0
POLYLINE
  8
gg1
 62
1
 40
0.000000
 41
0.000000
 66
  1
  0
VERTEX
  8
gg1
 10
0.299200
 20
0.046800
  0
VERTEX
  8
gg1
 10
0.299200
 20
0.086200
  0
SEQEND
  8
gg1
  0
POLYLINE
  8
gg1
 62
1
 40
0.000000
 41
0.000000
 66
  1
  0
VERTEX
  8
gg1
 10
-0.318900
 20
-0.066500
  0
VERTEX
  8
gg1
 10
-0.279500
 20
-0.066500
  0
SEQEND
  8
gg1
  0
POLYLINE
  8
gg1
 62
1
 40
0.000000
 41
0.000000
 66
  1
  0
VERTEX
  8
gg1
 10
-0.299200
 20
-0.086200
  0
VERTEX
  8
gg1
 10
-0.299200
 20
-0.046800
  0
SEQEND
  8
gg1
  0
POLYLINE
  8
gg1
 62
1
 40
0.000000
 41
0.000000
 66
  1
  0
VERTEX
  8
gg1
 10
0.130000
 20
-0.462600
  0
VERTEX
  8
gg1
 10
0.170000
 20
-0.462600
  0
SEQEND
  8
gg1
  0
POLYLINE
  8
gg1
 62
1
 40
0.000000
 41
0.000000
 66
  1
  0
VERTEX
  8
gg1
 10
0.150000
 20
-0.482600
  0
VERTEX
  8
gg1
 10
0.150000
 20
-0.442600
  0
SEQEND
  8
gg1
  0
POLYLINE
  8
gg1
 62
1
 40
0.000000
 41
0.000000
 66
  1
  0
VERTEX
  8
gg1
 10
0.030000
 20
-0.462600
  0
VERTEX
  8
gg1
 10
0.070000
 20
-0.462600
  0
SEQEND
  8
gg1
  0
POLYLINE
  8
gg1
 62
1
 40
0.000000
 41
0.000000
 66
  1
  0
VERTEX
  8
gg1
 10
0.050000
 20
-0.482600
  0
VERTEX
  8
gg1
 10
0.050000
 20
-0.442600
  0
SEQEND
  8
gg1
  0
POLYLINE
  8
gg1
 62
1
 40
0.000000
 41
0.000000
 66
  1
  0
VERTEX
  8
gg1
 10
-0.070000
 20
-0.462600
  0
VERTEX
  8
gg1
 10
-0.030000
 20
-0.462600
  0
SEQEND
  8
gg1
  0
POLYLINE
  8
gg1
 62
1
 40
0.000000
 41
0.000000
 66
  1
  0
VERTEX
  8
gg1
 10
-0.050000
 20
-0.482600
  0
VERTEX
  8
gg1
 10
-0.050000
 20
-0.442600
  0
SEQEND
  8
gg1
  0
POLYLINE
  8
gg1
 62
1
 40
0.000000
 41
0.000000
 66
  1
  0
VERTEX
  8
gg1
 10
-0.170000
 20
-0.462600
  0
VERTEX
  8
gg1
 10
-0.130000
 20
-0.462600
  0
SEQEND
  8
gg1
  0
POLYLINE
  8
gg1
 62
1
 40
0.000000
 41
0.000000
 66
  1
  0
VERTEX
  8
gg1
 10
-0.150000
 20
-0.482600
  0
VERTEX
  8
gg1
 10
-0.150000
 20
-0.442600
  0
SEQEND
  8
gg1
  0
POLYLINE
  8
gg1
 62
1
 40
0.000000
 41
0.000000
 66
  1
  0
VERTEX
  8
gg1
 10
-0.270000
 20
-0.462600
  0
VERTEX
  8
gg1
 10
-0.230000
 20
-0.462600
  0
SEQEND
  8
gg1
  0
POLYLINE
  8
gg1
 62
1
 40
0.000000
 41
0.000000
 66
  1
  0
VERTEX
  8
gg1
 10
-0.250000
 20
-0.482600
  0
VERTEX
  8
gg1
 10
-0.250000
 20
-0.442600
  0
SEQEND
  8
gg1
  0
POLYLINE
  8
gg1
 62
1
 40
0.000000
 41
0.000000
 66
  1
  0
VERTEX
  8
gg1
 10
0.230000
 20
-0.462600
  0
VERTEX
  8
gg1
 10
0.270000
 20
-0.462600
  0
SEQEND
  8
gg1
  0
POLYLINE
  8
gg1
 62
1
 40
0.000000
 41
0.000000
 66
  1
  0
VERTEX
  8
gg1
 10
0.250000
 20
-0.482600
  0
VERTEX
  8
gg1
 10
0.250000
 20
-0.442600
  0
SEQEND
  8
gg1
  0
POLYLINE
  8
gg1
 62
1
 40
0.000000
 41
0.000000
 66
  1
  0
VERTEX
  8
gg1
 10
-0.257500
 20
-0.310000
  0
VERTEX
  8
gg1
 10
-0.242500
 20
-0.310000
  0
SEQEND
  8
gg1
  0
POLYLINE
  8
gg1
 62
1
 40
0.000000
 41
0.000000
 66
  1
  0
VERTEX
  8
gg1
 10
-0.250000
 20
-0.317500
  0
VERTEX
  8
gg1
 10
-0.250000
 20
-0.302500
  0
SEQEND
  8
gg1
  0
POLYLINE
  8
gg1
 62
1
 40
0.000000
 41
0.000000
 66
  1
  0
VERTEX
  8
gg1
 10
-0.157500
 20
-0.310000
  0
VERTEX
  8
gg1
 10
-0.142500
 20
-0.310000
  0
SEQEND
  8
gg1
  0
POLYLINE
  8
gg1
 62
1
 40
0.000000
 41
0.000000
 66
  1
  0
VERTEX
  8
gg1
 10
-0.150000
 20
-0.317500
  0
VERTEX
  8
gg1
 10
-0.150000
 20
-0.302500
  0
SEQEND
  8
gg1
  0
POLYLINE
  8
gg1
 62
1
 40
0.000000
 41
0.000000
 66
  1
  0
VERTEX
  8
gg1
 10
0.092500
 20
-0.360000
  0
VERTEX
  8
gg1
 10
0.107500
 20
-0.360000
  0
SEQEND
  8
gg1
  0
POLYLINE
  8
gg1
 62
1
 40
0.000000
 41
0.000000
 66
  1
  0
VERTEX
  8
gg1
 10
0.100000
 20
-0.367500
  0
VERTEX
  8
gg1
 10
0.100000
 20
-0.352500
  0
SEQEND
  8
gg1
  0
POLYLINE
  8
gg1
 62
1
 40
0.000000
 41
0.000000
 66
  1
  0
VERTEX
  8
gg1
 10
0.177500
 20
-0.035000
  0
VERTEX
  8
gg1
 10
0.192500
 20
-0.035000
  0
SEQEND
  8
gg1
  0
POLYLINE
  8
gg1
 62
1
 40
0.000000
 41
0.000000
 66
  1
  0
VERTEX
  8
gg1
 10
0.185000
 20
-0.042500
  0
VERTEX
  8
gg1
 10
0.185000
 20
-0.027500
  0
SEQEND
  8
gg1
  0
POLYLINE
  8
gg1
 62
1
 40
0.000000
 41
0.000000
 66
  1
  0
VERTEX
  8
gg1
 10
0.132500
 20
0.170000
  0
VERTEX
  8
gg1
 10
0.147500
 20
0.170000
  0
SEQEND
  8
gg1
  0
POLYLINE
  8
gg1
 62
1
 40
0.000000
 41
0.000000
 66
  1
  0
VERTEX
  8
gg1
 10
0.140000
 20
0.162500
  0
VERTEX
  8
gg1
 10
0.140000
 20
0.177500
  0
SEQEND
  8
gg1
  0
ENDSEC
  0
EOF
