  0
SECTION
  2
HEADER
  9
$EXTMIN
 10
-0.327000
 20
-0.184000
  9
$EXTMAX
 10
1.310000
 20
2.475000
  9
$LIMMIN
 10
-0.327000
 20
-0.184000
  9
$LIMMAX
 10
1.310000
 20
2.475000
  9
$FILLMODE
 70
  1
  0
ENDSEC
  0
SECTION
  2
TABLES
  0
TABLE
  2
LTYPE
 70
  1
  0
LTYPE
  2
CONTINUOUS
 70
 64
  3
Solid line
 72
 65
 73
  0
 40
0.0
  0
ENDTAB
  0
TABLE
  2
LAYER
 70
 1
  0
LAYER
  2
0
 70
  0
 62
7
  6
CONTINUOUS
  0
LAYER
  2
gg1
 70
  0
 62
1
  6
CONTINUOUS
  0
ENDTAB
  0
TABLE
  2
STYLE
 70
  1
  0
STYLE
  2
STANDARD
 70
  0
 40
0.0
 41
1.0
 50
0.0
 71
  0
 42
0.2
  3
txt
  4

  0
ENDTAB
  0
ENDSEC
  0
SECTION
  2
BLOCKS
  0
BLOCK
  8
0
  2
D10
 70
64
 10
0.0
 20
0.0
  3
D10
  0
CIRCLE
  8
0
 10
0.000000
 20
0.000000
 40
0.005000
 0
ENDBLK
  8
0
  0
BLOCK
  8
0
  2
D11
 70
64
 10
0.0
 20
0.0
  3
D11
  0
CIRCLE
  8
0
 10
0.000000
 20
0.000000
 40
0.002500
 0
ENDBLK
  8
0
  0
BLOCK
  8
0
  2
D12
 70
64
 10
0.0
 20
0.0
  3
D12
  0
CIRCLE
  8
0
 10
0.000000
 20
0.000000
 40
0.003000
 0
ENDBLK
  8
0
  0
BLOCK
  8
0
  2
D13
 70
64
 10
0.0
 20
0.0
  3
D13
  0
CIRCLE
  8
0
 10
0.000000
 20
0.000000
 40
0.001000
 0
ENDBLK
  8
0
  0
ENDSEC
  0
SECTION
  2
ENTITIES
  0
POLYLINE
  8
gg1
 62
1
 40
0.000000
 41
0.000000
 66
  1
  0
VERTEX
  8
gg1
 10
1.305000
 20
-0.155000
  0
VERTEX
  8
gg1
 10
1.305000
 20
-0.027500
  0
SEQEND
  8
gg1
  0
POLYLINE
  8
gg1
 62
1
 40
0.000000
 41
0.000000
 66
  1
  0
VERTEX
  8
gg1
 10
0.000000
 20
-0.155000
  0
VERTEX
  8
gg1
 10
0.000000
 20
-0.027500
  0
SEQEND
  8
gg1
  0
POLYLINE
  8
gg1
 62
1
 40
0.000000
 41
0.000000
 66
  1
  0
VERTEX
  8
gg1
 10
0.832400
 20
-0.145000
  0
VERTEX
  8
gg1
 10
1.305000
 20
-0.145000
  0
SEQEND
  8
gg1
  0
POLYLINE
  8
gg1
 62
1
 40
0.000000
 41
0.000000
 66
  1
  0
VERTEX
  8
gg1
 10
0.000000
 20
-0.145000
  0
VERTEX
  8
gg1
 10
0.440600
 20
-0.145000
  0
SEQEND
  8
gg1
  0
POLYLINE
  8
gg1
 62
1
 40
0.000000
 41
0.000000
 66
  1
  0
VERTEX
  8
gg1
 10
1.245000
 20
-0.125000
  0
VERTEX
  8
gg1
 10
1.305000
 20
-0.145000
  0
SEQEND
  8
gg1
  0
POLYLINE
  8
gg1
 62
1
 40
0.000000
 41
0.000000
 66
  1
  0
VERTEX
  8
gg1
 10
1.245000
 20
-0.165000
  0
VERTEX
  8
gg1
 10
1.305000
 20
-0.145000
  0
SEQEND
  8
gg1
  0
POLYLINE
  8
gg1
 62
1
 40
0.000000
 41
0.000000
 66
  1
  0
VERTEX
  8
gg1
 10
0.000000
 20
-0.145000
  0
VERTEX
  8
gg1
 10
0.060000
 20
-0.165000
  0
SEQEND
  8
gg1
  0
POLYLINE
  8
gg1
 62
1
 40
0.000000
 41
0.000000
 66
  1
  0
VERTEX
  8
gg1
 10
0.000000
 20
-0.145000
  0
VERTEX
  8
gg1
 10
0.060000
 20
-0.125000
  0
SEQEND
  8
gg1
  0
POLYLINE
  8
gg1
 62
1
 40
0.000000
 41
0.000000
 66
  1
  0
VERTEX
  8
gg1
 10
-0.310000
 20
2.470000
  0
VERTEX
  8
gg1
 10
0.372500
 20
2.470000
  0
SEQEND
  8
gg1
  0
POLYLINE
  8
gg1
 62
1
 40
0.000000
 41
0.000000
 66
  1
  0
VERTEX
  8
gg1
 10
-0.310000
 20
0.000000
  0
VERTEX
  8
gg1
 10
-0.027500
 20
0.000000
  0
SEQEND
  8
gg1
  0
POLYLINE
  8
gg1
 62
1
 40
0.000000
 41
0.000000
 66
  1
  0
VERTEX
  8
gg1
 10
-0.300000
 20
1.419900
  0
VERTEX
  8
gg1
 10
-0.300000
 20
2.470000
  0
SEQEND
  8
gg1
  0
POLYLINE
  8
gg1
 62
1
 40
0.000000
 41
0.000000
 66
  1
  0
VERTEX
  8
gg1
 10
-0.300000
 20
0.000000
  0
VERTEX
  8
gg1
 10
-0.300000
 20
1.018100
  0
SEQEND
  8
gg1
  0
POLYLINE
  8
gg1
 62
1
 40
0.000000
 41
0.000000
 66
  1
  0
VERTEX
  8
gg1
 10
-0.320000
 20
2.410000
  0
VERTEX
  8
gg1
 10
-0.300000
 20
2.470000
  0
VERTEX
  8
gg1
 10
-0.280000
 20
2.410000
  0
SEQEND
  8
gg1
  0
POLYLINE
  8
gg1
 62
1
 40
0.000000
 41
0.000000
 66
  1
  0
VERTEX
  8
gg1
 10
-0.300000
 20
0.000000
  0
VERTEX
  8
gg1
 10
-0.280000
 20
0.060000
  0
SEQEND
  8
gg1
  0
POLYLINE
  8
gg1
 62
1
 40
0.000000
 41
0.000000
 66
  1
  0
VERTEX
  8
gg1
 10
-0.320000
 20
0.060000
  0
VERTEX
  8
gg1
 10
-0.300000
 20
0.000000
  0
SEQEND
  8
gg1
  0
POLYLINE
  8
gg1
 62
1
 40
0.000000
 41
0.000000
 66
  1
  0
VERTEX
  8
gg1
 10
-0.150000
 20
2.470000
  0
VERTEX
  8
gg1
 10
0.372500
 20
2.470000
  0
SEQEND
  8
gg1
  0
POLYLINE
  8
gg1
 62
1
 40
0.000000
 41
0.000000
 66
  1
  0
VERTEX
  8
gg1
 10
-0.150000
 20
1.255000
  0
VERTEX
  8
gg1
 10
-0.027500
 20
1.255000
  0
SEQEND
  8
gg1
  0
POLYLINE
  8
gg1
 62
1
 40
0.000000
 41
0.000000
 66
  1
  0
VERTEX
  8
gg1
 10
-0.140000
 20
2.037400
  0
VERTEX
  8
gg1
 10
-0.140000
 20
2.470000
  0
SEQEND
  8
gg1
  0
POLYLINE
  8
gg1
 62
1
 40
0.000000
 41
0.000000
 66
  1
  0
VERTEX
  8
gg1
 10
-0.140000
 20
1.255000
  0
VERTEX
  8
gg1
 10
-0.140000
 20
1.655600
  0
SEQEND
  8
gg1
  0
POLYLINE
  8
gg1
 62
1
 40
0.000000
 41
0.000000
 66
  1
  0
VERTEX
  8
gg1
 10
-0.160000
 20
2.410000
  0
VERTEX
  8
gg1
 10
-0.140000
 20
2.470000
  0
VERTEX
  8
gg1
 10
-0.120000
 20
2.410000
  0
SEQEND
  8
gg1
  0
POLYLINE
  8
gg1
 62
1
 40
0.000000
 41
0.000000
 66
  1
  0
VERTEX
  8
gg1
 10
-0.140000
 20
1.255000
  0
VERTEX
  8
gg1
 10
-0.120000
 20
1.315000
  0
SEQEND
  8
gg1
  0
POLYLINE
  8
gg1
 62
1
 40
0.000000
 41
0.000000
 66
  1
  0
VERTEX
  8
gg1
 10
-0.160000
 20
1.315000
  0
VERTEX
  8
gg1
 10
-0.140000
 20
1.255000
  0
SEQEND
  8
gg1
  0
POLYLINE
  8
gg1
 62
1
 40
0.000000
 41
0.000000
 66
  1
  0
VERTEX
  8
gg1
 10
0.400000
 20
1.430000
  0
VERTEX
  8
gg1
 10
0.400000
 20
2.442500
  0
SEQEND
  8
gg1
  0
POLYLINE
  8
gg1
 62
1
 40
0.000000
 41
0.000000
 66
  1
  0
VERTEX
  8
gg1
 10
0.000000
 20
1.282500
  0
VERTEX
  8
gg1
 10
0.000000
 20
1.450000
  0
SEQEND
  8
gg1
  0
POLYLINE
  8
gg1
 62
1
 40
0.000000
 41
0.000000
 66
  1
  0
VERTEX
  8
gg1
 10
0.200000
 20
1.440000
  0
VERTEX
  8
gg1
 10
0.400000
 20
1.440000
  0
SEQEND
  8
gg1
  0
POLYLINE
  8
gg1
 62
1
 40
0.000000
 41
0.000000
 66
  1
  0
VERTEX
  8
gg1
 10
0.000000
 20
1.440000
  0
VERTEX
  8
gg1
 10
0.200000
 20
1.440000
  0
SEQEND
  8
gg1
  0
POLYLINE
  8
gg1
 62
1
 40
0.000000
 41
0.000000
 66
  1
  0
VERTEX
  8
gg1
 10
0.340000
 20
1.460000
  0
VERTEX
  8
gg1
 10
0.400000
 20
1.440000
  0
SEQEND
  8
gg1
  0
POLYLINE
  8
gg1
 62
1
 40
0.000000
 41
0.000000
 66
  1
  0
VERTEX
  8
gg1
 10
0.340000
 20
1.420000
  0
VERTEX
  8
gg1
 10
0.400000
 20
1.440000
  0
SEQEND
  8
gg1
  0
POLYLINE
  8
gg1
 62
1
 40
0.000000
 41
0.000000
 66
  1
  0
VERTEX
  8
gg1
 10
0.000000
 20
1.440000
  0
VERTEX
  8
gg1
 10
0.060000
 20
1.420000
  0
SEQEND
  8
gg1
  0
POLYLINE
  8
gg1
 62
1
 40
0.000000
 41
0.000000
 66
  1
  0
VERTEX
  8
gg1
 10
0.000000
 20
1.440000
  0
VERTEX
  8
gg1
 10
0.060000
 20
1.460000
  0
SEQEND
  8
gg1
  0
POLYLINE
  8
gg1
 62
1
 40
0.000000
 41
0.000000
 66
  1
  0
VERTEX
  8
gg1
 10
0.400000
 20
1.924600
  0
VERTEX
  8
gg1
 10
0.440000
 20
1.884600
  0
SEQEND
  8
gg1
  0
POLYLINE
  8
gg1
 62
1
 40
0.000000
 41
0.000000
 66
  1
  0
VERTEX
  8
gg1
 10
0.440000
 20
1.667700
  0
VERTEX
  8
gg1
 10
0.440000
 20
1.884600
  0
SEQEND
  8
gg1
  0
POLYLINE
  8
gg1
 62
1
 40
0.000000
 41
0.000000
 66
  1
  0
VERTEX
  8
gg1
 10
0.400000
 20
1.627700
  0
VERTEX
  8
gg1
 10
0.440000
 20
1.667700
  0
SEQEND
  8
gg1
  0
POLYLINE
  8
gg1
 62
1
 40
0.000000
 41
0.000000
 66
  1
  0
VERTEX
  8
gg1
 10
0.400000
 20
1.924600
  0
VERTEX
  8
gg1
 10
0.400000
 20
2.470000
  0
SEQEND
  8
gg1
  0
POLYLINE
  8
gg1
 62
1
 40
0.000000
 41
0.000000
 66
  1
  0
VERTEX
  8
gg1
 10
0.400000
 20
1.255000
  0
VERTEX
  8
gg1
 10
0.400000
 20
1.627700
  0
SEQEND
  8
gg1
  0
POLYLINE
  8
gg1
 62
1
 40
0.000000
 41
0.000000
 66
  1
  0
VERTEX
  8
gg1
 10
1.305000
 20
0.000000
  0
VERTEX
  8
gg1
 10
1.305000
 20
2.470000
  0
SEQEND
  8
gg1
  0
POLYLINE
  8
gg1
 62
1
 40
0.000000
 41
0.000000
 66
  1
  0
VERTEX
  8
gg1
 10
0.000000
 20
0.000000
  0
VERTEX
  8
gg1
 10
0.000000
 20
1.255000
  0
VERTEX
  8
gg1
 10
0.400000
 20
1.255000
  0
SEQEND
  8
gg1
  0
POLYLINE
  8
gg1
 62
1
 40
0.000000
 41
0.000000
 66
  1
  0
VERTEX
  8
gg1
 10
0.400000
 20
2.470000
  0
VERTEX
  8
gg1
 10
1.305000
 20
2.470000
  0
SEQEND
  8
gg1
  0
POLYLINE
  8
gg1
 62
1
 40
0.000000
 41
0.000000
 66
  1
  0
VERTEX
  8
gg1
 10
0.000000
 20
0.000000
  0
VERTEX
  8
gg1
 10
1.305000
 20
0.000000
  0
SEQEND
  8
gg1
  0
POLYLINE
  8
gg1
 62
1
 40
0.000000
 41
0.000000
 66
  1
  0
VERTEX
  8
gg1
 10
0.456600
 20
-0.181000
  0
VERTEX
  8
gg1
 10
0.476600
 20
-0.181000
  0
VERTEX
  8
gg1
 10
0.466600
 20
-0.181000
  0
VERTEX
  8
gg1
 10
0.466600
 20
-0.121000
  0
VERTEX
  8
gg1
 10
0.456600
 20
-0.131000
  0
SEQEND
  8
gg1
  0
POLYLINE
  8
gg1
 62
1
 40
0.000000
 41
0.000000
 66
  1
  0
VERTEX
  8
gg1
 10
0.506500
 20
-0.131000
  0
VERTEX
  8
gg1
 10
0.516500
 20
-0.121000
  0
VERTEX
  8
gg1
 10
0.536500
 20
-0.121000
  0
VERTEX
  8
gg1
 10
0.546500
 20
-0.131000
  0
VERTEX
  8
gg1
 10
0.546500
 20
-0.141000
  0
VERTEX
  8
gg1
 10
0.536500
 20
-0.151000
  0
VERTEX
  8
gg1
 10
0.526500
 20
-0.151000
  0
VERTEX
  8
gg1
 10
0.536500
 20
-0.151000
  0
VERTEX
  8
gg1
 10
0.546500
 20
-0.161000
  0
VERTEX
  8
gg1
 10
0.546500
 20
-0.171000
  0
VERTEX
  8
gg1
 10
0.536500
 20
-0.181000
  0
VERTEX
  8
gg1
 10
0.516500
 20
-0.181000
  0
VERTEX
  8
gg1
 10
0.506500
 20
-0.171000
  0
SEQEND
  8
gg1
  0
POLYLINE
  8
gg1
 62
1
 40
0.000000
 41
0.000000
 66
  1
  0
VERTEX
  8
gg1
 10
0.566500
 20
-0.131000
  0
VERTEX
  8
gg1
 10
0.576500
 20
-0.121000
  0
VERTEX
  8
gg1
 10
0.596500
 20
-0.121000
  0
VERTEX
  8
gg1
 10
0.606500
 20
-0.131000
  0
VERTEX
  8
gg1
 10
0.606500
 20
-0.171000
  0
VERTEX
  8
gg1
 10
0.596500
 20
-0.181000
  0
VERTEX
  8
gg1
 10
0.576500
 20
-0.181000
  0
VERTEX
  8
gg1
 10
0.566500
 20
-0.171000
  0
VERTEX
  8
gg1
 10
0.566500
 20
-0.131000
  0
SEQEND
  8
gg1
  0
POLYLINE
  8
gg1
 62
1
 40
0.000000
 41
0.000000
 66
  1
  0
VERTEX
  8
gg1
 10
0.666500
 20
-0.121000
  0
VERTEX
  8
gg1
 10
0.626500
 20
-0.121000
  0
VERTEX
  8
gg1
 10
0.626500
 20
-0.151000
  0
VERTEX
  8
gg1
 10
0.646500
 20
-0.141000
  0
VERTEX
  8
gg1
 10
0.656500
 20
-0.141000
  0
VERTEX
  8
gg1
 10
0.666500
 20
-0.151000
  0
VERTEX
  8
gg1
 10
0.666500
 20
-0.171000
  0
VERTEX
  8
gg1
 10
0.656500
 20
-0.181000
  0
VERTEX
  8
gg1
 10
0.636500
 20
-0.181000
  0
VERTEX
  8
gg1
 10
0.626500
 20
-0.171000
  0
SEQEND
  8
gg1
  0
POLYLINE
  8
gg1
 62
1
 40
0.000000
 41
0.000000
 66
  1
  0
VERTEX
  8
gg1
 10
0.686500
 20
-0.181000
  0
VERTEX
  8
gg1
 10
0.686500
 20
-0.141000
  0
VERTEX
  8
gg1
 10
0.696500
 20
-0.141000
  0
VERTEX
  8
gg1
 10
0.706500
 20
-0.151000
  0
VERTEX
  8
gg1
 10
0.706500
 20
-0.181000
  0
VERTEX
  8
gg1
 10
0.706500
 20
-0.151000
  0
VERTEX
  8
gg1
 10
0.716500
 20
-0.141000
  0
VERTEX
  8
gg1
 10
0.726500
 20
-0.151000
  0
VERTEX
  8
gg1
 10
0.726500
 20
-0.181000
  0
SEQEND
  8
gg1
  0
POLYLINE
  8
gg1
 62
1
 40
0.000000
 41
0.000000
 66
  1
  0
VERTEX
  8
gg1
 10
0.746500
 20
-0.181000
  0
VERTEX
  8
gg1
 10
0.766500
 20
-0.181000
  0
VERTEX
  8
gg1
 10
0.756500
 20
-0.181000
  0
VERTEX
  8
gg1
 10
0.756500
 20
-0.141000
  0
VERTEX
  8
gg1
 10
0.746500
 20
-0.141000
  0
SEQEND
  8
gg1
  0
POLYLINE
  8
gg1
 62
1
 40
0.000000
 41
0.000000
 66
  1
  0
VERTEX
  8
gg1
 10
0.796400
 20
-0.181000
  0
VERTEX
  8
gg1
 10
0.816400
 20
-0.181000
  0
VERTEX
  8
gg1
 10
0.806400
 20
-0.181000
  0
VERTEX
  8
gg1
 10
0.806400
 20
-0.121000
  0
VERTEX
  8
gg1
 10
0.796400
 20
-0.121000
  0
SEQEND
  8
gg1
  0
POLYLINE
  8
gg1
 62
1
 40
0.000000
 41
0.000000
 66
  1
  0
VERTEX
  8
gg1
 10
-0.264000
 20
1.074000
  0
VERTEX
  8
gg1
 10
-0.264000
 20
1.034100
  0
VERTEX
  8
gg1
 10
-0.304000
 20
1.074000
  0
VERTEX
  8
gg1
 10
-0.314000
 20
1.074000
  0
VERTEX
  8
gg1
 10
-0.324000
 20
1.064000
  0
VERTEX
  8
gg1
 10
-0.324000
 20
1.044100
  0
VERTEX
  8
gg1
 10
-0.314000
 20
1.034100
  0
SEQEND
  8
gg1
  0
POLYLINE
  8
gg1
 62
1
 40
0.000000
 41
0.000000
 66
  1
  0
VERTEX
  8
gg1
 10
-0.264000
 20
1.124000
  0
VERTEX
  8
gg1
 10
-0.324000
 20
1.124000
  0
VERTEX
  8
gg1
 10
-0.294000
 20
1.094000
  0
VERTEX
  8
gg1
 10
-0.294000
 20
1.134000
  0
SEQEND
  8
gg1
  0
POLYLINE
  8
gg1
 62
1
 40
0.000000
 41
0.000000
 66
  1
  0
VERTEX
  8
gg1
 10
-0.324000
 20
1.154000
  0
VERTEX
  8
gg1
 10
-0.324000
 20
1.194000
  0
VERTEX
  8
gg1
 10
-0.314000
 20
1.194000
  0
VERTEX
  8
gg1
 10
-0.274000
 20
1.154000
  0
VERTEX
  8
gg1
 10
-0.264000
 20
1.154000
  0
SEQEND
  8
gg1
  0
POLYLINE
  8
gg1
 62
1
 40
0.000000
 41
0.000000
 66
  1
  0
VERTEX
  8
gg1
 10
-0.314000
 20
1.214000
  0
VERTEX
  8
gg1
 10
-0.324000
 20
1.224000
  0
VERTEX
  8
gg1
 10
-0.324000
 20
1.244000
  0
VERTEX
  8
gg1
 10
-0.314000
 20
1.254000
  0
VERTEX
  8
gg1
 10
-0.274000
 20
1.254000
  0
VERTEX
  8
gg1
 10
-0.264000
 20
1.244000
  0
VERTEX
  8
gg1
 10
-0.264000
 20
1.224000
  0
VERTEX
  8
gg1
 10
-0.274000
 20
1.214000
  0
VERTEX
  8
gg1
 10
-0.314000
 20
1.214000
  0
SEQEND
  8
gg1
  0
POLYLINE
  8
gg1
 62
1
 40
0.000000
 41
0.000000
 66
  1
  0
VERTEX
  8
gg1
 10
-0.264000
 20
1.274000
  0
VERTEX
  8
gg1
 10
-0.304000
 20
1.274000
  0
VERTEX
  8
gg1
 10
-0.304000
 20
1.284000
  0
VERTEX
  8
gg1
 10
-0.294000
 20
1.294000
  0
VERTEX
  8
gg1
 10
-0.264000
 20
1.294000
  0
VERTEX
  8
gg1
 10
-0.294000
 20
1.294000
  0
VERTEX
  8
gg1
 10
-0.304000
 20
1.304000
  0
VERTEX
  8
gg1
 10
-0.294000
 20
1.314000
  0
VERTEX
  8
gg1
 10
-0.264000
 20
1.314000
  0
SEQEND
  8
gg1
  0
POLYLINE
  8
gg1
 62
1
 40
0.000000
 41
0.000000
 66
  1
  0
VERTEX
  8
gg1
 10
-0.264000
 20
1.334000
  0
VERTEX
  8
gg1
 10
-0.264000
 20
1.354000
  0
VERTEX
  8
gg1
 10
-0.264000
 20
1.344000
  0
VERTEX
  8
gg1
 10
-0.304000
 20
1.344000
  0
VERTEX
  8
gg1
 10
-0.304000
 20
1.334000
  0
SEQEND
  8
gg1
  0
POLYLINE
  8
gg1
 62
1
 40
0.000000
 41
0.000000
 66
  1
  0
VERTEX
  8
gg1
 10
-0.264000
 20
1.383900
  0
VERTEX
  8
gg1
 10
-0.264000
 20
1.403900
  0
VERTEX
  8
gg1
 10
-0.264000
 20
1.393900
  0
VERTEX
  8
gg1
 10
-0.324000
 20
1.393900
  0
VERTEX
  8
gg1
 10
-0.324000
 20
1.383900
  0
SEQEND
  8
gg1
  0
POLYLINE
  8
gg1
 62
1
 40
0.000000
 41
0.000000
 66
  1
  0
VERTEX
  8
gg1
 10
-0.104000
 20
1.671600
  0
VERTEX
  8
gg1
 10
-0.104000
 20
1.691600
  0
VERTEX
  8
gg1
 10
-0.104000
 20
1.681600
  0
VERTEX
  8
gg1
 10
-0.164000
 20
1.681600
  0
VERTEX
  8
gg1
 10
-0.154000
 20
1.671600
  0
SEQEND
  8
gg1
  0
POLYLINE
  8
gg1
 62
1
 40
0.000000
 41
0.000000
 66
  1
  0
VERTEX
  8
gg1
 10
-0.104000
 20
1.761500
  0
VERTEX
  8
gg1
 10
-0.104000
 20
1.721500
  0
VERTEX
  8
gg1
 10
-0.144000
 20
1.761500
  0
VERTEX
  8
gg1
 10
-0.154000
 20
1.761500
  0
VERTEX
  8
gg1
 10
-0.164000
 20
1.751500
  0
VERTEX
  8
gg1
 10
-0.164000
 20
1.731500
  0
VERTEX
  8
gg1
 10
-0.154000
 20
1.721500
  0
SEQEND
  8
gg1
  0
POLYLINE
  8
gg1
 62
1
 40
0.000000
 41
0.000000
 66
  1
  0
VERTEX
  8
gg1
 10
-0.104000
 20
1.781500
  0
VERTEX
  8
gg1
 10
-0.104000
 20
1.801500
  0
VERTEX
  8
gg1
 10
-0.104000
 20
1.791500
  0
VERTEX
  8
gg1
 10
-0.164000
 20
1.791500
  0
VERTEX
  8
gg1
 10
-0.154000
 20
1.781500
  0
SEQEND
  8
gg1
  0
POLYLINE
  8
gg1
 62
1
 40
0.000000
 41
0.000000
 66
  1
  0
VERTEX
  8
gg1
 10
-0.164000
 20
1.871500
  0
VERTEX
  8
gg1
 10
-0.164000
 20
1.831500
  0
VERTEX
  8
gg1
 10
-0.134000
 20
1.831500
  0
VERTEX
  8
gg1
 10
-0.144000
 20
1.851500
  0
VERTEX
  8
gg1
 10
-0.144000
 20
1.861500
  0
VERTEX
  8
gg1
 10
-0.134000
 20
1.871500
  0
VERTEX
  8
gg1
 10
-0.114000
 20
1.871500
  0
VERTEX
  8
gg1
 10
-0.104000
 20
1.861500
  0
VERTEX
  8
gg1
 10
-0.104000
 20
1.841500
  0
VERTEX
  8
gg1
 10
-0.114000
 20
1.831500
  0
SEQEND
  8
gg1
  0
POLYLINE
  8
gg1
 62
1
 40
0.000000
 41
0.000000
 66
  1
  0
VERTEX
  8
gg1
 10
-0.104000
 20
1.891500
  0
VERTEX
  8
gg1
 10
-0.144000
 20
1.891500
  0
VERTEX
  8
gg1
 10
-0.144000
 20
1.901500
  0
VERTEX
  8
gg1
 10
-0.134000
 20
1.911500
  0
VERTEX
  8
gg1
 10
-0.104000
 20
1.911500
  0
VERTEX
  8
gg1
 10
-0.134000
 20
1.911500
  0
VERTEX
  8
gg1
 10
-0.144000
 20
1.921500
  0
VERTEX
  8
gg1
 10
-0.134000
 20
1.931500
  0
VERTEX
  8
gg1
 10
-0.104000
 20
1.931500
  0
SEQEND
  8
gg1
  0
POLYLINE
  8
gg1
 62
1
 40
0.000000
 41
0.000000
 66
  1
  0
VERTEX
  8
gg1
 10
-0.104000
 20
1.951500
  0
VERTEX
  8
gg1
 10
-0.104000
 20
1.971500
  0
VERTEX
  8
gg1
 10
-0.104000
 20
1.961500
  0
VERTEX
  8
gg1
 10
-0.144000
 20
1.961500
  0
VERTEX
  8
gg1
 10
-0.144000
 20
1.951500
  0
SEQEND
  8
gg1
  0
POLYLINE
  8
gg1
 62
1
 40
0.000000
 41
0.000000
 66
  1
  0
VERTEX
  8
gg1
 10
-0.104000
 20
2.001500
  0
VERTEX
  8
gg1
 10
-0.104000
 20
2.021400
  0
VERTEX
  8
gg1
 10
-0.104000
 20
2.011400
  0
VERTEX
  8
gg1
 10
-0.164000
 20
2.011400
  0
VERTEX
  8
gg1
 10
-0.164000
 20
2.001500
  0
SEQEND
  8
gg1
  0
POLYLINE
  8
gg1
 62
1
 40
0.000000
 41
0.000000
 66
  1
  0
VERTEX
  8
gg1
 10
0.059000
 20
1.487000
  0
VERTEX
  8
gg1
 10
0.059000
 20
1.547000
  0
VERTEX
  8
gg1
 10
0.029100
 20
1.517000
  0
VERTEX
  8
gg1
 10
0.069000
 20
1.517000
  0
SEQEND
  8
gg1
  0
POLYLINE
  8
gg1
 62
1
 40
0.000000
 41
0.000000
 66
  1
  0
VERTEX
  8
gg1
 10
0.089000
 20
1.537000
  0
VERTEX
  8
gg1
 10
0.099000
 20
1.547000
  0
VERTEX
  8
gg1
 10
0.119000
 20
1.547000
  0
VERTEX
  8
gg1
 10
0.129000
 20
1.537000
  0
VERTEX
  8
gg1
 10
0.129000
 20
1.497000
  0
VERTEX
  8
gg1
 10
0.119000
 20
1.487000
  0
VERTEX
  8
gg1
 10
0.099000
 20
1.487000
  0
VERTEX
  8
gg1
 10
0.089000
 20
1.497000
  0
VERTEX
  8
gg1
 10
0.089000
 20
1.537000
  0
SEQEND
  8
gg1
  0
POLYLINE
  8
gg1
 62
1
 40
0.000000
 41
0.000000
 66
  1
  0
VERTEX
  8
gg1
 10
0.149000
 20
1.537000
  0
VERTEX
  8
gg1
 10
0.159000
 20
1.547000
  0
VERTEX
  8
gg1
 10
0.179000
 20
1.547000
  0
VERTEX
  8
gg1
 10
0.189000
 20
1.537000
  0
VERTEX
  8
gg1
 10
0.189000
 20
1.497000
  0
VERTEX
  8
gg1
 10
0.179000
 20
1.487000
  0
VERTEX
  8
gg1
 10
0.159000
 20
1.487000
  0
VERTEX
  8
gg1
 10
0.149000
 20
1.497000
  0
VERTEX
  8
gg1
 10
0.149000
 20
1.537000
  0
SEQEND
  8
gg1
  0
POLYLINE
  8
gg1
 62
1
 40
0.000000
 41
0.000000
 66
  1
  0
VERTEX
  8
gg1
 10
0.209000
 20
1.487000
  0
VERTEX
  8
gg1
 10
0.209000
 20
1.527000
  0
VERTEX
  8
gg1
 10
0.219000
 20
1.527000
  0
VERTEX
  8
gg1
 10
0.229000
 20
1.517000
  0
VERTEX
  8
gg1
 10
0.229000
 20
1.487000
  0
VERTEX
  8
gg1
 10
0.229000
 20
1.517000
  0
VERTEX
  8
gg1
 10
0.239000
 20
1.527000
  0
VERTEX
  8
gg1
 10
0.249000
 20
1.517000
  0
VERTEX
  8
gg1
 10
0.249000
 20
1.487000
  0
SEQEND
  8
gg1
  0
POLYLINE
  8
gg1
 62
1
 40
0.000000
 41
0.000000
 66
  1
  0
VERTEX
  8
gg1
 10
0.269000
 20
1.487000
  0
VERTEX
  8
gg1
 10
0.289000
 20
1.487000
  0
VERTEX
  8
gg1
 10
0.279000
 20
1.487000
  0
VERTEX
  8
gg1
 10
0.279000
 20
1.527000
  0
VERTEX
  8
gg1
 10
0.269000
 20
1.527000
  0
SEQEND
  8
gg1
  0
POLYLINE
  8
gg1
 62
1
 40
0.000000
 41
0.000000
 66
  1
  0
VERTEX
  8
gg1
 10
0.319000
 20
1.487000
  0
VERTEX
  8
gg1
 10
0.339000
 20
1.487000
  0
VERTEX
  8
gg1
 10
0.329000
 20
1.487000
  0
VERTEX
  8
gg1
 10
0.329000
 20
1.547000
  0
VERTEX
  8
gg1
 10
0.319000
 20
1.547000
  0
SEQEND
  8
gg1
  0
POLYLINE
  8
gg1
 62
1
 40
0.000000
 41
0.000000
 66
  1
  0
VERTEX
  8
gg1
 10
1.151700
 20
0.142300
  0
VERTEX
  8
gg1
 10
1.242200
 20
0.142300
  0
SEQEND
  8
gg1
  0
POLYLINE
  8
gg1
 62
1
 40
0.000000
 41
0.000000
 66
  1
  0
VERTEX
  8
gg1
 10
1.197000
 20
0.097000
  0
VERTEX
  8
gg1
 10
1.197000
 20
0.187600
  0
SEQEND
  8
gg1
  0
POLYLINE
  8
gg1
 62
1
 40
0.000000
 41
0.000000
 66
  1
  0
VERTEX
  8
gg1
 10
1.153700
 20
0.624600
  0
VERTEX
  8
gg1
 10
1.260000
 20
0.624600
  0
SEQEND
  8
gg1
  0
POLYLINE
  8
gg1
 62
1
 40
0.000000
 41
0.000000
 66
  1
  0
VERTEX
  8
gg1
 10
1.206800
 20
0.571400
  0
VERTEX
  8
gg1
 10
1.206800
 20
0.677700
  0
SEQEND
  8
gg1
  0
POLYLINE
  8
gg1
 62
1
 40
0.000000
 41
0.000000
 66
  1
  0
VERTEX
  8
gg1
 10
0.561100
 20
2.347000
  0
VERTEX
  8
gg1
 10
0.651700
 20
2.347000
  0
SEQEND
  8
gg1
  0
POLYLINE
  8
gg1
 62
1
 40
0.000000
 41
0.000000
 66
  1
  0
VERTEX
  8
gg1
 10
0.606400
 20
2.301700
  0
VERTEX
  8
gg1
 10
0.606400
 20
2.392300
  0
SEQEND
  8
gg1
  0
POLYLINE
  8
gg1
 62
1
 40
0.000000
 41
0.000000
 66
  1
  0
VERTEX
  8
gg1
 10
0.561100
 20
1.864700
  0
VERTEX
  8
gg1
 10
0.651700
 20
1.864700
  0
SEQEND
  8
gg1
  0
POLYLINE
  8
gg1
 62
1
 40
0.000000
 41
0.000000
 66
  1
  0
VERTEX
  8
gg1
 10
0.606400
 20
1.819400
  0
VERTEX
  8
gg1
 10
0.606400
 20
1.910000
  0
SEQEND
  8
gg1
  0
POLYLINE
  8
gg1
 62
1
 40
0.000000
 41
0.000000
 66
  1
  0
VERTEX
  8
gg1
 10
0.561100
 20
1.382400
  0
VERTEX
  8
gg1
 10
0.651700
 20
1.382400
  0
SEQEND
  8
gg1
  0
POLYLINE
  8
gg1
 62
1
 40
0.000000
 41
0.000000
 66
  1
  0
VERTEX
  8
gg1
 10
0.606400
 20
1.337200
  0
VERTEX
  8
gg1
 10
0.606400
 20
1.427700
  0
SEQEND
  8
gg1
  0
POLYLINE
  8
gg1
 62
1
 40
0.000000
 41
0.000000
 66
  1
  0
VERTEX
  8
gg1
 10
1.151700
 20
1.106900
  0
VERTEX
  8
gg1
 10
1.242200
 20
1.106900
  0
SEQEND
  8
gg1
  0
POLYLINE
  8
gg1
 62
1
 40
0.000000
 41
0.000000
 66
  1
  0
VERTEX
  8
gg1
 10
1.197000
 20
1.061600
  0
VERTEX
  8
gg1
 10
1.197000
 20
1.152100
  0
SEQEND
  8
gg1
  0
POLYLINE
  8
gg1
 62
1
 40
0.000000
 41
0.000000
 66
  1
  0
VERTEX
  8
gg1
 10
0.758000
 20
1.106900
  0
VERTEX
  8
gg1
 10
0.848500
 20
1.106900
  0
SEQEND
  8
gg1
  0
POLYLINE
  8
gg1
 62
1
 40
0.000000
 41
0.000000
 66
  1
  0
VERTEX
  8
gg1
 10
0.803300
 20
1.061600
  0
VERTEX
  8
gg1
 10
0.803300
 20
1.152100
  0
SEQEND
  8
gg1
  0
POLYLINE
  8
gg1
 62
1
 40
0.000000
 41
0.000000
 66
  1
  0
VERTEX
  8
gg1
 10
0.364300
 20
1.106900
  0
VERTEX
  8
gg1
 10
0.454800
 20
1.106900
  0
SEQEND
  8
gg1
  0
POLYLINE
  8
gg1
 62
1
 40
0.000000
 41
0.000000
 66
  1
  0
VERTEX
  8
gg1
 10
0.409600
 20
1.061600
  0
VERTEX
  8
gg1
 10
0.409600
 20
1.152100
  0
SEQEND
  8
gg1
  0
POLYLINE
  8
gg1
 62
1
 40
0.000000
 41
0.000000
 66
  1
  0
VERTEX
  8
gg1
 10
0.758000
 20
0.624600
  0
VERTEX
  8
gg1
 10
0.848500
 20
0.624600
  0
SEQEND
  8
gg1
  0
POLYLINE
  8
gg1
 62
1
 40
0.000000
 41
0.000000
 66
  1
  0
VERTEX
  8
gg1
 10
0.803300
 20
0.579300
  0
VERTEX
  8
gg1
 10
0.803300
 20
0.669800
  0
SEQEND
  8
gg1
  0
POLYLINE
  8
gg1
 62
1
 40
0.000000
 41
0.000000
 66
  1
  0
VERTEX
  8
gg1
 10
0.364300
 20
0.624600
  0
VERTEX
  8
gg1
 10
0.454800
 20
0.624600
  0
SEQEND
  8
gg1
  0
POLYLINE
  8
gg1
 62
1
 40
0.000000
 41
0.000000
 66
  1
  0
VERTEX
  8
gg1
 10
0.409600
 20
0.579300
  0
VERTEX
  8
gg1
 10
0.409600
 20
0.669800
  0
SEQEND
  8
gg1
  0
POLYLINE
  8
gg1
 62
1
 40
0.000000
 41
0.000000
 66
  1
  0
VERTEX
  8
gg1
 10
0.925000
 20
0.848200
  0
VERTEX
  8
gg1
 10
0.965000
 20
0.848200
  0
SEQEND
  8
gg1
  0
POLYLINE
  8
gg1
 62
1
 40
0.000000
 41
0.000000
 66
  1
  0
VERTEX
  8
gg1
 10
0.945000
 20
0.828200
  0
VERTEX
  8
gg1
 10
0.945000
 20
0.868200
  0
SEQEND
  8
gg1
  0
POLYLINE
  8
gg1
 62
1
 40
0.000000
 41
0.000000
 66
  1
  0
VERTEX
  8
gg1
 10
0.825000
 20
0.848200
  0
VERTEX
  8
gg1
 10
0.865000
 20
0.848200
  0
SEQEND
  8
gg1
  0
POLYLINE
  8
gg1
 62
1
 40
0.000000
 41
0.000000
 66
  1
  0
VERTEX
  8
gg1
 10
0.845000
 20
0.828200
  0
VERTEX
  8
gg1
 10
0.845000
 20
0.868200
  0
SEQEND
  8
gg1
  0
POLYLINE
  8
gg1
 62
1
 40
0.000000
 41
0.000000
 66
  1
  0
VERTEX
  8
gg1
 10
0.725000
 20
0.848200
  0
VERTEX
  8
gg1
 10
0.765000
 20
0.848200
  0
SEQEND
  8
gg1
  0
POLYLINE
  8
gg1
 62
1
 40
0.000000
 41
0.000000
 66
  1
  0
VERTEX
  8
gg1
 10
0.745000
 20
0.828200
  0
VERTEX
  8
gg1
 10
0.745000
 20
0.868200
  0
SEQEND
  8
gg1
  0
POLYLINE
  8
gg1
 62
1
 40
0.000000
 41
0.000000
 66
  1
  0
VERTEX
  8
gg1
 10
0.625000
 20
0.848200
  0
VERTEX
  8
gg1
 10
0.665000
 20
0.848200
  0
SEQEND
  8
gg1
  0
POLYLINE
  8
gg1
 62
1
 40
0.000000
 41
0.000000
 66
  1
  0
VERTEX
  8
gg1
 10
0.645000
 20
0.828200
  0
VERTEX
  8
gg1
 10
0.645000
 20
0.868200
  0
SEQEND
  8
gg1
  0
POLYLINE
  8
gg1
 62
1
 40
0.000000
 41
0.000000
 66
  1
  0
VERTEX
  8
gg1
 10
0.525000
 20
0.848200
  0
VERTEX
  8
gg1
 10
0.565000
 20
0.848200
  0
SEQEND
  8
gg1
  0
POLYLINE
  8
gg1
 62
1
 40
0.000000
 41
0.000000
 66
  1
  0
VERTEX
  8
gg1
 10
0.545000
 20
0.828200
  0
VERTEX
  8
gg1
 10
0.545000
 20
0.868200
  0
SEQEND
  8
gg1
  0
POLYLINE
  8
gg1
 62
1
 40
0.000000
 41
0.000000
 66
  1
  0
VERTEX
  8
gg1
 10
1.025000
 20
0.848200
  0
VERTEX
  8
gg1
 10
1.065000
 20
0.848200
  0
SEQEND
  8
gg1
  0
POLYLINE
  8
gg1
 62
1
 40
0.000000
 41
0.000000
 66
  1
  0
VERTEX
  8
gg1
 10
1.045000
 20
0.828200
  0
VERTEX
  8
gg1
 10
1.045000
 20
0.868200
  0
SEQEND
  8
gg1
  0
POLYLINE
  8
gg1
 62
1
 40
0.000000
 41
0.000000
 66
  1
  0
VERTEX
  8
gg1
 10
1.125000
 20
0.848200
  0
VERTEX
  8
gg1
 10
1.165000
 20
0.848200
  0
SEQEND
  8
gg1
  0
POLYLINE
  8
gg1
 62
1
 40
0.000000
 41
0.000000
 66
  1
  0
VERTEX
  8
gg1
 10
1.145000
 20
0.828200
  0
VERTEX
  8
gg1
 10
1.145000
 20
0.868200
  0
SEQEND
  8
gg1
  0
POLYLINE
  8
gg1
 62
1
 40
0.000000
 41
0.000000
 66
  1
  0
VERTEX
  8
gg1
 10
1.225000
 20
0.848200
  0
VERTEX
  8
gg1
 10
1.265000
 20
0.848200
  0
SEQEND
  8
gg1
  0
POLYLINE
  8
gg1
 62
1
 40
0.000000
 41
0.000000
 66
  1
  0
VERTEX
  8
gg1
 10
1.245000
 20
0.828200
  0
VERTEX
  8
gg1
 10
1.245000
 20
0.868200
  0
SEQEND
  8
gg1
  0
POLYLINE
  8
gg1
 62
1
 40
0.000000
 41
0.000000
 66
  1
  0
VERTEX
  8
gg1
 10
0.895000
 20
1.680000
  0
VERTEX
  8
gg1
 10
0.935000
 20
1.680000
  0
SEQEND
  8
gg1
  0
POLYLINE
  8
gg1
 62
1
 40
0.000000
 41
0.000000
 66
  1
  0
VERTEX
  8
gg1
 10
0.915000
 20
1.660000
  0
VERTEX
  8
gg1
 10
0.915000
 20
1.700000
  0
SEQEND
  8
gg1
  0
POLYLINE
  8
gg1
 62
1
 40
0.000000
 41
0.000000
 66
  1
  0
VERTEX
  8
gg1
 10
0.895000
 20
1.780000
  0
VERTEX
  8
gg1
 10
0.935000
 20
1.780000
  0
SEQEND
  8
gg1
  0
POLYLINE
  8
gg1
 62
1
 40
0.000000
 41
0.000000
 66
  1
  0
VERTEX
  8
gg1
 10
0.915000
 20
1.760000
  0
VERTEX
  8
gg1
 10
0.915000
 20
1.800000
  0
SEQEND
  8
gg1
  0
POLYLINE
  8
gg1
 62
1
 40
0.000000
 41
0.000000
 66
  1
  0
VERTEX
  8
gg1
 10
0.895000
 20
1.880000
  0
VERTEX
  8
gg1
 10
0.935000
 20
1.880000
  0
SEQEND
  8
gg1
  0
POLYLINE
  8
gg1
 62
1
 40
0.000000
 41
0.000000
 66
  1
  0
VERTEX
  8
gg1
 10
0.915000
 20
1.860000
  0
VERTEX
  8
gg1
 10
0.915000
 20
1.900000
  0
SEQEND
  8
gg1
  0
POLYLINE
  8
gg1
 62
1
 40
0.000000
 41
0.000000
 66
  1
  0
VERTEX
  8
gg1
 10
0.653800
 20
0.405000
  0
VERTEX
  8
gg1
 10
0.713800
 20
0.405000
  0
SEQEND
  8
gg1
  0
POLYLINE
  8
gg1
 62
1
 40
0.000000
 41
0.000000
 66
  1
  0
VERTEX
  8
gg1
 10
0.683800
 20
0.375000
  0
VERTEX
  8
gg1
 10
0.683800
 20
0.435000
  0
SEQEND
  8
gg1
  0
POLYLINE
  8
gg1
 62
1
 40
0.000000
 41
0.000000
 66
  1
  0
VERTEX
  8
gg1
 10
0.791600
 20
0.405000
  0
VERTEX
  8
gg1
 10
0.851600
 20
0.405000
  0
SEQEND
  8
gg1
  0
POLYLINE
  8
gg1
 62
1
 40
0.000000
 41
0.000000
 66
  1
  0
VERTEX
  8
gg1
 10
0.821600
 20
0.375000
  0
VERTEX
  8
gg1
 10
0.821600
 20
0.435000
  0
SEQEND
  8
gg1
  0
POLYLINE
  8
gg1
 62
1
 40
0.000000
 41
0.000000
 66
  1
  0
VERTEX
  8
gg1
 10
0.050000
 20
0.910000
  0
VERTEX
  8
gg1
 10
0.090000
 20
0.910000
  0
SEQEND
  8
gg1
  0
POLYLINE
  8
gg1
 62
1
 40
0.000000
 41
0.000000
 66
  1
  0
VERTEX
  8
gg1
 10
0.070000
 20
0.890000
  0
VERTEX
  8
gg1
 10
0.070000
 20
0.930000
  0
SEQEND
  8
gg1
  0
POLYLINE
  8
gg1
 62
1
 40
0.000000
 41
0.000000
 66
  1
  0
VERTEX
  8
gg1
 10
0.050000
 20
0.339100
  0
VERTEX
  8
gg1
 10
0.090000
 20
0.339100
  0
SEQEND
  8
gg1
  0
POLYLINE
  8
gg1
 62
1
 40
0.000000
 41
0.000000
 66
  1
  0
VERTEX
  8
gg1
 10
0.070000
 20
0.319100
  0
VERTEX
  8
gg1
 10
0.070000
 20
0.359100
  0
SEQEND
  8
gg1
  0
POLYLINE
  8
gg1
 62
1
 40
0.000000
 41
0.000000
 66
  1
  0
VERTEX
  8
gg1
 10
1.058900
 20
1.579300
  0
VERTEX
  8
gg1
 10
1.098900
 20
1.579300
  0
SEQEND
  8
gg1
  0
POLYLINE
  8
gg1
 62
1
 40
0.000000
 41
0.000000
 66
  1
  0
VERTEX
  8
gg1
 10
1.078900
 20
1.559300
  0
VERTEX
  8
gg1
 10
1.078900
 20
1.599300
  0
SEQEND
  8
gg1
  0
POLYLINE
  8
gg1
 62
1
 40
0.000000
 41
0.000000
 66
  1
  0
VERTEX
  8
gg1
 10
1.058900
 20
2.150200
  0
VERTEX
  8
gg1
 10
1.098900
 20
2.150200
  0
SEQEND
  8
gg1
  0
POLYLINE
  8
gg1
 62
1
 40
0.000000
 41
0.000000
 66
  1
  0
VERTEX
  8
gg1
 10
1.078900
 20
2.130200
  0
VERTEX
  8
gg1
 10
1.078900
 20
2.170200
  0
SEQEND
  8
gg1
  0
POLYLINE
  8
gg1
 62
1
 40
0.000000
 41
0.000000
 66
  1
  0
VERTEX
  8
gg1
 10
0.653800
 20
0.295000
  0
VERTEX
  8
gg1
 10
0.713800
 20
0.295000
  0
SEQEND
  8
gg1
  0
POLYLINE
  8
gg1
 62
1
 40
0.000000
 41
0.000000
 66
  1
  0
VERTEX
  8
gg1
 10
0.683800
 20
0.265000
  0
VERTEX
  8
gg1
 10
0.683800
 20
0.325000
  0
SEQEND
  8
gg1
  0
POLYLINE
  8
gg1
 62
1
 40
0.000000
 41
0.000000
 66
  1
  0
VERTEX
  8
gg1
 10
0.791600
 20
0.295000
  0
VERTEX
  8
gg1
 10
0.851600
 20
0.295000
  0
SEQEND
  8
gg1
  0
POLYLINE
  8
gg1
 62
1
 40
0.000000
 41
0.000000
 66
  1
  0
VERTEX
  8
gg1
 10
0.821600
 20
0.265000
  0
VERTEX
  8
gg1
 10
0.821600
 20
0.325000
  0
SEQEND
  8
gg1
  0
POLYLINE
  8
gg1
 62
1
 40
0.000000
 41
0.000000
 66
  1
  0
VERTEX
  8
gg1
 10
1.205000
 20
0.295000
  0
VERTEX
  8
gg1
 10
1.265000
 20
0.295000
  0
SEQEND
  8
gg1
  0
POLYLINE
  8
gg1
 62
1
 40
0.000000
 41
0.000000
 66
  1
  0
VERTEX
  8
gg1
 10
1.235000
 20
0.265000
  0
VERTEX
  8
gg1
 10
1.235000
 20
0.325000
  0
SEQEND
  8
gg1
  0
POLYLINE
  8
gg1
 62
1
 40
0.000000
 41
0.000000
 66
  1
  0
VERTEX
  8
gg1
 10
1.067200
 20
0.295000
  0
VERTEX
  8
gg1
 10
1.127200
 20
0.295000
  0
SEQEND
  8
gg1
  0
POLYLINE
  8
gg1
 62
1
 40
0.000000
 41
0.000000
 66
  1
  0
VERTEX
  8
gg1
 10
1.097200
 20
0.265000
  0
VERTEX
  8
gg1
 10
1.097200
 20
0.325000
  0
SEQEND
  8
gg1
  0
POLYLINE
  8
gg1
 62
1
 40
0.000000
 41
0.000000
 66
  1
  0
VERTEX
  8
gg1
 10
0.929400
 20
0.295000
  0
VERTEX
  8
gg1
 10
0.989400
 20
0.295000
  0
SEQEND
  8
gg1
  0
POLYLINE
  8
gg1
 62
1
 40
0.000000
 41
0.000000
 66
  1
  0
VERTEX
  8
gg1
 10
0.959400
 20
0.265000
  0
VERTEX
  8
gg1
 10
0.959400
 20
0.325000
  0
SEQEND
  8
gg1
  0
POLYLINE
  8
gg1
 62
1
 40
0.000000
 41
0.000000
 66
  1
  0
VERTEX
  8
gg1
 10
1.205000
 20
0.405000
  0
VERTEX
  8
gg1
 10
1.265000
 20
0.405000
  0
SEQEND
  8
gg1
  0
POLYLINE
  8
gg1
 62
1
 40
0.000000
 41
0.000000
 66
  1
  0
VERTEX
  8
gg1
 10
1.235000
 20
0.375000
  0
VERTEX
  8
gg1
 10
1.235000
 20
0.435000
  0
SEQEND
  8
gg1
  0
POLYLINE
  8
gg1
 62
1
 40
0.000000
 41
0.000000
 66
  1
  0
VERTEX
  8
gg1
 10
1.067200
 20
0.405000
  0
VERTEX
  8
gg1
 10
1.127200
 20
0.405000
  0
SEQEND
  8
gg1
  0
POLYLINE
  8
gg1
 62
1
 40
0.000000
 41
0.000000
 66
  1
  0
VERTEX
  8
gg1
 10
1.097200
 20
0.375000
  0
VERTEX
  8
gg1
 10
1.097200
 20
0.435000
  0
SEQEND
  8
gg1
  0
POLYLINE
  8
gg1
 62
1
 40
0.000000
 41
0.000000
 66
  1
  0
VERTEX
  8
gg1
 10
0.929400
 20
0.405000
  0
VERTEX
  8
gg1
 10
0.989400
 20
0.405000
  0
SEQEND
  8
gg1
  0
POLYLINE
  8
gg1
 62
1
 40
0.000000
 41
0.000000
 66
  1
  0
VERTEX
  8
gg1
 10
0.959400
 20
0.375000
  0
VERTEX
  8
gg1
 10
0.959400
 20
0.435000
  0
SEQEND
  8
gg1
  0
POLYLINE
  8
gg1
 62
1
 40
0.000000
 41
0.000000
 66
  1
  0
VERTEX
  8
gg1
 10
0.895000
 20
2.080000
  0
VERTEX
  8
gg1
 10
0.935000
 20
2.080000
  0
SEQEND
  8
gg1
  0
POLYLINE
  8
gg1
 62
1
 40
0.000000
 41
0.000000
 66
  1
  0
VERTEX
  8
gg1
 10
0.915000
 20
2.060000
  0
VERTEX
  8
gg1
 10
0.915000
 20
2.100000
  0
SEQEND
  8
gg1
  0
POLYLINE
  8
gg1
 62
1
 40
0.000000
 41
0.000000
 66
  1
  0
VERTEX
  8
gg1
 10
0.895000
 20
1.980000
  0
VERTEX
  8
gg1
 10
0.935000
 20
1.980000
  0
SEQEND
  8
gg1
  0
POLYLINE
  8
gg1
 62
1
 40
0.000000
 41
0.000000
 66
  1
  0
VERTEX
  8
gg1
 10
0.915000
 20
1.960000
  0
VERTEX
  8
gg1
 10
0.915000
 20
2.000000
  0
SEQEND
  8
gg1
  0
POLYLINE
  8
gg1
 62
1
 40
0.000000
 41
0.000000
 66
  1
  0
VERTEX
  8
gg1
 10
0.725000
 20
1.980000
  0
VERTEX
  8
gg1
 10
0.765000
 20
1.980000
  0
SEQEND
  8
gg1
  0
POLYLINE
  8
gg1
 62
1
 40
0.000000
 41
0.000000
 66
  1
  0
VERTEX
  8
gg1
 10
0.745000
 20
1.960000
  0
VERTEX
  8
gg1
 10
0.745000
 20
2.000000
  0
SEQEND
  8
gg1
  0
POLYLINE
  8
gg1
 62
1
 40
0.000000
 41
0.000000
 66
  1
  0
VERTEX
  8
gg1
 10
0.725000
 20
1.480000
  0
VERTEX
  8
gg1
 10
0.765000
 20
1.480000
  0
SEQEND
  8
gg1
  0
POLYLINE
  8
gg1
 62
1
 40
0.000000
 41
0.000000
 66
  1
  0
VERTEX
  8
gg1
 10
0.745000
 20
1.460000
  0
VERTEX
  8
gg1
 10
0.745000
 20
1.500000
  0
SEQEND
  8
gg1
  0
POLYLINE
  8
gg1
 62
1
 40
0.000000
 41
0.000000
 66
  1
  0
VERTEX
  8
gg1
 10
0.725000
 20
1.780000
  0
VERTEX
  8
gg1
 10
0.765000
 20
1.780000
  0
SEQEND
  8
gg1
  0
POLYLINE
  8
gg1
 62
1
 40
0.000000
 41
0.000000
 66
  1
  0
VERTEX
  8
gg1
 10
0.745000
 20
1.760000
  0
VERTEX
  8
gg1
 10
0.745000
 20
1.800000
  0
SEQEND
  8
gg1
  0
POLYLINE
  8
gg1
 62
1
 40
0.000000
 41
0.000000
 66
  1
  0
VERTEX
  8
gg1
 10
0.725000
 20
1.580000
  0
VERTEX
  8
gg1
 10
0.765000
 20
1.580000
  0
SEQEND
  8
gg1
  0
POLYLINE
  8
gg1
 62
1
 40
0.000000
 41
0.000000
 66
  1
  0
VERTEX
  8
gg1
 10
0.745000
 20
1.560000
  0
VERTEX
  8
gg1
 10
0.745000
 20
1.600000
  0
SEQEND
  8
gg1
  0
POLYLINE
  8
gg1
 62
1
 40
0.000000
 41
0.000000
 66
  1
  0
VERTEX
  8
gg1
 10
0.725000
 20
1.680000
  0
VERTEX
  8
gg1
 10
0.765000
 20
1.680000
  0
SEQEND
  8
gg1
  0
POLYLINE
  8
gg1
 62
1
 40
0.000000
 41
0.000000
 66
  1
  0
VERTEX
  8
gg1
 10
0.745000
 20
1.660000
  0
VERTEX
  8
gg1
 10
0.745000
 20
1.700000
  0
SEQEND
  8
gg1
  0
POLYLINE
  8
gg1
 62
1
 40
0.000000
 41
0.000000
 66
  1
  0
VERTEX
  8
gg1
 10
0.725000
 20
1.880000
  0
VERTEX
  8
gg1
 10
0.765000
 20
1.880000
  0
SEQEND
  8
gg1
  0
POLYLINE
  8
gg1
 62
1
 40
0.000000
 41
0.000000
 66
  1
  0
VERTEX
  8
gg1
 10
0.745000
 20
1.860000
  0
VERTEX
  8
gg1
 10
0.745000
 20
1.900000
  0
SEQEND
  8
gg1
  0
POLYLINE
  8
gg1
 62
1
 40
0.000000
 41
0.000000
 66
  1
  0
VERTEX
  8
gg1
 10
0.825000
 20
0.948200
  0
VERTEX
  8
gg1
 10
0.865000
 20
0.948200
  0
SEQEND
  8
gg1
  0
POLYLINE
  8
gg1
 62
1
 40
0.000000
 41
0.000000
 66
  1
  0
VERTEX
  8
gg1
 10
0.845000
 20
0.928200
  0
VERTEX
  8
gg1
 10
0.845000
 20
0.968200
  0
SEQEND
  8
gg1
  0
POLYLINE
  8
gg1
 62
1
 40
0.000000
 41
0.000000
 66
  1
  0
VERTEX
  8
gg1
 10
0.925000
 20
0.948200
  0
VERTEX
  8
gg1
 10
0.965000
 20
0.948200
  0
SEQEND
  8
gg1
  0
POLYLINE
  8
gg1
 62
1
 40
0.000000
 41
0.000000
 66
  1
  0
VERTEX
  8
gg1
 10
0.945000
 20
0.928200
  0
VERTEX
  8
gg1
 10
0.945000
 20
0.968200
  0
SEQEND
  8
gg1
  0
POLYLINE
  8
gg1
 62
1
 40
0.000000
 41
0.000000
 66
  1
  0
VERTEX
  8
gg1
 10
1.025000
 20
0.948200
  0
VERTEX
  8
gg1
 10
1.065000
 20
0.948200
  0
SEQEND
  8
gg1
  0
POLYLINE
  8
gg1
 62
1
 40
0.000000
 41
0.000000
 66
  1
  0
VERTEX
  8
gg1
 10
1.045000
 20
0.928200
  0
VERTEX
  8
gg1
 10
1.045000
 20
0.968200
  0
SEQEND
  8
gg1
  0
POLYLINE
  8
gg1
 62
1
 40
0.000000
 41
0.000000
 66
  1
  0
VERTEX
  8
gg1
 10
1.125000
 20
0.948200
  0
VERTEX
  8
gg1
 10
1.165000
 20
0.948200
  0
SEQEND
  8
gg1
  0
POLYLINE
  8
gg1
 62
1
 40
0.000000
 41
0.000000
 66
  1
  0
VERTEX
  8
gg1
 10
1.145000
 20
0.928200
  0
VERTEX
  8
gg1
 10
1.145000
 20
0.968200
  0
SEQEND
  8
gg1
  0
POLYLINE
  8
gg1
 62
1
 40
0.000000
 41
0.000000
 66
  1
  0
VERTEX
  8
gg1
 10
1.225000
 20
0.948200
  0
VERTEX
  8
gg1
 10
1.265000
 20
0.948200
  0
SEQEND
  8
gg1
  0
POLYLINE
  8
gg1
 62
1
 40
0.000000
 41
0.000000
 66
  1
  0
VERTEX
  8
gg1
 10
1.245000
 20
0.928200
  0
VERTEX
  8
gg1
 10
1.245000
 20
0.968200
  0
SEQEND
  8
gg1
  0
POLYLINE
  8
gg1
 62
1
 40
0.000000
 41
0.000000
 66
  1
  0
VERTEX
  8
gg1
 10
0.725000
 20
0.948200
  0
VERTEX
  8
gg1
 10
0.765000
 20
0.948200
  0
SEQEND
  8
gg1
  0
POLYLINE
  8
gg1
 62
1
 40
0.000000
 41
0.000000
 66
  1
  0
VERTEX
  8
gg1
 10
0.745000
 20
0.928200
  0
VERTEX
  8
gg1
 10
0.745000
 20
0.968200
  0
SEQEND
  8
gg1
  0
POLYLINE
  8
gg1
 62
1
 40
0.000000
 41
0.000000
 66
  1
  0
VERTEX
  8
gg1
 10
0.625000
 20
0.948200
  0
VERTEX
  8
gg1
 10
0.665000
 20
0.948200
  0
SEQEND
  8
gg1
  0
POLYLINE
  8
gg1
 62
1
 40
0.000000
 41
0.000000
 66
  1
  0
VERTEX
  8
gg1
 10
0.645000
 20
0.928200
  0
VERTEX
  8
gg1
 10
0.645000
 20
0.968200
  0
SEQEND
  8
gg1
  0
POLYLINE
  8
gg1
 62
1
 40
0.000000
 41
0.000000
 66
  1
  0
VERTEX
  8
gg1
 10
0.525000
 20
0.948200
  0
VERTEX
  8
gg1
 10
0.565000
 20
0.948200
  0
SEQEND
  8
gg1
  0
POLYLINE
  8
gg1
 62
1
 40
0.000000
 41
0.000000
 66
  1
  0
VERTEX
  8
gg1
 10
0.545000
 20
0.928200
  0
VERTEX
  8
gg1
 10
0.545000
 20
0.968200
  0
SEQEND
  8
gg1
  0
POLYLINE
  8
gg1
 62
1
 40
0.000000
 41
0.000000
 66
  1
  0
VERTEX
  8
gg1
 10
0.895000
 20
1.580000
  0
VERTEX
  8
gg1
 10
0.935000
 20
1.580000
  0
SEQEND
  8
gg1
  0
POLYLINE
  8
gg1
 62
1
 40
0.000000
 41
0.000000
 66
  1
  0
VERTEX
  8
gg1
 10
0.915000
 20
1.560000
  0
VERTEX
  8
gg1
 10
0.915000
 20
1.600000
  0
SEQEND
  8
gg1
  0
POLYLINE
  8
gg1
 62
1
 40
0.000000
 41
0.000000
 66
  1
  0
VERTEX
  8
gg1
 10
0.895000
 20
1.480000
  0
VERTEX
  8
gg1
 10
0.935000
 20
1.480000
  0
SEQEND
  8
gg1
  0
POLYLINE
  8
gg1
 62
1
 40
0.000000
 41
0.000000
 66
  1
  0
VERTEX
  8
gg1
 10
0.915000
 20
1.460000
  0
VERTEX
  8
gg1
 10
0.915000
 20
1.500000
  0
SEQEND
  8
gg1
  0
POLYLINE
  8
gg1
 62
1
 40
0.000000
 41
0.000000
 66
  1
  0
VERTEX
  8
gg1
 10
0.080800
 20
0.090000
  0
VERTEX
  8
gg1
 10
0.108300
 20
0.090000
  0
SEQEND
  8
gg1
  0
POLYLINE
  8
gg1
 62
1
 40
0.000000
 41
0.000000
 66
  1
  0
VERTEX
  8
gg1
 10
0.094600
 20
0.076200
  0
VERTEX
  8
gg1
 10
0.094600
 20
0.103800
  0
SEQEND
  8
gg1
  0
POLYLINE
  8
gg1
 62
1
 40
0.000000
 41
0.000000
 66
  1
  0
VERTEX
  8
gg1
 10
0.151700
 20
0.090000
  0
VERTEX
  8
gg1
 10
0.179200
 20
0.090000
  0
SEQEND
  8
gg1
  0
POLYLINE
  8
gg1
 62
1
 40
0.000000
 41
0.000000
 66
  1
  0
VERTEX
  8
gg1
 10
0.165400
 20
0.076200
  0
VERTEX
  8
gg1
 10
0.165400
 20
0.103800
  0
SEQEND
  8
gg1
  0
POLYLINE
  8
gg1
 62
1
 40
0.000000
 41
0.000000
 66
  1
  0
VERTEX
  8
gg1
 10
0.471500
 20
0.075300
  0
VERTEX
  8
gg1
 10
0.506900
 20
0.075300
  0
SEQEND
  8
gg1
  0
POLYLINE
  8
gg1
 62
1
 40
0.000000
 41
0.000000
 66
  1
  0
VERTEX
  8
gg1
 10
0.489200
 20
0.057600
  0
VERTEX
  8
gg1
 10
0.489200
 20
0.093000
  0
SEQEND
  8
gg1
  0
POLYLINE
  8
gg1
 62
1
 40
0.000000
 41
0.000000
 66
  1
  0
VERTEX
  8
gg1
 10
0.353300
 20
0.075300
  0
VERTEX
  8
gg1
 10
0.388800
 20
0.075300
  0
SEQEND
  8
gg1
  0
POLYLINE
  8
gg1
 62
1
 40
0.000000
 41
0.000000
 66
  1
  0
VERTEX
  8
gg1
 10
0.371100
 20
0.057600
  0
VERTEX
  8
gg1
 10
0.371100
 20
0.093000
  0
SEQEND
  8
gg1
  0
POLYLINE
  8
gg1
 62
1
 40
0.000000
 41
0.000000
 66
  1
  0
VERTEX
  8
gg1
 10
0.725000
 20
2.080000
  0
VERTEX
  8
gg1
 10
0.765000
 20
2.080000
  0
SEQEND
  8
gg1
  0
POLYLINE
  8
gg1
 62
1
 40
0.000000
 41
0.000000
 66
  1
  0
VERTEX
  8
gg1
 10
0.745000
 20
2.060000
  0
VERTEX
  8
gg1
 10
0.745000
 20
2.100000
  0
SEQEND
  8
gg1
  0
POLYLINE
  8
gg1
 62
1
 40
0.000000
 41
0.000000
 66
  1
  0
VERTEX
  8
gg1
 10
0.442500
 20
0.205000
  0
VERTEX
  8
gg1
 10
0.457500
 20
0.205000
  0
SEQEND
  8
gg1
  0
POLYLINE
  8
gg1
 62
1
 40
0.000000
 41
0.000000
 66
  1
  0
VERTEX
  8
gg1
 10
0.450000
 20
0.197500
  0
VERTEX
  8
gg1
 10
0.450000
 20
0.212500
  0
SEQEND
  8
gg1
  0
POLYLINE
  8
gg1
 62
1
 40
0.000000
 41
0.000000
 66
  1
  0
VERTEX
  8
gg1
 10
0.407500
 20
0.205000
  0
VERTEX
  8
gg1
 10
0.422500
 20
0.205000
  0
SEQEND
  8
gg1
  0
POLYLINE
  8
gg1
 62
1
 40
0.000000
 41
0.000000
 66
  1
  0
VERTEX
  8
gg1
 10
0.415000
 20
0.197500
  0
VERTEX
  8
gg1
 10
0.415000
 20
0.212500
  0
SEQEND
  8
gg1
  0
POLYLINE
  8
gg1
 62
1
 40
0.000000
 41
0.000000
 66
  1
  0
VERTEX
  8
gg1
 10
0.431500
 20
1.256000
  0
VERTEX
  8
gg1
 10
0.446500
 20
1.256000
  0
SEQEND
  8
gg1
  0
POLYLINE
  8
gg1
 62
1
 40
0.000000
 41
0.000000
 66
  1
  0
VERTEX
  8
gg1
 10
0.439000
 20
1.248500
  0
VERTEX
  8
gg1
 10
0.439000
 20
1.263500
  0
SEQEND
  8
gg1
  0
POLYLINE
  8
gg1
 62
1
 40
0.000000
 41
0.000000
 66
  1
  0
VERTEX
  8
gg1
 10
0.473500
 20
0.847000
  0
VERTEX
  8
gg1
 10
0.488500
 20
0.847000
  0
SEQEND
  8
gg1
  0
POLYLINE
  8
gg1
 62
1
 40
0.000000
 41
0.000000
 66
  1
  0
VERTEX
  8
gg1
 10
0.481000
 20
0.839500
  0
VERTEX
  8
gg1
 10
0.481000
 20
0.854500
  0
SEQEND
  8
gg1
  0
POLYLINE
  8
gg1
 62
1
 40
0.000000
 41
0.000000
 66
  1
  0
VERTEX
  8
gg1
 10
0.239500
 20
0.916000
  0
VERTEX
  8
gg1
 10
0.254500
 20
0.916000
  0
SEQEND
  8
gg1
  0
POLYLINE
  8
gg1
 62
1
 40
0.000000
 41
0.000000
 66
  1
  0
VERTEX
  8
gg1
 10
0.247000
 20
0.908500
  0
VERTEX
  8
gg1
 10
0.247000
 20
0.923500
  0
SEQEND
  8
gg1
  0
POLYLINE
  8
gg1
 62
1
 40
0.000000
 41
0.000000
 66
  1
  0
VERTEX
  8
gg1
 10
1.232500
 20
2.045000
  0
VERTEX
  8
gg1
 10
1.247500
 20
2.045000
  0
SEQEND
  8
gg1
  0
POLYLINE
  8
gg1
 62
1
 40
0.000000
 41
0.000000
 66
  1
  0
VERTEX
  8
gg1
 10
1.240000
 20
2.037500
  0
VERTEX
  8
gg1
 10
1.240000
 20
2.052500
  0
SEQEND
  8
gg1
  0
POLYLINE
  8
gg1
 62
1
 40
0.000000
 41
0.000000
 66
  1
  0
VERTEX
  8
gg1
 10
1.232500
 20
2.160000
  0
VERTEX
  8
gg1
 10
1.247500
 20
2.160000
  0
SEQEND
  8
gg1
  0
POLYLINE
  8
gg1
 62
1
 40
0.000000
 41
0.000000
 66
  1
  0
VERTEX
  8
gg1
 10
1.240000
 20
2.152500
  0
VERTEX
  8
gg1
 10
1.240000
 20
2.167500
  0
SEQEND
  8
gg1
  0
POLYLINE
  8
gg1
 62
1
 40
0.000000
 41
0.000000
 66
  1
  0
VERTEX
  8
gg1
 10
1.232500
 20
2.275000
  0
VERTEX
  8
gg1
 10
1.247500
 20
2.275000
  0
SEQEND
  8
gg1
  0
POLYLINE
  8
gg1
 62
1
 40
0.000000
 41
0.000000
 66
  1
  0
VERTEX
  8
gg1
 10
1.240000
 20
2.267500
  0
VERTEX
  8
gg1
 10
1.240000
 20
2.282500
  0
SEQEND
  8
gg1
  0
POLYLINE
  8
gg1
 62
1
 40
0.000000
 41
0.000000
 66
  1
  0
VERTEX
  8
gg1
 10
0.227500
 20
0.965000
  0
VERTEX
  8
gg1
 10
0.242500
 20
0.965000
  0
SEQEND
  8
gg1
  0
POLYLINE
  8
gg1
 62
1
 40
0.000000
 41
0.000000
 66
  1
  0
VERTEX
  8
gg1
 10
0.235000
 20
0.957500
  0
VERTEX
  8
gg1
 10
0.235000
 20
0.972500
  0
SEQEND
  8
gg1
  0
POLYLINE
  8
gg1
 62
1
 40
0.000000
 41
0.000000
 66
  1
  0
VERTEX
  8
gg1
 10
0.247500
 20
1.080000
  0
VERTEX
  8
gg1
 10
0.262500
 20
1.080000
  0
SEQEND
  8
gg1
  0
POLYLINE
  8
gg1
 62
1
 40
0.000000
 41
0.000000
 66
  1
  0
VERTEX
  8
gg1
 10
0.255000
 20
1.072500
  0
VERTEX
  8
gg1
 10
0.255000
 20
1.087500
  0
SEQEND
  8
gg1
  0
POLYLINE
  8
gg1
 62
1
 40
0.000000
 41
0.000000
 66
  1
  0
VERTEX
  8
gg1
 10
0.267500
 20
1.045000
  0
VERTEX
  8
gg1
 10
0.282500
 20
1.045000
  0
SEQEND
  8
gg1
  0
POLYLINE
  8
gg1
 62
1
 40
0.000000
 41
0.000000
 66
  1
  0
VERTEX
  8
gg1
 10
0.275000
 20
1.037500
  0
VERTEX
  8
gg1
 10
0.275000
 20
1.052500
  0
SEQEND
  8
gg1
  0
POLYLINE
  8
gg1
 62
1
 40
0.000000
 41
0.000000
 66
  1
  0
VERTEX
  8
gg1
 10
0.287500
 20
1.005000
  0
VERTEX
  8
gg1
 10
0.302500
 20
1.005000
  0
SEQEND
  8
gg1
  0
POLYLINE
  8
gg1
 62
1
 40
0.000000
 41
0.000000
 66
  1
  0
VERTEX
  8
gg1
 10
0.295000
 20
0.997500
  0
VERTEX
  8
gg1
 10
0.295000
 20
1.012500
  0
SEQEND
  8
gg1
  0
POLYLINE
  8
gg1
 62
1
 40
0.000000
 41
0.000000
 66
  1
  0
VERTEX
  8
gg1
 10
0.657500
 20
0.055000
  0
VERTEX
  8
gg1
 10
0.672500
 20
0.055000
  0
SEQEND
  8
gg1
  0
POLYLINE
  8
gg1
 62
1
 40
0.000000
 41
0.000000
 66
  1
  0
VERTEX
  8
gg1
 10
0.665000
 20
0.047500
  0
VERTEX
  8
gg1
 10
0.665000
 20
0.062500
  0
SEQEND
  8
gg1
  0
POLYLINE
  8
gg1
 62
1
 40
0.000000
 41
0.000000
 66
  1
  0
VERTEX
  8
gg1
 10
0.697500
 20
0.055000
  0
VERTEX
  8
gg1
 10
0.712500
 20
0.055000
  0
SEQEND
  8
gg1
  0
POLYLINE
  8
gg1
 62
1
 40
0.000000
 41
0.000000
 66
  1
  0
VERTEX
  8
gg1
 10
0.705000
 20
0.047500
  0
VERTEX
  8
gg1
 10
0.705000
 20
0.062500
  0
SEQEND
  8
gg1
  0
POLYLINE
  8
gg1
 62
1
 40
0.000000
 41
0.000000
 66
  1
  0
VERTEX
  8
gg1
 10
0.697500
 20
0.110000
  0
VERTEX
  8
gg1
 10
0.712500
 20
0.110000
  0
SEQEND
  8
gg1
  0
POLYLINE
  8
gg1
 62
1
 40
0.000000
 41
0.000000
 66
  1
  0
VERTEX
  8
gg1
 10
0.705000
 20
0.102500
  0
VERTEX
  8
gg1
 10
0.705000
 20
0.117500
  0
SEQEND
  8
gg1
  0
POLYLINE
  8
gg1
 62
1
 40
0.000000
 41
0.000000
 66
  1
  0
VERTEX
  8
gg1
 10
0.422500
 20
0.485000
  0
VERTEX
  8
gg1
 10
0.437500
 20
0.485000
  0
SEQEND
  8
gg1
  0
POLYLINE
  8
gg1
 62
1
 40
0.000000
 41
0.000000
 66
  1
  0
VERTEX
  8
gg1
 10
0.430000
 20
0.477500
  0
VERTEX
  8
gg1
 10
0.430000
 20
0.492500
  0
SEQEND
  8
gg1
  0
POLYLINE
  8
gg1
 62
1
 40
0.000000
 41
0.000000
 66
  1
  0
VERTEX
  8
gg1
 10
0.377500
 20
0.485000
  0
VERTEX
  8
gg1
 10
0.392500
 20
0.485000
  0
SEQEND
  8
gg1
  0
POLYLINE
  8
gg1
 62
1
 40
0.000000
 41
0.000000
 66
  1
  0
VERTEX
  8
gg1
 10
0.385000
 20
0.477500
  0
VERTEX
  8
gg1
 10
0.385000
 20
0.492500
  0
SEQEND
  8
gg1
  0
POLYLINE
  8
gg1
 62
1
 40
0.000000
 41
0.000000
 66
  1
  0
VERTEX
  8
gg1
 10
1.127500
 20
1.320000
  0
VERTEX
  8
gg1
 10
1.142500
 20
1.320000
  0
SEQEND
  8
gg1
  0
POLYLINE
  8
gg1
 62
1
 40
0.000000
 41
0.000000
 66
  1
  0
VERTEX
  8
gg1
 10
1.135000
 20
1.312500
  0
VERTEX
  8
gg1
 10
1.135000
 20
1.327500
  0
SEQEND
  8
gg1
  0
POLYLINE
  8
gg1
 62
1
 40
0.000000
 41
0.000000
 66
  1
  0
VERTEX
  8
gg1
 10
1.127500
 20
1.250000
  0
VERTEX
  8
gg1
 10
1.142500
 20
1.250000
  0
SEQEND
  8
gg1
  0
POLYLINE
  8
gg1
 62
1
 40
0.000000
 41
0.000000
 66
  1
  0
VERTEX
  8
gg1
 10
1.135000
 20
1.242500
  0
VERTEX
  8
gg1
 10
1.135000
 20
1.257500
  0
SEQEND
  8
gg1
  0
POLYLINE
  8
gg1
 62
1
 40
0.000000
 41
0.000000
 66
  1
  0
VERTEX
  8
gg1
 10
1.192500
 20
1.285000
  0
VERTEX
  8
gg1
 10
1.207500
 20
1.285000
  0
SEQEND
  8
gg1
  0
POLYLINE
  8
gg1
 62
1
 40
0.000000
 41
0.000000
 66
  1
  0
VERTEX
  8
gg1
 10
1.200000
 20
1.277500
  0
VERTEX
  8
gg1
 10
1.200000
 20
1.292500
  0
SEQEND
  8
gg1
  0
POLYLINE
  8
gg1
 62
1
 40
0.000000
 41
0.000000
 66
  1
  0
VERTEX
  8
gg1
 10
1.052500
 20
1.110000
  0
VERTEX
  8
gg1
 10
1.067500
 20
1.110000
  0
SEQEND
  8
gg1
  0
POLYLINE
  8
gg1
 62
1
 40
0.000000
 41
0.000000
 66
  1
  0
VERTEX
  8
gg1
 10
1.060000
 20
1.102500
  0
VERTEX
  8
gg1
 10
1.060000
 20
1.117500
  0
SEQEND
  8
gg1
  0
POLYLINE
  8
gg1
 62
1
 40
0.000000
 41
0.000000
 66
  1
  0
VERTEX
  8
gg1
 10
1.127500
 20
1.385000
  0
VERTEX
  8
gg1
 10
1.142500
 20
1.385000
  0
SEQEND
  8
gg1
  0
POLYLINE
  8
gg1
 62
1
 40
0.000000
 41
0.000000
 66
  1
  0
VERTEX
  8
gg1
 10
1.135000
 20
1.377500
  0
VERTEX
  8
gg1
 10
1.135000
 20
1.392500
  0
SEQEND
  8
gg1
  0
POLYLINE
  8
gg1
 62
1
 40
0.000000
 41
0.000000
 66
  1
  0
VERTEX
  8
gg1
 10
1.192500
 20
1.350000
  0
VERTEX
  8
gg1
 10
1.207500
 20
1.350000
  0
SEQEND
  8
gg1
  0
POLYLINE
  8
gg1
 62
1
 40
0.000000
 41
0.000000
 66
  1
  0
VERTEX
  8
gg1
 10
1.200000
 20
1.342500
  0
VERTEX
  8
gg1
 10
1.200000
 20
1.357500
  0
SEQEND
  8
gg1
  0
POLYLINE
  8
gg1
 62
1
 40
0.000000
 41
0.000000
 66
  1
  0
VERTEX
  8
gg1
 10
0.392500
 20
0.165000
  0
VERTEX
  8
gg1
 10
0.407500
 20
0.165000
  0
SEQEND
  8
gg1
  0
POLYLINE
  8
gg1
 62
1
 40
0.000000
 41
0.000000
 66
  1
  0
VERTEX
  8
gg1
 10
0.400000
 20
0.157500
  0
VERTEX
  8
gg1
 10
0.400000
 20
0.172500
  0
SEQEND
  8
gg1
  0
POLYLINE
  8
gg1
 62
1
 40
0.000000
 41
0.000000
 66
  1
  0
VERTEX
  8
gg1
 10
0.227500
 20
1.045000
  0
VERTEX
  8
gg1
 10
0.242500
 20
1.045000
  0
SEQEND
  8
gg1
  0
POLYLINE
  8
gg1
 62
1
 40
0.000000
 41
0.000000
 66
  1
  0
VERTEX
  8
gg1
 10
0.235000
 20
1.037500
  0
VERTEX
  8
gg1
 10
0.235000
 20
1.052500
  0
SEQEND
  8
gg1
  0
POLYLINE
  8
gg1
 62
1
 40
0.000000
 41
0.000000
 66
  1
  0
VERTEX
  8
gg1
 10
0.682500
 20
1.305000
  0
VERTEX
  8
gg1
 10
0.697500
 20
1.305000
  0
SEQEND
  8
gg1
  0
POLYLINE
  8
gg1
 62
1
 40
0.000000
 41
0.000000
 66
  1
  0
VERTEX
  8
gg1
 10
0.690000
 20
1.297500
  0
VERTEX
  8
gg1
 10
0.690000
 20
1.312500
  0
SEQEND
  8
gg1
  0
POLYLINE
  8
gg1
 62
1
 40
0.000000
 41
0.000000
 66
  1
  0
VERTEX
  8
gg1
 10
0.662500
 20
1.070000
  0
VERTEX
  8
gg1
 10
0.677500
 20
1.070000
  0
SEQEND
  8
gg1
  0
POLYLINE
  8
gg1
 62
1
 40
0.000000
 41
0.000000
 66
  1
  0
VERTEX
  8
gg1
 10
0.670000
 20
1.062500
  0
VERTEX
  8
gg1
 10
0.670000
 20
1.077500
  0
SEQEND
  8
gg1
  0
POLYLINE
  8
gg1
 62
1
 40
0.000000
 41
0.000000
 66
  1
  0
VERTEX
  8
gg1
 10
0.363500
 20
1.215000
  0
VERTEX
  8
gg1
 10
0.378500
 20
1.215000
  0
SEQEND
  8
gg1
  0
POLYLINE
  8
gg1
 62
1
 40
0.000000
 41
0.000000
 66
  1
  0
VERTEX
  8
gg1
 10
0.371000
 20
1.207500
  0
VERTEX
  8
gg1
 10
0.371000
 20
1.222500
  0
SEQEND
  8
gg1
  0
POLYLINE
  8
gg1
 62
1
 40
0.000000
 41
0.000000
 66
  1
  0
VERTEX
  8
gg1
 10
1.117500
 20
0.760000
  0
VERTEX
  8
gg1
 10
1.132500
 20
0.760000
  0
SEQEND
  8
gg1
  0
POLYLINE
  8
gg1
 62
1
 40
0.000000
 41
0.000000
 66
  1
  0
VERTEX
  8
gg1
 10
1.125000
 20
0.752500
  0
VERTEX
  8
gg1
 10
1.125000
 20
0.767500
  0
SEQEND
  8
gg1
  0
POLYLINE
  8
gg1
 62
1
 40
0.000000
 41
0.000000
 66
  1
  0
VERTEX
  8
gg1
 10
0.937500
 20
1.105000
  0
VERTEX
  8
gg1
 10
0.952500
 20
1.105000
  0
SEQEND
  8
gg1
  0
POLYLINE
  8
gg1
 62
1
 40
0.000000
 41
0.000000
 66
  1
  0
VERTEX
  8
gg1
 10
0.945000
 20
1.097500
  0
VERTEX
  8
gg1
 10
0.945000
 20
1.112500
  0
SEQEND
  8
gg1
  0
POLYLINE
  8
gg1
 62
1
 40
0.000000
 41
0.000000
 66
  1
  0
VERTEX
  8
gg1
 10
0.307500
 20
1.040000
  0
VERTEX
  8
gg1
 10
0.322500
 20
1.040000
  0
SEQEND
  8
gg1
  0
POLYLINE
  8
gg1
 62
1
 40
0.000000
 41
0.000000
 66
  1
  0
VERTEX
  8
gg1
 10
0.315000
 20
1.032500
  0
VERTEX
  8
gg1
 10
0.315000
 20
1.047500
  0
SEQEND
  8
gg1
  0
POLYLINE
  8
gg1
 62
1
 40
0.000000
 41
0.000000
 66
  1
  0
VERTEX
  8
gg1
 10
0.827500
 20
0.505000
  0
VERTEX
  8
gg1
 10
0.842500
 20
0.505000
  0
SEQEND
  8
gg1
  0
POLYLINE
  8
gg1
 62
1
 40
0.000000
 41
0.000000
 66
  1
  0
VERTEX
  8
gg1
 10
0.835000
 20
0.497500
  0
VERTEX
  8
gg1
 10
0.835000
 20
0.512500
  0
SEQEND
  8
gg1
  0
POLYLINE
  8
gg1
 62
1
 40
0.000000
 41
0.000000
 66
  1
  0
VERTEX
  8
gg1
 10
0.332500
 20
1.214000
  0
VERTEX
  8
gg1
 10
0.347500
 20
1.214000
  0
SEQEND
  8
gg1
  0
POLYLINE
  8
gg1
 62
1
 40
0.000000
 41
0.000000
 66
  1
  0
VERTEX
  8
gg1
 10
0.340000
 20
1.206500
  0
VERTEX
  8
gg1
 10
0.340000
 20
1.221500
  0
SEQEND
  8
gg1
  0
POLYLINE
  8
gg1
 62
1
 40
0.000000
 41
0.000000
 66
  1
  0
VERTEX
  8
gg1
 10
0.622500
 20
1.055000
  0
VERTEX
  8
gg1
 10
0.637500
 20
1.055000
  0
SEQEND
  8
gg1
  0
POLYLINE
  8
gg1
 62
1
 40
0.000000
 41
0.000000
 66
  1
  0
VERTEX
  8
gg1
 10
0.630000
 20
1.047500
  0
VERTEX
  8
gg1
 10
0.630000
 20
1.062500
  0
SEQEND
  8
gg1
  0
POLYLINE
  8
gg1
 62
1
 40
0.000000
 41
0.000000
 66
  1
  0
VERTEX
  8
gg1
 10
0.617500
 20
0.110000
  0
VERTEX
  8
gg1
 10
0.632500
 20
0.110000
  0
SEQEND
  8
gg1
  0
POLYLINE
  8
gg1
 62
1
 40
0.000000
 41
0.000000
 66
  1
  0
VERTEX
  8
gg1
 10
0.625000
 20
0.102500
  0
VERTEX
  8
gg1
 10
0.625000
 20
0.117500
  0
SEQEND
  8
gg1
  0
POLYLINE
  8
gg1
 62
1
 40
0.000000
 41
0.000000
 66
  1
  0
VERTEX
  8
gg1
 10
0.617500
 20
0.055000
  0
VERTEX
  8
gg1
 10
0.632500
 20
0.055000
  0
SEQEND
  8
gg1
  0
POLYLINE
  8
gg1
 62
1
 40
0.000000
 41
0.000000
 66
  1
  0
VERTEX
  8
gg1
 10
0.625000
 20
0.047500
  0
VERTEX
  8
gg1
 10
0.625000
 20
0.062500
  0
SEQEND
  8
gg1
  0
POLYLINE
  8
gg1
 62
1
 40
0.000000
 41
0.000000
 66
  1
  0
VERTEX
  8
gg1
 10
0.107500
 20
0.470000
  0
VERTEX
  8
gg1
 10
0.122500
 20
0.470000
  0
SEQEND
  8
gg1
  0
POLYLINE
  8
gg1
 62
1
 40
0.000000
 41
0.000000
 66
  1
  0
VERTEX
  8
gg1
 10
0.115000
 20
0.462500
  0
VERTEX
  8
gg1
 10
0.115000
 20
0.477500
  0
SEQEND
  8
gg1
  0
POLYLINE
  8
gg1
 62
1
 40
0.000000
 41
0.000000
 66
  1
  0
VERTEX
  8
gg1
 10
0.315500
 20
1.188000
  0
VERTEX
  8
gg1
 10
0.330500
 20
1.188000
  0
SEQEND
  8
gg1
  0
POLYLINE
  8
gg1
 62
1
 40
0.000000
 41
0.000000
 66
  1
  0
VERTEX
  8
gg1
 10
0.323000
 20
1.180500
  0
VERTEX
  8
gg1
 10
0.323000
 20
1.195500
  0
SEQEND
  8
gg1
  0
POLYLINE
  8
gg1
 62
1
 40
0.000000
 41
0.000000
 66
  1
  0
VERTEX
  8
gg1
 10
0.425500
 20
1.219000
  0
VERTEX
  8
gg1
 10
0.440500
 20
1.219000
  0
SEQEND
  8
gg1
  0
POLYLINE
  8
gg1
 62
1
 40
0.000000
 41
0.000000
 66
  1
  0
VERTEX
  8
gg1
 10
0.433000
 20
1.211500
  0
VERTEX
  8
gg1
 10
0.433000
 20
1.226500
  0
SEQEND
  8
gg1
  0
POLYLINE
  8
gg1
 62
1
 40
0.000000
 41
0.000000
 66
  1
  0
VERTEX
  8
gg1
 10
0.450500
 20
1.234000
  0
VERTEX
  8
gg1
 10
0.465500
 20
1.234000
  0
SEQEND
  8
gg1
  0
POLYLINE
  8
gg1
 62
1
 40
0.000000
 41
0.000000
 66
  1
  0
VERTEX
  8
gg1
 10
0.458000
 20
1.226500
  0
VERTEX
  8
gg1
 10
0.458000
 20
1.241500
  0
SEQEND
  8
gg1
  0
POLYLINE
  8
gg1
 62
1
 40
0.000000
 41
0.000000
 66
  1
  0
VERTEX
  8
gg1
 10
0.457500
 20
1.206000
  0
VERTEX
  8
gg1
 10
0.472500
 20
1.206000
  0
SEQEND
  8
gg1
  0
POLYLINE
  8
gg1
 62
1
 40
0.000000
 41
0.000000
 66
  1
  0
VERTEX
  8
gg1
 10
0.465000
 20
1.198500
  0
VERTEX
  8
gg1
 10
0.465000
 20
1.213500
  0
SEQEND
  8
gg1
  0
POLYLINE
  8
gg1
 62
1
 40
0.000000
 41
0.000000
 66
  1
  0
VERTEX
  8
gg1
 10
1.192500
 20
1.220000
  0
VERTEX
  8
gg1
 10
1.207500
 20
1.220000
  0
SEQEND
  8
gg1
  0
POLYLINE
  8
gg1
 62
1
 40
0.000000
 41
0.000000
 66
  1
  0
VERTEX
  8
gg1
 10
1.200000
 20
1.212500
  0
VERTEX
  8
gg1
 10
1.200000
 20
1.227500
  0
SEQEND
  8
gg1
  0
POLYLINE
  8
gg1
 62
1
 40
0.000000
 41
0.000000
 66
  1
  0
VERTEX
  8
gg1
 10
1.192500
 20
1.415000
  0
VERTEX
  8
gg1
 10
1.207500
 20
1.415000
  0
SEQEND
  8
gg1
  0
POLYLINE
  8
gg1
 62
1
 40
0.000000
 41
0.000000
 66
  1
  0
VERTEX
  8
gg1
 10
1.200000
 20
1.407500
  0
VERTEX
  8
gg1
 10
1.200000
 20
1.422500
  0
SEQEND
  8
gg1
  0
POLYLINE
  8
gg1
 62
1
 40
0.000000
 41
0.000000
 66
  1
  0
VERTEX
  8
gg1
 10
0.997500
 20
1.470000
  0
VERTEX
  8
gg1
 10
1.012500
 20
1.470000
  0
SEQEND
  8
gg1
  0
POLYLINE
  8
gg1
 62
1
 40
0.000000
 41
0.000000
 66
  1
  0
VERTEX
  8
gg1
 10
1.005000
 20
1.462500
  0
VERTEX
  8
gg1
 10
1.005000
 20
1.477500
  0
SEQEND
  8
gg1
  0
POLYLINE
  8
gg1
 62
1
 40
0.000000
 41
0.000000
 66
  1
  0
VERTEX
  8
gg1
 10
1.192500
 20
1.580000
  0
VERTEX
  8
gg1
 10
1.207500
 20
1.580000
  0
SEQEND
  8
gg1
  0
POLYLINE
  8
gg1
 62
1
 40
0.000000
 41
0.000000
 66
  1
  0
VERTEX
  8
gg1
 10
1.200000
 20
1.572500
  0
VERTEX
  8
gg1
 10
1.200000
 20
1.587500
  0
SEQEND
  8
gg1
  0
POLYLINE
  8
gg1
 62
1
 40
0.000000
 41
0.000000
 66
  1
  0
VERTEX
  8
gg1
 10
1.192500
 20
1.745000
  0
VERTEX
  8
gg1
 10
1.207500
 20
1.745000
  0
SEQEND
  8
gg1
  0
POLYLINE
  8
gg1
 62
1
 40
0.000000
 41
0.000000
 66
  1
  0
VERTEX
  8
gg1
 10
1.200000
 20
1.737500
  0
VERTEX
  8
gg1
 10
1.200000
 20
1.752500
  0
SEQEND
  8
gg1
  0
POLYLINE
  8
gg1
 62
1
 40
0.000000
 41
0.000000
 66
  1
  0
VERTEX
  8
gg1
 10
1.192500
 20
1.930000
  0
VERTEX
  8
gg1
 10
1.207500
 20
1.930000
  0
SEQEND
  8
gg1
  0
POLYLINE
  8
gg1
 62
1
 40
0.000000
 41
0.000000
 66
  1
  0
VERTEX
  8
gg1
 10
1.200000
 20
1.922500
  0
VERTEX
  8
gg1
 10
1.200000
 20
1.937500
  0
SEQEND
  8
gg1
  0
POLYLINE
  8
gg1
 62
1
 40
0.000000
 41
0.000000
 66
  1
  0
VERTEX
  8
gg1
 10
0.992500
 20
1.830000
  0
VERTEX
  8
gg1
 10
1.007500
 20
1.830000
  0
SEQEND
  8
gg1
  0
POLYLINE
  8
gg1
 62
1
 40
0.000000
 41
0.000000
 66
  1
  0
VERTEX
  8
gg1
 10
1.000000
 20
1.822500
  0
VERTEX
  8
gg1
 10
1.000000
 20
1.837500
  0
SEQEND
  8
gg1
  0
POLYLINE
  8
gg1
 62
1
 40
0.000000
 41
0.000000
 66
  1
  0
VERTEX
  8
gg1
 10
0.557500
 20
1.995000
  0
VERTEX
  8
gg1
 10
0.572500
 20
1.995000
  0
SEQEND
  8
gg1
  0
POLYLINE
  8
gg1
 62
1
 40
0.000000
 41
0.000000
 66
  1
  0
VERTEX
  8
gg1
 10
0.565000
 20
1.987500
  0
VERTEX
  8
gg1
 10
0.565000
 20
2.002500
  0
SEQEND
  8
gg1
  0
POLYLINE
  8
gg1
 62
1
 40
0.000000
 41
0.000000
 66
  1
  0
VERTEX
  8
gg1
 10
0.822500
 20
2.215000
  0
VERTEX
  8
gg1
 10
0.837500
 20
2.215000
  0
SEQEND
  8
gg1
  0
POLYLINE
  8
gg1
 62
1
 40
0.000000
 41
0.000000
 66
  1
  0
VERTEX
  8
gg1
 10
0.830000
 20
2.207500
  0
VERTEX
  8
gg1
 10
0.830000
 20
2.222500
  0
SEQEND
  8
gg1
  0
POLYLINE
  8
gg1
 62
1
 40
0.000000
 41
0.000000
 66
  1
  0
VERTEX
  8
gg1
 10
0.472500
 20
2.240000
  0
VERTEX
  8
gg1
 10
0.487500
 20
2.240000
  0
SEQEND
  8
gg1
  0
POLYLINE
  8
gg1
 62
1
 40
0.000000
 41
0.000000
 66
  1
  0
VERTEX
  8
gg1
 10
0.480000
 20
2.232500
  0
VERTEX
  8
gg1
 10
0.480000
 20
2.247500
  0
SEQEND
  8
gg1
  0
POLYLINE
  8
gg1
 62
1
 40
0.000000
 41
0.000000
 66
  1
  0
VERTEX
  8
gg1
 10
1.197500
 20
2.415000
  0
VERTEX
  8
gg1
 10
1.212500
 20
2.415000
  0
SEQEND
  8
gg1
  0
POLYLINE
  8
gg1
 62
1
 40
0.000000
 41
0.000000
 66
  1
  0
VERTEX
  8
gg1
 10
1.205000
 20
2.407500
  0
VERTEX
  8
gg1
 10
1.205000
 20
2.422500
  0
SEQEND
  8
gg1
  0
POLYLINE
  8
gg1
 62
1
 40
0.000000
 41
0.000000
 66
  1
  0
VERTEX
  8
gg1
 10
1.057500
 20
2.415000
  0
VERTEX
  8
gg1
 10
1.072500
 20
2.415000
  0
SEQEND
  8
gg1
  0
POLYLINE
  8
gg1
 62
1
 40
0.000000
 41
0.000000
 66
  1
  0
VERTEX
  8
gg1
 10
1.065000
 20
2.407500
  0
VERTEX
  8
gg1
 10
1.065000
 20
2.422500
  0
SEQEND
  8
gg1
  0
POLYLINE
  8
gg1
 62
1
 40
0.000000
 41
0.000000
 66
  1
  0
VERTEX
  8
gg1
 10
0.917500
 20
2.415000
  0
VERTEX
  8
gg1
 10
0.932500
 20
2.415000
  0
SEQEND
  8
gg1
  0
POLYLINE
  8
gg1
 62
1
 40
0.000000
 41
0.000000
 66
  1
  0
VERTEX
  8
gg1
 10
0.925000
 20
2.407500
  0
VERTEX
  8
gg1
 10
0.925000
 20
2.422500
  0
SEQEND
  8
gg1
  0
POLYLINE
  8
gg1
 62
1
 40
0.000000
 41
0.000000
 66
  1
  0
VERTEX
  8
gg1
 10
0.777500
 20
2.415000
  0
VERTEX
  8
gg1
 10
0.792500
 20
2.415000
  0
SEQEND
  8
gg1
  0
POLYLINE
  8
gg1
 62
1
 40
0.000000
 41
0.000000
 66
  1
  0
VERTEX
  8
gg1
 10
0.785000
 20
2.407500
  0
VERTEX
  8
gg1
 10
0.785000
 20
2.422500
  0
SEQEND
  8
gg1
  0
POLYLINE
  8
gg1
 62
1
 40
0.000000
 41
0.000000
 66
  1
  0
VERTEX
  8
gg1
 10
0.332500
 20
0.485000
  0
VERTEX
  8
gg1
 10
0.347500
 20
0.485000
  0
SEQEND
  8
gg1
  0
POLYLINE
  8
gg1
 62
1
 40
0.000000
 41
0.000000
 66
  1
  0
VERTEX
  8
gg1
 10
0.340000
 20
0.477500
  0
VERTEX
  8
gg1
 10
0.340000
 20
0.492500
  0
SEQEND
  8
gg1
  0
POLYLINE
  8
gg1
 62
1
 40
0.000000
 41
0.000000
 66
  1
  0
VERTEX
  8
gg1
 10
1.262500
 20
0.751000
  0
VERTEX
  8
gg1
 10
1.277500
 20
0.751000
  0
SEQEND
  8
gg1
  0
POLYLINE
  8
gg1
 62
1
 40
0.000000
 41
0.000000
 66
  1
  0
VERTEX
  8
gg1
 10
1.270000
 20
0.743500
  0
VERTEX
  8
gg1
 10
1.270000
 20
0.758500
  0
SEQEND
  8
gg1
  0
POLYLINE
  8
gg1
 62
1
 40
0.000000
 41
0.000000
 66
  1
  0
VERTEX
  8
gg1
 10
0.937500
 20
1.145000
  0
VERTEX
  8
gg1
 10
0.952500
 20
1.145000
  0
SEQEND
  8
gg1
  0
POLYLINE
  8
gg1
 62
1
 40
0.000000
 41
0.000000
 66
  1
  0
VERTEX
  8
gg1
 10
0.945000
 20
1.137500
  0
VERTEX
  8
gg1
 10
0.945000
 20
1.152500
  0
SEQEND
  8
gg1
  0
POLYLINE
  8
gg1
 62
1
 40
0.000000
 41
0.000000
 66
  1
  0
VERTEX
  8
gg1
 10
0.167500
 20
1.005000
  0
VERTEX
  8
gg1
 10
0.182500
 20
1.005000
  0
SEQEND
  8
gg1
  0
POLYLINE
  8
gg1
 62
1
 40
0.000000
 41
0.000000
 66
  1
  0
VERTEX
  8
gg1
 10
0.175000
 20
0.997500
  0
VERTEX
  8
gg1
 10
0.175000
 20
1.012500
  0
SEQEND
  8
gg1
  0
POLYLINE
  8
gg1
 62
1
 40
0.000000
 41
0.000000
 66
  1
  0
VERTEX
  8
gg1
 10
0.207500
 20
1.005000
  0
VERTEX
  8
gg1
 10
0.222500
 20
1.005000
  0
SEQEND
  8
gg1
  0
POLYLINE
  8
gg1
 62
1
 40
0.000000
 41
0.000000
 66
  1
  0
VERTEX
  8
gg1
 10
0.215000
 20
0.997500
  0
VERTEX
  8
gg1
 10
0.215000
 20
1.012500
  0
SEQEND
  8
gg1
  0
POLYLINE
  8
gg1
 62
1
 40
0.000000
 41
0.000000
 66
  1
  0
VERTEX
  8
gg1
 10
0.187500
 20
0.965000
  0
VERTEX
  8
gg1
 10
0.202500
 20
0.965000
  0
SEQEND
  8
gg1
  0
POLYLINE
  8
gg1
 62
1
 40
0.000000
 41
0.000000
 66
  1
  0
VERTEX
  8
gg1
 10
0.195000
 20
0.957500
  0
VERTEX
  8
gg1
 10
0.195000
 20
0.972500
  0
SEQEND
  8
gg1
  0
POLYLINE
  8
gg1
 62
1
 40
0.000000
 41
0.000000
 66
  1
  0
VERTEX
  8
gg1
 10
0.287500
 20
1.080000
  0
VERTEX
  8
gg1
 10
0.302500
 20
1.080000
  0
SEQEND
  8
gg1
  0
POLYLINE
  8
gg1
 62
1
 40
0.000000
 41
0.000000
 66
  1
  0
VERTEX
  8
gg1
 10
0.295000
 20
1.072500
  0
VERTEX
  8
gg1
 10
0.295000
 20
1.087500
  0
SEQEND
  8
gg1
  0
POLYLINE
  8
gg1
 62
1
 40
0.000000
 41
0.000000
 66
  1
  0
VERTEX
  8
gg1
 10
0.247500
 20
1.005000
  0
VERTEX
  8
gg1
 10
0.262500
 20
1.005000
  0
SEQEND
  8
gg1
  0
POLYLINE
  8
gg1
 62
1
 40
0.000000
 41
0.000000
 66
  1
  0
VERTEX
  8
gg1
 10
0.255000
 20
0.997500
  0
VERTEX
  8
gg1
 10
0.255000
 20
1.012500
  0
SEQEND
  8
gg1
  0
POLYLINE
  8
gg1
 62
1
 40
0.000000
 41
0.000000
 66
  1
  0
VERTEX
  8
gg1
 10
0.308500
 20
0.799000
  0
VERTEX
  8
gg1
 10
0.323500
 20
0.799000
  0
SEQEND
  8
gg1
  0
POLYLINE
  8
gg1
 62
1
 40
0.000000
 41
0.000000
 66
  1
  0
VERTEX
  8
gg1
 10
0.316000
 20
0.791500
  0
VERTEX
  8
gg1
 10
0.316000
 20
0.806500
  0
SEQEND
  8
gg1
  0
POLYLINE
  8
gg1
 62
1
 40
0.000000
 41
0.000000
 66
  1
  0
VERTEX
  8
gg1
 10
0.308500
 20
0.828000
  0
VERTEX
  8
gg1
 10
0.323500
 20
0.828000
  0
SEQEND
  8
gg1
  0
POLYLINE
  8
gg1
 62
1
 40
0.000000
 41
0.000000
 66
  1
  0
VERTEX
  8
gg1
 10
0.316000
 20
0.820500
  0
VERTEX
  8
gg1
 10
0.316000
 20
0.835500
  0
SEQEND
  8
gg1
  0
POLYLINE
  8
gg1
 62
1
 40
0.000000
 41
0.000000
 66
  1
  0
VERTEX
  8
gg1
 10
0.299500
 20
0.863000
  0
VERTEX
  8
gg1
 10
0.314500
 20
0.863000
  0
SEQEND
  8
gg1
  0
POLYLINE
  8
gg1
 62
1
 40
0.000000
 41
0.000000
 66
  1
  0
VERTEX
  8
gg1
 10
0.307000
 20
0.855500
  0
VERTEX
  8
gg1
 10
0.307000
 20
0.870500
  0
SEQEND
  8
gg1
  0
POLYLINE
  8
gg1
 62
1
 40
0.000000
 41
0.000000
 66
  1
  0
VERTEX
  8
gg1
 10
0.326500
 20
0.851000
  0
VERTEX
  8
gg1
 10
0.341500
 20
0.851000
  0
SEQEND
  8
gg1
  0
POLYLINE
  8
gg1
 62
1
 40
0.000000
 41
0.000000
 66
  1
  0
VERTEX
  8
gg1
 10
0.334000
 20
0.843500
  0
VERTEX
  8
gg1
 10
0.334000
 20
0.858500
  0
SEQEND
  8
gg1
  0
POLYLINE
  8
gg1
 62
1
 40
0.000000
 41
0.000000
 66
  1
  0
VERTEX
  8
gg1
 10
0.336500
 20
0.807000
  0
VERTEX
  8
gg1
 10
0.351500
 20
0.807000
  0
SEQEND
  8
gg1
  0
POLYLINE
  8
gg1
 62
1
 40
0.000000
 41
0.000000
 66
  1
  0
VERTEX
  8
gg1
 10
0.344000
 20
0.799500
  0
VERTEX
  8
gg1
 10
0.344000
 20
0.814500
  0
SEQEND
  8
gg1
  0
POLYLINE
  8
gg1
 62
1
 40
0.000000
 41
0.000000
 66
  1
  0
VERTEX
  8
gg1
 10
0.270500
 20
0.858000
  0
VERTEX
  8
gg1
 10
0.285500
 20
0.858000
  0
SEQEND
  8
gg1
  0
POLYLINE
  8
gg1
 62
1
 40
0.000000
 41
0.000000
 66
  1
  0
VERTEX
  8
gg1
 10
0.278000
 20
0.850500
  0
VERTEX
  8
gg1
 10
0.278000
 20
0.865500
  0
SEQEND
  8
gg1
  0
POLYLINE
  8
gg1
 62
1
 40
0.000000
 41
0.000000
 66
  1
  0
VERTEX
  8
gg1
 10
0.622500
 20
1.015000
  0
VERTEX
  8
gg1
 10
0.637500
 20
1.015000
  0
SEQEND
  8
gg1
  0
POLYLINE
  8
gg1
 62
1
 40
0.000000
 41
0.000000
 66
  1
  0
VERTEX
  8
gg1
 10
0.630000
 20
1.007500
  0
VERTEX
  8
gg1
 10
0.630000
 20
1.022500
  0
SEQEND
  8
gg1
  0
POLYLINE
  8
gg1
 62
1
 40
0.000000
 41
0.000000
 66
  1
  0
VERTEX
  8
gg1
 10
0.937500
 20
1.065000
  0
VERTEX
  8
gg1
 10
0.952500
 20
1.065000
  0
SEQEND
  8
gg1
  0
POLYLINE
  8
gg1
 62
1
 40
0.000000
 41
0.000000
 66
  1
  0
VERTEX
  8
gg1
 10
0.945000
 20
1.057500
  0
VERTEX
  8
gg1
 10
0.945000
 20
1.072500
  0
SEQEND
  8
gg1
  0
POLYLINE
  8
gg1
 62
1
 40
0.000000
 41
0.000000
 66
  1
  0
VERTEX
  8
gg1
 10
0.267500
 20
0.965000
  0
VERTEX
  8
gg1
 10
0.282500
 20
0.965000
  0
SEQEND
  8
gg1
  0
POLYLINE
  8
gg1
 62
1
 40
0.000000
 41
0.000000
 66
  1
  0
VERTEX
  8
gg1
 10
0.275000
 20
0.957500
  0
VERTEX
  8
gg1
 10
0.275000
 20
0.972500
  0
SEQEND
  8
gg1
  0
POLYLINE
  8
gg1
 62
1
 40
0.000000
 41
0.000000
 66
  1
  0
VERTEX
  8
gg1
 10
0.957500
 20
0.055000
  0
VERTEX
  8
gg1
 10
0.972500
 20
0.055000
  0
SEQEND
  8
gg1
  0
POLYLINE
  8
gg1
 62
1
 40
0.000000
 41
0.000000
 66
  1
  0
VERTEX
  8
gg1
 10
0.965000
 20
0.047500
  0
VERTEX
  8
gg1
 10
0.965000
 20
0.062500
  0
SEQEND
  8
gg1
  0
POLYLINE
  8
gg1
 62
1
 40
0.000000
 41
0.000000
 66
  1
  0
VERTEX
  8
gg1
 10
0.957500
 20
0.110000
  0
VERTEX
  8
gg1
 10
0.972500
 20
0.110000
  0
SEQEND
  8
gg1
  0
POLYLINE
  8
gg1
 62
1
 40
0.000000
 41
0.000000
 66
  1
  0
VERTEX
  8
gg1
 10
0.965000
 20
0.102500
  0
VERTEX
  8
gg1
 10
0.965000
 20
0.117500
  0
SEQEND
  8
gg1
  0
POLYLINE
  8
gg1
 62
1
 40
0.000000
 41
0.000000
 66
  1
  0
VERTEX
  8
gg1
 10
1.257500
 20
0.780000
  0
VERTEX
  8
gg1
 10
1.272500
 20
0.780000
  0
SEQEND
  8
gg1
  0
POLYLINE
  8
gg1
 62
1
 40
0.000000
 41
0.000000
 66
  1
  0
VERTEX
  8
gg1
 10
1.265000
 20
0.772500
  0
VERTEX
  8
gg1
 10
1.265000
 20
0.787500
  0
SEQEND
  8
gg1
  0
POLYLINE
  8
gg1
 62
1
 40
0.000000
 41
0.000000
 66
  1
  0
VERTEX
  8
gg1
 10
1.037500
 20
0.210000
  0
VERTEX
  8
gg1
 10
1.052500
 20
0.210000
  0
SEQEND
  8
gg1
  0
POLYLINE
  8
gg1
 62
1
 40
0.000000
 41
0.000000
 66
  1
  0
VERTEX
  8
gg1
 10
1.045000
 20
0.202500
  0
VERTEX
  8
gg1
 10
1.045000
 20
0.217500
  0
SEQEND
  8
gg1
  0
POLYLINE
  8
gg1
 62
1
 40
0.000000
 41
0.000000
 66
  1
  0
VERTEX
  8
gg1
 10
0.942500
 20
2.215000
  0
VERTEX
  8
gg1
 10
0.957500
 20
2.215000
  0
SEQEND
  8
gg1
  0
POLYLINE
  8
gg1
 62
1
 40
0.000000
 41
0.000000
 66
  1
  0
VERTEX
  8
gg1
 10
0.950000
 20
2.207500
  0
VERTEX
  8
gg1
 10
0.950000
 20
2.222500
  0
SEQEND
  8
gg1
  0
POLYLINE
  8
gg1
 62
1
 40
0.000000
 41
0.000000
 66
  1
  0
VERTEX
  8
gg1
 10
0.607500
 20
1.730000
  0
VERTEX
  8
gg1
 10
0.622500
 20
1.730000
  0
SEQEND
  8
gg1
  0
POLYLINE
  8
gg1
 62
1
 40
0.000000
 41
0.000000
 66
  1
  0
VERTEX
  8
gg1
 10
0.615000
 20
1.722500
  0
VERTEX
  8
gg1
 10
0.615000
 20
1.737500
  0
SEQEND
  8
gg1
  0
POLYLINE
  8
gg1
 62
1
 40
0.000000
 41
0.000000
 66
  1
  0
VERTEX
  8
gg1
 10
0.607500
 20
1.630000
  0
VERTEX
  8
gg1
 10
0.622500
 20
1.630000
  0
SEQEND
  8
gg1
  0
POLYLINE
  8
gg1
 62
1
 40
0.000000
 41
0.000000
 66
  1
  0
VERTEX
  8
gg1
 10
0.615000
 20
1.622500
  0
VERTEX
  8
gg1
 10
0.615000
 20
1.637500
  0
SEQEND
  8
gg1
  0
POLYLINE
  8
gg1
 62
1
 40
0.000000
 41
0.000000
 66
  1
  0
VERTEX
  8
gg1
 10
0.607500
 20
1.530000
  0
VERTEX
  8
gg1
 10
0.622500
 20
1.530000
  0
SEQEND
  8
gg1
  0
POLYLINE
  8
gg1
 62
1
 40
0.000000
 41
0.000000
 66
  1
  0
VERTEX
  8
gg1
 10
0.615000
 20
1.522500
  0
VERTEX
  8
gg1
 10
0.615000
 20
1.537500
  0
SEQEND
  8
gg1
  0
POLYLINE
  8
gg1
 62
1
 40
0.000000
 41
0.000000
 66
  1
  0
VERTEX
  8
gg1
 10
0.607500
 20
1.270000
  0
VERTEX
  8
gg1
 10
0.622500
 20
1.270000
  0
SEQEND
  8
gg1
  0
POLYLINE
  8
gg1
 62
1
 40
0.000000
 41
0.000000
 66
  1
  0
VERTEX
  8
gg1
 10
0.615000
 20
1.262500
  0
VERTEX
  8
gg1
 10
0.615000
 20
1.277500
  0
SEQEND
  8
gg1
  0
POLYLINE
  8
gg1
 62
1
 40
0.000000
 41
0.000000
 66
  1
  0
VERTEX
  8
gg1
 10
0.537500
 20
1.275000
  0
VERTEX
  8
gg1
 10
0.552500
 20
1.275000
  0
SEQEND
  8
gg1
  0
POLYLINE
  8
gg1
 62
1
 40
0.000000
 41
0.000000
 66
  1
  0
VERTEX
  8
gg1
 10
0.545000
 20
1.267500
  0
VERTEX
  8
gg1
 10
0.545000
 20
1.282500
  0
SEQEND
  8
gg1
  0
POLYLINE
  8
gg1
 62
1
 40
0.000000
 41
0.000000
 66
  1
  0
VERTEX
  8
gg1
 10
0.577500
 20
1.235000
  0
VERTEX
  8
gg1
 10
0.592500
 20
1.235000
  0
SEQEND
  8
gg1
  0
POLYLINE
  8
gg1
 62
1
 40
0.000000
 41
0.000000
 66
  1
  0
VERTEX
  8
gg1
 10
0.585000
 20
1.227500
  0
VERTEX
  8
gg1
 10
0.585000
 20
1.242500
  0
SEQEND
  8
gg1
  0
POLYLINE
  8
gg1
 62
1
 40
0.000000
 41
0.000000
 66
  1
  0
VERTEX
  8
gg1
 10
0.537500
 20
1.200000
  0
VERTEX
  8
gg1
 10
0.552500
 20
1.200000
  0
SEQEND
  8
gg1
  0
POLYLINE
  8
gg1
 62
1
 40
0.000000
 41
0.000000
 66
  1
  0
VERTEX
  8
gg1
 10
0.545000
 20
1.192500
  0
VERTEX
  8
gg1
 10
0.545000
 20
1.207500
  0
SEQEND
  8
gg1
  0
POLYLINE
  8
gg1
 62
1
 40
0.000000
 41
0.000000
 66
  1
  0
VERTEX
  8
gg1
 10
0.512500
 20
1.155000
  0
VERTEX
  8
gg1
 10
0.527500
 20
1.155000
  0
SEQEND
  8
gg1
  0
POLYLINE
  8
gg1
 62
1
 40
0.000000
 41
0.000000
 66
  1
  0
VERTEX
  8
gg1
 10
0.520000
 20
1.147500
  0
VERTEX
  8
gg1
 10
0.520000
 20
1.162500
  0
SEQEND
  8
gg1
  0
POLYLINE
  8
gg1
 62
1
 40
0.000000
 41
0.000000
 66
  1
  0
VERTEX
  8
gg1
 10
0.349500
 20
0.833000
  0
VERTEX
  8
gg1
 10
0.364500
 20
0.833000
  0
SEQEND
  8
gg1
  0
POLYLINE
  8
gg1
 62
1
 40
0.000000
 41
0.000000
 66
  1
  0
VERTEX
  8
gg1
 10
0.357000
 20
0.825500
  0
VERTEX
  8
gg1
 10
0.357000
 20
0.840500
  0
SEQEND
  8
gg1
  0
POLYLINE
  8
gg1
 62
1
 40
0.000000
 41
0.000000
 66
  1
  0
VERTEX
  8
gg1
 10
1.037500
 20
0.100000
  0
VERTEX
  8
gg1
 10
1.052500
 20
0.100000
  0
SEQEND
  8
gg1
  0
POLYLINE
  8
gg1
 62
1
 40
0.000000
 41
0.000000
 66
  1
  0
VERTEX
  8
gg1
 10
1.045000
 20
0.092500
  0
VERTEX
  8
gg1
 10
1.045000
 20
0.107500
  0
SEQEND
  8
gg1
  0
POLYLINE
  8
gg1
 62
1
 40
0.000000
 41
0.000000
 66
  1
  0
VERTEX
  8
gg1
 10
1.037500
 20
0.045000
  0
VERTEX
  8
gg1
 10
1.052500
 20
0.045000
  0
SEQEND
  8
gg1
  0
POLYLINE
  8
gg1
 62
1
 40
0.000000
 41
0.000000
 66
  1
  0
VERTEX
  8
gg1
 10
1.045000
 20
0.037500
  0
VERTEX
  8
gg1
 10
1.045000
 20
0.052500
  0
SEQEND
  8
gg1
  0
POLYLINE
  8
gg1
 62
1
 40
0.000000
 41
0.000000
 66
  1
  0
VERTEX
  8
gg1
 10
1.037500
 20
0.155000
  0
VERTEX
  8
gg1
 10
1.052500
 20
0.155000
  0
SEQEND
  8
gg1
  0
POLYLINE
  8
gg1
 62
1
 40
0.000000
 41
0.000000
 66
  1
  0
VERTEX
  8
gg1
 10
1.045000
 20
0.147500
  0
VERTEX
  8
gg1
 10
1.045000
 20
0.162500
  0
SEQEND
  8
gg1
  0
POLYLINE
  8
gg1
 62
1
 40
0.000000
 41
0.000000
 66
  1
  0
VERTEX
  8
gg1
 10
0.557500
 20
0.165000
  0
VERTEX
  8
gg1
 10
0.572500
 20
0.165000
  0
SEQEND
  8
gg1
  0
POLYLINE
  8
gg1
 62
1
 40
0.000000
 41
0.000000
 66
  1
  0
VERTEX
  8
gg1
 10
0.565000
 20
0.157500
  0
VERTEX
  8
gg1
 10
0.565000
 20
0.172500
  0
SEQEND
  8
gg1
  0
POLYLINE
  8
gg1
 62
1
 40
0.000000
 41
0.000000
 66
  1
  0
VERTEX
  8
gg1
 10
0.437500
 20
0.075000
  0
VERTEX
  8
gg1
 10
0.452500
 20
0.075000
  0
SEQEND
  8
gg1
  0
POLYLINE
  8
gg1
 62
1
 40
0.000000
 41
0.000000
 66
  1
  0
VERTEX
  8
gg1
 10
0.445000
 20
0.067500
  0
VERTEX
  8
gg1
 10
0.445000
 20
0.082500
  0
SEQEND
  8
gg1
  0
POLYLINE
  8
gg1
 62
1
 40
0.000000
 41
0.000000
 66
  1
  0
VERTEX
  8
gg1
 10
0.962500
 20
0.525000
  0
VERTEX
  8
gg1
 10
0.977500
 20
0.525000
  0
SEQEND
  8
gg1
  0
POLYLINE
  8
gg1
 62
1
 40
0.000000
 41
0.000000
 66
  1
  0
VERTEX
  8
gg1
 10
0.970000
 20
0.517500
  0
VERTEX
  8
gg1
 10
0.970000
 20
0.532500
  0
SEQEND
  8
gg1
  0
POLYLINE
  8
gg1
 62
1
 40
0.000000
 41
0.000000
 66
  1
  0
VERTEX
  8
gg1
 10
0.993500
 20
0.615000
  0
VERTEX
  8
gg1
 10
1.008500
 20
0.615000
  0
SEQEND
  8
gg1
  0
POLYLINE
  8
gg1
 62
1
 40
0.000000
 41
0.000000
 66
  1
  0
VERTEX
  8
gg1
 10
1.001000
 20
0.607500
  0
VERTEX
  8
gg1
 10
1.001000
 20
0.622500
  0
SEQEND
  8
gg1
  0
POLYLINE
  8
gg1
 62
1
 40
0.000000
 41
0.000000
 66
  1
  0
VERTEX
  8
gg1
 10
0.877500
 20
1.025000
  0
VERTEX
  8
gg1
 10
0.892500
 20
1.025000
  0
SEQEND
  8
gg1
  0
POLYLINE
  8
gg1
 62
1
 40
0.000000
 41
0.000000
 66
  1
  0
VERTEX
  8
gg1
 10
0.885000
 20
1.017500
  0
VERTEX
  8
gg1
 10
0.885000
 20
1.032500
  0
SEQEND
  8
gg1
  0
POLYLINE
  8
gg1
 62
1
 40
0.000000
 41
0.000000
 66
  1
  0
VERTEX
  8
gg1
 10
0.742500
 20
0.445000
  0
VERTEX
  8
gg1
 10
0.757500
 20
0.445000
  0
SEQEND
  8
gg1
  0
POLYLINE
  8
gg1
 62
1
 40
0.000000
 41
0.000000
 66
  1
  0
VERTEX
  8
gg1
 10
0.750000
 20
0.437500
  0
VERTEX
  8
gg1
 10
0.750000
 20
0.452500
  0
SEQEND
  8
gg1
  0
POLYLINE
  8
gg1
 62
1
 40
0.000000
 41
0.000000
 66
  1
  0
VERTEX
  8
gg1
 10
0.462500
 20
0.435000
  0
VERTEX
  8
gg1
 10
0.477500
 20
0.435000
  0
SEQEND
  8
gg1
  0
POLYLINE
  8
gg1
 62
1
 40
0.000000
 41
0.000000
 66
  1
  0
VERTEX
  8
gg1
 10
0.470000
 20
0.427500
  0
VERTEX
  8
gg1
 10
0.470000
 20
0.442500
  0
SEQEND
  8
gg1
  0
POLYLINE
  8
gg1
 62
1
 40
0.000000
 41
0.000000
 66
  1
  0
VERTEX
  8
gg1
 10
0.594500
 20
0.471000
  0
VERTEX
  8
gg1
 10
0.609500
 20
0.471000
  0
SEQEND
  8
gg1
  0
POLYLINE
  8
gg1
 62
1
 40
0.000000
 41
0.000000
 66
  1
  0
VERTEX
  8
gg1
 10
0.602000
 20
0.463500
  0
VERTEX
  8
gg1
 10
0.602000
 20
0.478500
  0
SEQEND
  8
gg1
  0
POLYLINE
  8
gg1
 62
1
 40
0.000000
 41
0.000000
 66
  1
  0
VERTEX
  8
gg1
 10
0.716500
 20
0.512000
  0
VERTEX
  8
gg1
 10
0.731500
 20
0.512000
  0
SEQEND
  8
gg1
  0
POLYLINE
  8
gg1
 62
1
 40
0.000000
 41
0.000000
 66
  1
  0
VERTEX
  8
gg1
 10
0.724000
 20
0.504500
  0
VERTEX
  8
gg1
 10
0.724000
 20
0.519500
  0
SEQEND
  8
gg1
  0
POLYLINE
  8
gg1
 62
1
 40
0.000000
 41
0.000000
 66
  1
  0
VERTEX
  8
gg1
 10
0.657500
 20
0.110000
  0
VERTEX
  8
gg1
 10
0.672500
 20
0.110000
  0
SEQEND
  8
gg1
  0
POLYLINE
  8
gg1
 62
1
 40
0.000000
 41
0.000000
 66
  1
  0
VERTEX
  8
gg1
 10
0.665000
 20
0.102500
  0
VERTEX
  8
gg1
 10
0.665000
 20
0.117500
  0
SEQEND
  8
gg1
  0
ENDSEC
  0
EOF
