  0
SECTION
  2
HEADER
  9
$EXTMIN
 10
-0.260000
 20
-0.164000
  9
$EXTMAX
 10
0.605000
 20
0.355000
  9
$LIMMIN
 10
-0.260000
 20
-0.164000
  9
$LIMMAX
 10
0.605000
 20
0.355000
  9
$FILLMODE
 70
  1
  0
ENDSEC
  0
SECTION
  2
TABLES
  0
TABLE
  2
LTYPE
 70
  1
  0
LTYPE
  2
CONTINUOUS
 70
 64
  3
Solid line
 72
 65
 73
  0
 40
0.0
  0
ENDTAB
  0
TABLE
  2
LAYER
 70
 1
  0
LAYER
  2
0
 70
  0
 62
7
  6
CONTINUOUS
  0
LAYER
  2
gg1
 70
  0
 62
1
  6
CONTINUOUS
  0
ENDTAB
  0
TABLE
  2
STYLE
 70
  1
  0
STYLE
  2
STANDARD
 70
  0
 40
0.0
 41
1.0
 50
0.0
 71
  0
 42
0.2
  3
txt
  4

  0
ENDTAB
  0
ENDSEC
  0
SECTION
  2
BLOCKS
  0
BLOCK
  8
0
  2
D10
 70
64
 10
0.0
 20
0.0
  3
D10
  0
CIRCLE
  8
0
 10
0.000000
 20
0.000000
 40
0.002500
 0
ENDBLK
  8
0
  0
BLOCK
  8
0
  2
D11
 70
64
 10
0.0
 20
0.0
  3
D11
  0
CIRCLE
  8
0
 10
0.000000
 20
0.000000
 40
0.005000
 0
ENDBLK
  8
0
  0
BLOCK
  8
0
  2
D12
 70
64
 10
0.0
 20
0.0
  3
D12
  0
CIRCLE
  8
0
 10
0.000000
 20
0.000000
 40
0.003000
 0
ENDBLK
  8
0
  0
BLOCK
  8
0
  2
D13
 70
64
 10
0.0
 20
0.0
  3
D13
  0
CIRCLE
  8
0
 10
0.000000
 20
0.000000
 40
0.001000
 0
ENDBLK
  8
0
  0
ENDSEC
  0
SECTION
  2
ENTITIES
  0
POLYLINE
  8
gg1
 62
1
 40
0.000000
 41
0.000000
 66
  1
  0
VERTEX
  8
gg1
 10
0.550000
 20
0.268000
  0
VERTEX
  8
gg1
 10
0.550000
 20
0.268000
  0
VERTEX
  8
gg1
 10
0.550000
 20
0.268000
 42
1.000000
  0
VERTEX
  8
gg1
 10
0.550000
 20
0.182000
  0
VERTEX
  8
gg1
 10
0.550000
 20
0.182000
  0
SEQEND
  8
gg1
  0
POLYLINE
  8
gg1
 62
1
 40
0.000000
 41
0.000000
 66
  1
  0
VERTEX
  8
gg1
 10
0.050000
 20
0.182000
  0
VERTEX
  8
gg1
 10
0.050000
 20
0.182000
  0
VERTEX
  8
gg1
 10
0.050000
 20
0.182000
 42
1.000000
  0
VERTEX
  8
gg1
 10
0.050000
 20
0.268000
  0
VERTEX
  8
gg1
 10
0.050000
 20
0.268000
  0
SEQEND
  8
gg1
  0
POLYLINE
  8
gg1
 62
1
 40
0.000000
 41
0.000000
 66
  1
  0
VERTEX
  8
gg1
 10
0.600000
 20
0.268000
  0
VERTEX
  8
gg1
 10
0.600000
 20
0.350000
  0
SEQEND
  8
gg1
  0
POLYLINE
  8
gg1
 62
1
 40
0.000000
 41
0.000000
 66
  1
  0
VERTEX
  8
gg1
 10
0.000000
 20
0.350000
  0
VERTEX
  8
gg1
 10
0.600000
 20
0.350000
  0
SEQEND
  8
gg1
  0
POLYLINE
  8
gg1
 62
1
 40
0.000000
 41
0.000000
 66
  1
  0
VERTEX
  8
gg1
 10
0.000000
 20
0.000000
  0
VERTEX
  8
gg1
 10
0.600000
 20
0.000000
  0
SEQEND
  8
gg1
  0
POLYLINE
  8
gg1
 62
1
 40
0.000000
 41
0.000000
 66
  1
  0
VERTEX
  8
gg1
 10
0.550000
 20
0.268000
  0
VERTEX
  8
gg1
 10
0.600000
 20
0.268000
  0
SEQEND
  8
gg1
  0
POLYLINE
  8
gg1
 62
1
 40
0.000000
 41
0.000000
 66
  1
  0
VERTEX
  8
gg1
 10
0.550000
 20
0.182000
  0
VERTEX
  8
gg1
 10
0.600000
 20
0.182000
  0
SEQEND
  8
gg1
  0
POLYLINE
  8
gg1
 62
1
 40
0.000000
 41
0.000000
 66
  1
  0
VERTEX
  8
gg1
 10
0.000000
 20
0.268000
  0
VERTEX
  8
gg1
 10
0.000000
 20
0.350000
  0
SEQEND
  8
gg1
  0
POLYLINE
  8
gg1
 62
1
 40
0.000000
 41
0.000000
 66
  1
  0
VERTEX
  8
gg1
 10
0.000000
 20
0.000000
  0
VERTEX
  8
gg1
 10
0.000000
 20
0.182000
  0
SEQEND
  8
gg1
  0
POLYLINE
  8
gg1
 62
1
 40
0.000000
 41
0.000000
 66
  1
  0
VERTEX
  8
gg1
 10
0.600000
 20
0.000000
  0
VERTEX
  8
gg1
 10
0.600000
 20
0.182000
  0
SEQEND
  8
gg1
  0
POLYLINE
  8
gg1
 62
1
 40
0.000000
 41
0.000000
 66
  1
  0
VERTEX
  8
gg1
 10
0.000000
 20
0.182000
  0
VERTEX
  8
gg1
 10
0.050000
 20
0.182000
  0
SEQEND
  8
gg1
  0
POLYLINE
  8
gg1
 62
1
 40
0.000000
 41
0.000000
 66
  1
  0
VERTEX
  8
gg1
 10
0.000000
 20
0.268000
  0
VERTEX
  8
gg1
 10
0.050000
 20
0.268000
  0
SEQEND
  8
gg1
  0
POLYLINE
  8
gg1
 62
1
 40
0.000000
 41
0.000000
 66
  1
  0
VERTEX
  8
gg1
 10
0.600000
 20
-0.135000
  0
VERTEX
  8
gg1
 10
0.600000
 20
-0.010000
  0
SEQEND
  8
gg1
  0
POLYLINE
  8
gg1
 62
1
 40
0.000000
 41
0.000000
 66
  1
  0
VERTEX
  8
gg1
 10
0.000000
 20
-0.135000
  0
VERTEX
  8
gg1
 10
0.000000
 20
-0.010000
  0
SEQEND
  8
gg1
  0
POLYLINE
  8
gg1
 62
1
 40
0.000000
 41
0.000000
 66
  1
  0
VERTEX
  8
gg1
 10
0.455000
 20
-0.125000
  0
VERTEX
  8
gg1
 10
0.600000
 20
-0.125000
  0
SEQEND
  8
gg1
  0
POLYLINE
  8
gg1
 62
1
 40
0.000000
 41
0.000000
 66
  1
  0
VERTEX
  8
gg1
 10
0.000000
 20
-0.125000
  0
VERTEX
  8
gg1
 10
0.113000
 20
-0.125000
  0
SEQEND
  8
gg1
  0
POLYLINE
  8
gg1
 62
1
 40
0.000000
 41
0.000000
 66
  1
  0
VERTEX
  8
gg1
 10
0.540000
 20
-0.105000
  0
VERTEX
  8
gg1
 10
0.600000
 20
-0.125000
  0
SEQEND
  8
gg1
  0
POLYLINE
  8
gg1
 62
1
 40
0.000000
 41
0.000000
 66
  1
  0
VERTEX
  8
gg1
 10
0.540000
 20
-0.145000
  0
VERTEX
  8
gg1
 10
0.600000
 20
-0.125000
  0
SEQEND
  8
gg1
  0
POLYLINE
  8
gg1
 62
1
 40
0.000000
 41
0.000000
 66
  1
  0
VERTEX
  8
gg1
 10
0.000000
 20
-0.125000
  0
VERTEX
  8
gg1
 10
0.060000
 20
-0.145000
  0
SEQEND
  8
gg1
  0
POLYLINE
  8
gg1
 62
1
 40
0.000000
 41
0.000000
 66
  1
  0
VERTEX
  8
gg1
 10
0.000000
 20
-0.125000
  0
VERTEX
  8
gg1
 10
0.060000
 20
-0.105000
  0
SEQEND
  8
gg1
  0
POLYLINE
  8
gg1
 62
1
 40
0.000000
 41
0.000000
 66
  1
  0
VERTEX
  8
gg1
 10
-0.135000
 20
0.000000
  0
VERTEX
  8
gg1
 10
-0.010000
 20
0.000000
  0
SEQEND
  8
gg1
  0
POLYLINE
  8
gg1
 62
1
 40
0.000000
 41
0.000000
 66
  1
  0
VERTEX
  8
gg1
 10
-0.135000
 20
0.350000
  0
VERTEX
  8
gg1
 10
-0.010000
 20
0.350000
  0
SEQEND
  8
gg1
  0
POLYLINE
  8
gg1
 62
1
 40
0.000000
 41
0.000000
 66
  1
  0
VERTEX
  8
gg1
 10
-0.125000
 20
0.000000
  0
VERTEX
  8
gg1
 10
-0.125000
 20
0.175000
  0
VERTEX
  8
gg1
 10
-0.125000
 20
0.350000
  0
SEQEND
  8
gg1
  0
POLYLINE
  8
gg1
 62
1
 40
0.000000
 41
0.000000
 66
  1
  0
VERTEX
  8
gg1
 10
-0.125000
 20
0.000000
  0
VERTEX
  8
gg1
 10
-0.105000
 20
0.060000
  0
SEQEND
  8
gg1
  0
POLYLINE
  8
gg1
 62
1
 40
0.000000
 41
0.000000
 66
  1
  0
VERTEX
  8
gg1
 10
-0.145000
 20
0.060000
  0
VERTEX
  8
gg1
 10
-0.125000
 20
0.000000
  0
SEQEND
  8
gg1
  0
POLYLINE
  8
gg1
 62
1
 40
0.000000
 41
0.000000
 66
  1
  0
VERTEX
  8
gg1
 10
-0.145000
 20
0.290000
  0
VERTEX
  8
gg1
 10
-0.125000
 20
0.350000
  0
VERTEX
  8
gg1
 10
-0.105000
 20
0.290000
  0
SEQEND
  8
gg1
  0
POLYLINE
  8
gg1
 62
1
 40
0.000000
 41
0.000000
 66
  1
  0
VERTEX
  8
gg1
 10
0.169000
 20
-0.101000
  0
VERTEX
  8
gg1
 10
0.149000
 20
-0.111000
  0
VERTEX
  8
gg1
 10
0.129100
 20
-0.131000
  0
VERTEX
  8
gg1
 10
0.129100
 20
-0.151000
  0
VERTEX
  8
gg1
 10
0.139000
 20
-0.161000
  0
VERTEX
  8
gg1
 10
0.159000
 20
-0.161000
  0
VERTEX
  8
gg1
 10
0.169000
 20
-0.151000
  0
VERTEX
  8
gg1
 10
0.169000
 20
-0.141000
  0
VERTEX
  8
gg1
 10
0.159000
 20
-0.131000
  0
VERTEX
  8
gg1
 10
0.129100
 20
-0.131000
  0
SEQEND
  8
gg1
  0
POLYLINE
  8
gg1
 62
1
 40
0.000000
 41
0.000000
 66
  1
  0
VERTEX
  8
gg1
 10
0.189000
 20
-0.111000
  0
VERTEX
  8
gg1
 10
0.199000
 20
-0.101000
  0
VERTEX
  8
gg1
 10
0.219000
 20
-0.101000
  0
VERTEX
  8
gg1
 10
0.229000
 20
-0.111000
  0
VERTEX
  8
gg1
 10
0.229000
 20
-0.151000
  0
VERTEX
  8
gg1
 10
0.219000
 20
-0.161000
  0
VERTEX
  8
gg1
 10
0.199000
 20
-0.161000
  0
VERTEX
  8
gg1
 10
0.189000
 20
-0.151000
  0
VERTEX
  8
gg1
 10
0.189000
 20
-0.111000
  0
SEQEND
  8
gg1
  0
POLYLINE
  8
gg1
 62
1
 40
0.000000
 41
0.000000
 66
  1
  0
VERTEX
  8
gg1
 10
0.249000
 20
-0.111000
  0
VERTEX
  8
gg1
 10
0.259000
 20
-0.101000
  0
VERTEX
  8
gg1
 10
0.279000
 20
-0.101000
  0
VERTEX
  8
gg1
 10
0.289000
 20
-0.111000
  0
VERTEX
  8
gg1
 10
0.289000
 20
-0.151000
  0
VERTEX
  8
gg1
 10
0.279000
 20
-0.161000
  0
VERTEX
  8
gg1
 10
0.259000
 20
-0.161000
  0
VERTEX
  8
gg1
 10
0.249000
 20
-0.151000
  0
VERTEX
  8
gg1
 10
0.249000
 20
-0.111000
  0
SEQEND
  8
gg1
  0
POLYLINE
  8
gg1
 62
1
 40
0.000000
 41
0.000000
 66
  1
  0
VERTEX
  8
gg1
 10
0.309000
 20
-0.161000
  0
VERTEX
  8
gg1
 10
0.309000
 20
-0.121000
  0
VERTEX
  8
gg1
 10
0.319000
 20
-0.121000
  0
VERTEX
  8
gg1
 10
0.329000
 20
-0.131000
  0
VERTEX
  8
gg1
 10
0.329000
 20
-0.161000
  0
VERTEX
  8
gg1
 10
0.329000
 20
-0.131000
  0
VERTEX
  8
gg1
 10
0.339000
 20
-0.121000
  0
VERTEX
  8
gg1
 10
0.349000
 20
-0.131000
  0
VERTEX
  8
gg1
 10
0.349000
 20
-0.161000
  0
SEQEND
  8
gg1
  0
POLYLINE
  8
gg1
 62
1
 40
0.000000
 41
0.000000
 66
  1
  0
VERTEX
  8
gg1
 10
0.369000
 20
-0.161000
  0
VERTEX
  8
gg1
 10
0.389000
 20
-0.161000
  0
VERTEX
  8
gg1
 10
0.379000
 20
-0.161000
  0
VERTEX
  8
gg1
 10
0.379000
 20
-0.121000
  0
VERTEX
  8
gg1
 10
0.369000
 20
-0.121000
  0
SEQEND
  8
gg1
  0
POLYLINE
  8
gg1
 62
1
 40
0.000000
 41
0.000000
 66
  1
  0
VERTEX
  8
gg1
 10
0.419000
 20
-0.161000
  0
VERTEX
  8
gg1
 10
0.439000
 20
-0.161000
  0
VERTEX
  8
gg1
 10
0.429000
 20
-0.161000
  0
VERTEX
  8
gg1
 10
0.429000
 20
-0.101000
  0
VERTEX
  8
gg1
 10
0.419000
 20
-0.101000
  0
SEQEND
  8
gg1
  0
POLYLINE
  8
gg1
 62
1
 40
0.000000
 41
0.000000
 66
  1
  0
VERTEX
  8
gg1
 10
-0.247000
 20
0.004100
  0
VERTEX
  8
gg1
 10
-0.257000
 20
0.014000
  0
VERTEX
  8
gg1
 10
-0.257000
 20
0.034000
  0
VERTEX
  8
gg1
 10
-0.247000
 20
0.044000
  0
VERTEX
  8
gg1
 10
-0.237000
 20
0.044000
  0
VERTEX
  8
gg1
 10
-0.227000
 20
0.034000
  0
VERTEX
  8
gg1
 10
-0.227000
 20
0.024000
  0
VERTEX
  8
gg1
 10
-0.227000
 20
0.034000
  0
VERTEX
  8
gg1
 10
-0.217000
 20
0.044000
  0
VERTEX
  8
gg1
 10
-0.207000
 20
0.044000
  0
VERTEX
  8
gg1
 10
-0.197000
 20
0.034000
  0
VERTEX
  8
gg1
 10
-0.197000
 20
0.014000
  0
VERTEX
  8
gg1
 10
-0.207000
 20
0.004100
  0
SEQEND
  8
gg1
  0
POLYLINE
  8
gg1
 62
1
 40
0.000000
 41
0.000000
 66
  1
  0
VERTEX
  8
gg1
 10
-0.257000
 20
0.104000
  0
VERTEX
  8
gg1
 10
-0.257000
 20
0.064000
  0
VERTEX
  8
gg1
 10
-0.227000
 20
0.064000
  0
VERTEX
  8
gg1
 10
-0.237000
 20
0.084000
  0
VERTEX
  8
gg1
 10
-0.237000
 20
0.094000
  0
VERTEX
  8
gg1
 10
-0.227000
 20
0.104000
  0
VERTEX
  8
gg1
 10
-0.207000
 20
0.104000
  0
VERTEX
  8
gg1
 10
-0.197000
 20
0.094000
  0
VERTEX
  8
gg1
 10
-0.197000
 20
0.074000
  0
VERTEX
  8
gg1
 10
-0.207000
 20
0.064000
  0
SEQEND
  8
gg1
  0
POLYLINE
  8
gg1
 62
1
 40
0.000000
 41
0.000000
 66
  1
  0
VERTEX
  8
gg1
 10
-0.247000
 20
0.124000
  0
VERTEX
  8
gg1
 10
-0.257000
 20
0.134000
  0
VERTEX
  8
gg1
 10
-0.257000
 20
0.154000
  0
VERTEX
  8
gg1
 10
-0.247000
 20
0.164000
  0
VERTEX
  8
gg1
 10
-0.207000
 20
0.164000
  0
VERTEX
  8
gg1
 10
-0.197000
 20
0.154000
  0
VERTEX
  8
gg1
 10
-0.197000
 20
0.134000
  0
VERTEX
  8
gg1
 10
-0.207000
 20
0.124000
  0
VERTEX
  8
gg1
 10
-0.247000
 20
0.124000
  0
SEQEND
  8
gg1
  0
POLYLINE
  8
gg1
 62
1
 40
0.000000
 41
0.000000
 66
  1
  0
VERTEX
  8
gg1
 10
-0.197000
 20
0.184000
  0
VERTEX
  8
gg1
 10
-0.237000
 20
0.184000
  0
VERTEX
  8
gg1
 10
-0.237000
 20
0.194000
  0
VERTEX
  8
gg1
 10
-0.227000
 20
0.204000
  0
VERTEX
  8
gg1
 10
-0.197000
 20
0.204000
  0
VERTEX
  8
gg1
 10
-0.227000
 20
0.204000
  0
VERTEX
  8
gg1
 10
-0.237000
 20
0.214000
  0
VERTEX
  8
gg1
 10
-0.227000
 20
0.224000
  0
VERTEX
  8
gg1
 10
-0.197000
 20
0.224000
  0
SEQEND
  8
gg1
  0
POLYLINE
  8
gg1
 62
1
 40
0.000000
 41
0.000000
 66
  1
  0
VERTEX
  8
gg1
 10
-0.197000
 20
0.244000
  0
VERTEX
  8
gg1
 10
-0.197000
 20
0.264000
  0
VERTEX
  8
gg1
 10
-0.197000
 20
0.254000
  0
VERTEX
  8
gg1
 10
-0.237000
 20
0.254000
  0
VERTEX
  8
gg1
 10
-0.237000
 20
0.244000
  0
SEQEND
  8
gg1
  0
POLYLINE
  8
gg1
 62
1
 40
0.000000
 41
0.000000
 66
  1
  0
VERTEX
  8
gg1
 10
-0.197000
 20
0.294000
  0
VERTEX
  8
gg1
 10
-0.197000
 20
0.314000
  0
VERTEX
  8
gg1
 10
-0.197000
 20
0.304000
  0
VERTEX
  8
gg1
 10
-0.257000
 20
0.304000
  0
VERTEX
  8
gg1
 10
-0.257000
 20
0.294000
  0
SEQEND
  8
gg1
  0
POLYLINE
  8
gg1
 62
1
 40
0.000000
 41
0.000000
 66
  1
  0
VERTEX
  8
gg1
 10
0.480000
 20
0.050000
  0
VERTEX
  8
gg1
 10
0.520000
 20
0.050000
  0
SEQEND
  8
gg1
  0
POLYLINE
  8
gg1
 62
1
 40
0.000000
 41
0.000000
 66
  1
  0
VERTEX
  8
gg1
 10
0.500000
 20
0.030000
  0
VERTEX
  8
gg1
 10
0.500000
 20
0.070000
  0
SEQEND
  8
gg1
  0
POLYLINE
  8
gg1
 62
1
 40
0.000000
 41
0.000000
 66
  1
  0
VERTEX
  8
gg1
 10
0.380000
 20
0.050000
  0
VERTEX
  8
gg1
 10
0.420000
 20
0.050000
  0
SEQEND
  8
gg1
  0
POLYLINE
  8
gg1
 62
1
 40
0.000000
 41
0.000000
 66
  1
  0
VERTEX
  8
gg1
 10
0.400000
 20
0.030000
  0
VERTEX
  8
gg1
 10
0.400000
 20
0.070000
  0
SEQEND
  8
gg1
  0
POLYLINE
  8
gg1
 62
1
 40
0.000000
 41
0.000000
 66
  1
  0
VERTEX
  8
gg1
 10
0.280000
 20
0.050000
  0
VERTEX
  8
gg1
 10
0.320000
 20
0.050000
  0
SEQEND
  8
gg1
  0
POLYLINE
  8
gg1
 62
1
 40
0.000000
 41
0.000000
 66
  1
  0
VERTEX
  8
gg1
 10
0.300000
 20
0.030000
  0
VERTEX
  8
gg1
 10
0.300000
 20
0.070000
  0
SEQEND
  8
gg1
  0
POLYLINE
  8
gg1
 62
1
 40
0.000000
 41
0.000000
 66
  1
  0
VERTEX
  8
gg1
 10
0.180000
 20
0.050000
  0
VERTEX
  8
gg1
 10
0.220000
 20
0.050000
  0
SEQEND
  8
gg1
  0
POLYLINE
  8
gg1
 62
1
 40
0.000000
 41
0.000000
 66
  1
  0
VERTEX
  8
gg1
 10
0.200000
 20
0.030000
  0
VERTEX
  8
gg1
 10
0.200000
 20
0.070000
  0
SEQEND
  8
gg1
  0
POLYLINE
  8
gg1
 62
1
 40
0.000000
 41
0.000000
 66
  1
  0
VERTEX
  8
gg1
 10
0.080000
 20
0.050000
  0
VERTEX
  8
gg1
 10
0.120000
 20
0.050000
  0
SEQEND
  8
gg1
  0
POLYLINE
  8
gg1
 62
1
 40
0.000000
 41
0.000000
 66
  1
  0
VERTEX
  8
gg1
 10
0.100000
 20
0.030000
  0
VERTEX
  8
gg1
 10
0.100000
 20
0.070000
  0
SEQEND
  8
gg1
  0
POLYLINE
  8
gg1
 62
1
 40
0.000000
 41
0.000000
 66
  1
  0
VERTEX
  8
gg1
 10
0.190700
 20
0.185000
  0
VERTEX
  8
gg1
 10
0.212400
 20
0.185000
  0
SEQEND
  8
gg1
  0
POLYLINE
  8
gg1
 62
1
 40
0.000000
 41
0.000000
 66
  1
  0
VERTEX
  8
gg1
 10
0.201600
 20
0.174200
  0
VERTEX
  8
gg1
 10
0.201600
 20
0.195800
  0
SEQEND
  8
gg1
  0
POLYLINE
  8
gg1
 62
1
 40
0.000000
 41
0.000000
 66
  1
  0
VERTEX
  8
gg1
 10
0.427000
 20
0.291300
  0
VERTEX
  8
gg1
 10
0.448600
 20
0.291300
  0
SEQEND
  8
gg1
  0
POLYLINE
  8
gg1
 62
1
 40
0.000000
 41
0.000000
 66
  1
  0
VERTEX
  8
gg1
 10
0.437800
 20
0.280500
  0
VERTEX
  8
gg1
 10
0.437800
 20
0.302100
  0
SEQEND
  8
gg1
  0
POLYLINE
  8
gg1
 62
1
 40
0.000000
 41
0.000000
 66
  1
  0
VERTEX
  8
gg1
 10
0.387600
 20
0.185000
  0
VERTEX
  8
gg1
 10
0.409300
 20
0.185000
  0
SEQEND
  8
gg1
  0
POLYLINE
  8
gg1
 62
1
 40
0.000000
 41
0.000000
 66
  1
  0
VERTEX
  8
gg1
 10
0.398400
 20
0.174200
  0
VERTEX
  8
gg1
 10
0.398400
 20
0.195800
  0
SEQEND
  8
gg1
  0
POLYLINE
  8
gg1
 62
1
 40
0.000000
 41
0.000000
 66
  1
  0
VERTEX
  8
gg1
 10
0.151400
 20
0.291300
  0
VERTEX
  8
gg1
 10
0.173000
 20
0.291300
  0
SEQEND
  8
gg1
  0
POLYLINE
  8
gg1
 62
1
 40
0.000000
 41
0.000000
 66
  1
  0
VERTEX
  8
gg1
 10
0.162200
 20
0.280500
  0
VERTEX
  8
gg1
 10
0.162200
 20
0.302100
  0
SEQEND
  8
gg1
  0
ENDSEC
  0
EOF
