  0
SECTION
  2
HEADER
  9
$EXTMIN
 10
-0.182000
 20
-0.139000
  9
$EXTMAX
 10
0.605000
 20
0.805000
  9
$LIMMIN
 10
-0.182000
 20
-0.139000
  9
$LIMMAX
 10
0.605000
 20
0.805000
  9
$FILLMODE
 70
  1
  0
ENDSEC
  0
SECTION
  2
TABLES
  0
TABLE
  2
LTYPE
 70
  1
  0
LTYPE
  2
CONTINUOUS
 70
 64
  3
Solid line
 72
 65
 73
  0
 40
0.0
  0
ENDTAB
  0
TABLE
  2
LAYER
 70
 1
  0
LAYER
  2
0
 70
  0
 62
7
  6
CONTINUOUS
  0
LAYER
  2
gg1
 70
  0
 62
1
  6
CONTINUOUS
  0
ENDTAB
  0
TABLE
  2
STYLE
 70
  1
  0
STYLE
  2
STANDARD
 70
  0
 40
0.0
 41
1.0
 50
0.0
 71
  0
 42
0.2
  3
txt
  4

  0
ENDTAB
  0
ENDSEC
  0
SECTION
  2
BLOCKS
  0
BLOCK
  8
0
  2
D10
 70
64
 10
0.0
 20
0.0
  3
D10
  0
CIRCLE
  8
0
 10
0.000000
 20
0.000000
 40
0.005000
 0
ENDBLK
  8
0
  0
BLOCK
  8
0
  2
D11
 70
64
 10
0.0
 20
0.0
  3
D11
  0
CIRCLE
  8
0
 10
0.000000
 20
0.000000
 40
0.002500
 0
ENDBLK
  8
0
  0
BLOCK
  8
0
  2
D12
 70
64
 10
0.0
 20
0.0
  3
D12
  0
CIRCLE
  8
0
 10
0.000000
 20
0.000000
 40
0.003000
 0
ENDBLK
  8
0
  0
ENDSEC
  0
SECTION
  2
ENTITIES
  0
POLYLINE
  8
gg1
 62
1
 40
0.000000
 41
0.000000
 66
  1
  0
VERTEX
  8
gg1
 10
-0.165000
 20
0.800000
  0
VERTEX
  8
gg1
 10
-0.012500
 20
0.800000
  0
SEQEND
  8
gg1
  0
POLYLINE
  8
gg1
 62
1
 40
0.000000
 41
0.000000
 66
  1
  0
VERTEX
  8
gg1
 10
-0.165000
 20
0.000000
  0
VERTEX
  8
gg1
 10
-0.012500
 20
0.000000
  0
SEQEND
  8
gg1
  0
POLYLINE
  8
gg1
 62
1
 40
0.000000
 41
0.000000
 66
  1
  0
VERTEX
  8
gg1
 10
-0.155000
 20
0.554950
  0
VERTEX
  8
gg1
 10
-0.155000
 20
0.800000
  0
SEQEND
  8
gg1
  0
POLYLINE
  8
gg1
 62
1
 40
0.000000
 41
0.000000
 66
  1
  0
VERTEX
  8
gg1
 10
-0.155000
 20
0.000000
  0
VERTEX
  8
gg1
 10
-0.155000
 20
0.213050
  0
SEQEND
  8
gg1
  0
POLYLINE
  8
gg1
 62
1
 40
0.000000
 41
0.000000
 66
  1
  0
VERTEX
  8
gg1
 10
-0.175000
 20
0.740000
  0
VERTEX
  8
gg1
 10
-0.155000
 20
0.800000
  0
VERTEX
  8
gg1
 10
-0.135000
 20
0.740000
  0
SEQEND
  8
gg1
  0
POLYLINE
  8
gg1
 62
1
 40
0.000000
 41
0.000000
 66
  1
  0
VERTEX
  8
gg1
 10
-0.155000
 20
0.000000
  0
VERTEX
  8
gg1
 10
-0.135000
 20
0.060000
  0
SEQEND
  8
gg1
  0
POLYLINE
  8
gg1
 62
1
 40
0.000000
 41
0.000000
 66
  1
  0
VERTEX
  8
gg1
 10
-0.175000
 20
0.060000
  0
VERTEX
  8
gg1
 10
-0.155000
 20
0.000000
  0
SEQEND
  8
gg1
  0
POLYLINE
  8
gg1
 62
1
 40
0.000000
 41
0.000000
 66
  1
  0
VERTEX
  8
gg1
 10
0.600000
 20
-0.110000
  0
VERTEX
  8
gg1
 10
0.600000
 20
-0.012500
  0
SEQEND
  8
gg1
  0
POLYLINE
  8
gg1
 62
1
 40
0.000000
 41
0.000000
 66
  1
  0
VERTEX
  8
gg1
 10
0.000000
 20
-0.110000
  0
VERTEX
  8
gg1
 10
0.000000
 20
-0.010000
  0
SEQEND
  8
gg1
  0
POLYLINE
  8
gg1
 62
1
 40
0.000000
 41
0.000000
 66
  1
  0
VERTEX
  8
gg1
 10
0.454950
 20
-0.100000
  0
VERTEX
  8
gg1
 10
0.600000
 20
-0.100000
  0
SEQEND
  8
gg1
  0
POLYLINE
  8
gg1
 62
1
 40
0.000000
 41
0.000000
 66
  1
  0
VERTEX
  8
gg1
 10
0.000000
 20
-0.100000
  0
VERTEX
  8
gg1
 10
0.113050
 20
-0.100000
  0
SEQEND
  8
gg1
  0
POLYLINE
  8
gg1
 62
1
 40
0.000000
 41
0.000000
 66
  1
  0
VERTEX
  8
gg1
 10
0.540000
 20
-0.080000
  0
VERTEX
  8
gg1
 10
0.600000
 20
-0.100000
  0
SEQEND
  8
gg1
  0
POLYLINE
  8
gg1
 62
1
 40
0.000000
 41
0.000000
 66
  1
  0
VERTEX
  8
gg1
 10
0.540000
 20
-0.120000
  0
VERTEX
  8
gg1
 10
0.600000
 20
-0.100000
  0
SEQEND
  8
gg1
  0
POLYLINE
  8
gg1
 62
1
 40
0.000000
 41
0.000000
 66
  1
  0
VERTEX
  8
gg1
 10
0.000000
 20
-0.100000
  0
VERTEX
  8
gg1
 10
0.060000
 20
-0.120000
  0
SEQEND
  8
gg1
  0
POLYLINE
  8
gg1
 62
1
 40
0.000000
 41
0.000000
 66
  1
  0
VERTEX
  8
gg1
 10
0.000000
 20
-0.100000
  0
VERTEX
  8
gg1
 10
0.060000
 20
-0.080000
  0
SEQEND
  8
gg1
  0
POLYLINE
  8
gg1
 62
1
 40
0.000000
 41
0.000000
 66
  1
  0
VERTEX
  8
gg1
 10
0.000000
 20
0.000000
  0
VERTEX
  8
gg1
 10
0.600000
 20
0.000000
  0
VERTEX
  8
gg1
 10
0.600000
 20
0.800000
  0
SEQEND
  8
gg1
  0
POLYLINE
  8
gg1
 62
1
 40
0.000000
 41
0.000000
 66
  1
  0
VERTEX
  8
gg1
 10
0.000000
 20
0.800000
  0
VERTEX
  8
gg1
 10
0.600000
 20
0.800000
  0
SEQEND
  8
gg1
  0
POLYLINE
  8
gg1
 62
1
 40
0.000000
 41
0.000000
 66
  1
  0
VERTEX
  8
gg1
 10
0.000000
 20
0.000000
  0
VERTEX
  8
gg1
 10
0.000000
 20
0.800000
  0
SEQEND
  8
gg1
  0
POLYLINE
  8
gg1
 62
1
 40
0.000000
 41
0.000000
 66
  1
  0
VERTEX
  8
gg1
 10
0.530000
 20
0.050000
  0
VERTEX
  8
gg1
 10
0.570000
 20
0.050000
  0
SEQEND
  8
gg1
  0
POLYLINE
  8
gg1
 62
1
 40
0.000000
 41
0.000000
 66
  1
  0
VERTEX
  8
gg1
 10
0.550000
 20
0.030000
  0
VERTEX
  8
gg1
 10
0.550000
 20
0.070000
  0
SEQEND
  8
gg1
  0
POLYLINE
  8
gg1
 62
1
 40
0.000000
 41
0.000000
 66
  1
  0
VERTEX
  8
gg1
 10
0.530000
 20
0.150000
  0
VERTEX
  8
gg1
 10
0.570000
 20
0.150000
  0
SEQEND
  8
gg1
  0
POLYLINE
  8
gg1
 62
1
 40
0.000000
 41
0.000000
 66
  1
  0
VERTEX
  8
gg1
 10
0.550000
 20
0.130000
  0
VERTEX
  8
gg1
 10
0.550000
 20
0.170000
  0
SEQEND
  8
gg1
  0
POLYLINE
  8
gg1
 62
1
 40
0.000000
 41
0.000000
 66
  1
  0
VERTEX
  8
gg1
 10
0.530000
 20
0.250000
  0
VERTEX
  8
gg1
 10
0.570000
 20
0.250000
  0
SEQEND
  8
gg1
  0
POLYLINE
  8
gg1
 62
1
 40
0.000000
 41
0.000000
 66
  1
  0
VERTEX
  8
gg1
 10
0.550000
 20
0.230000
  0
VERTEX
  8
gg1
 10
0.550000
 20
0.270000
  0
SEQEND
  8
gg1
  0
POLYLINE
  8
gg1
 62
1
 40
0.000000
 41
0.000000
 66
  1
  0
VERTEX
  8
gg1
 10
0.530000
 20
0.750000
  0
VERTEX
  8
gg1
 10
0.570000
 20
0.750000
  0
SEQEND
  8
gg1
  0
POLYLINE
  8
gg1
 62
1
 40
0.000000
 41
0.000000
 66
  1
  0
VERTEX
  8
gg1
 10
0.550000
 20
0.730000
  0
VERTEX
  8
gg1
 10
0.550000
 20
0.770000
  0
SEQEND
  8
gg1
  0
POLYLINE
  8
gg1
 62
1
 40
0.000000
 41
0.000000
 66
  1
  0
VERTEX
  8
gg1
 10
0.530000
 20
0.650000
  0
VERTEX
  8
gg1
 10
0.570000
 20
0.650000
  0
SEQEND
  8
gg1
  0
POLYLINE
  8
gg1
 62
1
 40
0.000000
 41
0.000000
 66
  1
  0
VERTEX
  8
gg1
 10
0.550000
 20
0.630000
  0
VERTEX
  8
gg1
 10
0.550000
 20
0.670000
  0
SEQEND
  8
gg1
  0
POLYLINE
  8
gg1
 62
1
 40
0.000000
 41
0.000000
 66
  1
  0
VERTEX
  8
gg1
 10
0.530000
 20
0.550000
  0
VERTEX
  8
gg1
 10
0.570000
 20
0.550000
  0
SEQEND
  8
gg1
  0
POLYLINE
  8
gg1
 62
1
 40
0.000000
 41
0.000000
 66
  1
  0
VERTEX
  8
gg1
 10
0.550000
 20
0.530000
  0
VERTEX
  8
gg1
 10
0.550000
 20
0.570000
  0
SEQEND
  8
gg1
  0
POLYLINE
  8
gg1
 62
1
 40
0.000000
 41
0.000000
 66
  1
  0
VERTEX
  8
gg1
 10
0.530000
 20
0.450000
  0
VERTEX
  8
gg1
 10
0.570000
 20
0.450000
  0
SEQEND
  8
gg1
  0
POLYLINE
  8
gg1
 62
1
 40
0.000000
 41
0.000000
 66
  1
  0
VERTEX
  8
gg1
 10
0.550000
 20
0.430000
  0
VERTEX
  8
gg1
 10
0.550000
 20
0.470000
  0
SEQEND
  8
gg1
  0
POLYLINE
  8
gg1
 62
1
 40
0.000000
 41
0.000000
 66
  1
  0
VERTEX
  8
gg1
 10
0.530000
 20
0.350000
  0
VERTEX
  8
gg1
 10
0.570000
 20
0.350000
  0
SEQEND
  8
gg1
  0
POLYLINE
  8
gg1
 62
1
 40
0.000000
 41
0.000000
 66
  1
  0
VERTEX
  8
gg1
 10
0.550000
 20
0.330000
  0
VERTEX
  8
gg1
 10
0.550000
 20
0.370000
  0
SEQEND
  8
gg1
  0
POLYLINE
  8
gg1
 62
1
 40
0.000000
 41
0.000000
 66
  1
  0
VERTEX
  8
gg1
 10
0.030000
 20
0.050000
  0
VERTEX
  8
gg1
 10
0.070000
 20
0.050000
  0
SEQEND
  8
gg1
  0
POLYLINE
  8
gg1
 62
1
 40
0.000000
 41
0.000000
 66
  1
  0
VERTEX
  8
gg1
 10
0.050000
 20
0.030000
  0
VERTEX
  8
gg1
 10
0.050000
 20
0.070000
  0
SEQEND
  8
gg1
  0
POLYLINE
  8
gg1
 62
1
 40
0.000000
 41
0.000000
 66
  1
  0
VERTEX
  8
gg1
 10
0.030000
 20
0.150000
  0
VERTEX
  8
gg1
 10
0.070000
 20
0.150000
  0
SEQEND
  8
gg1
  0
POLYLINE
  8
gg1
 62
1
 40
0.000000
 41
0.000000
 66
  1
  0
VERTEX
  8
gg1
 10
0.050000
 20
0.130000
  0
VERTEX
  8
gg1
 10
0.050000
 20
0.170000
  0
SEQEND
  8
gg1
  0
POLYLINE
  8
gg1
 62
1
 40
0.000000
 41
0.000000
 66
  1
  0
VERTEX
  8
gg1
 10
0.030000
 20
0.250000
  0
VERTEX
  8
gg1
 10
0.070000
 20
0.250000
  0
SEQEND
  8
gg1
  0
POLYLINE
  8
gg1
 62
1
 40
0.000000
 41
0.000000
 66
  1
  0
VERTEX
  8
gg1
 10
0.050000
 20
0.230000
  0
VERTEX
  8
gg1
 10
0.050000
 20
0.270000
  0
SEQEND
  8
gg1
  0
POLYLINE
  8
gg1
 62
1
 40
0.000000
 41
0.000000
 66
  1
  0
VERTEX
  8
gg1
 10
0.030000
 20
0.750000
  0
VERTEX
  8
gg1
 10
0.070000
 20
0.750000
  0
SEQEND
  8
gg1
  0
POLYLINE
  8
gg1
 62
1
 40
0.000000
 41
0.000000
 66
  1
  0
VERTEX
  8
gg1
 10
0.050000
 20
0.730000
  0
VERTEX
  8
gg1
 10
0.050000
 20
0.770000
  0
SEQEND
  8
gg1
  0
POLYLINE
  8
gg1
 62
1
 40
0.000000
 41
0.000000
 66
  1
  0
VERTEX
  8
gg1
 10
0.030000
 20
0.650000
  0
VERTEX
  8
gg1
 10
0.070000
 20
0.650000
  0
SEQEND
  8
gg1
  0
POLYLINE
  8
gg1
 62
1
 40
0.000000
 41
0.000000
 66
  1
  0
VERTEX
  8
gg1
 10
0.050000
 20
0.630000
  0
VERTEX
  8
gg1
 10
0.050000
 20
0.670000
  0
SEQEND
  8
gg1
  0
POLYLINE
  8
gg1
 62
1
 40
0.000000
 41
0.000000
 66
  1
  0
VERTEX
  8
gg1
 10
0.030000
 20
0.550000
  0
VERTEX
  8
gg1
 10
0.070000
 20
0.550000
  0
SEQEND
  8
gg1
  0
POLYLINE
  8
gg1
 62
1
 40
0.000000
 41
0.000000
 66
  1
  0
VERTEX
  8
gg1
 10
0.050000
 20
0.530000
  0
VERTEX
  8
gg1
 10
0.050000
 20
0.570000
  0
SEQEND
  8
gg1
  0
POLYLINE
  8
gg1
 62
1
 40
0.000000
 41
0.000000
 66
  1
  0
VERTEX
  8
gg1
 10
0.030000
 20
0.450000
  0
VERTEX
  8
gg1
 10
0.070000
 20
0.450000
  0
SEQEND
  8
gg1
  0
POLYLINE
  8
gg1
 62
1
 40
0.000000
 41
0.000000
 66
  1
  0
VERTEX
  8
gg1
 10
0.050000
 20
0.430000
  0
VERTEX
  8
gg1
 10
0.050000
 20
0.470000
  0
SEQEND
  8
gg1
  0
POLYLINE
  8
gg1
 62
1
 40
0.000000
 41
0.000000
 66
  1
  0
VERTEX
  8
gg1
 10
0.030000
 20
0.350000
  0
VERTEX
  8
gg1
 10
0.070000
 20
0.350000
  0
SEQEND
  8
gg1
  0
POLYLINE
  8
gg1
 62
1
 40
0.000000
 41
0.000000
 66
  1
  0
VERTEX
  8
gg1
 10
0.050000
 20
0.330000
  0
VERTEX
  8
gg1
 10
0.050000
 20
0.370000
  0
SEQEND
  8
gg1
  0
POLYLINE
  8
gg1
 62
1
 40
0.000000
 41
0.000000
 66
  1
  0
VERTEX
  8
gg1
 10
0.430000
 20
0.050000
  0
VERTEX
  8
gg1
 10
0.470000
 20
0.050000
  0
SEQEND
  8
gg1
  0
POLYLINE
  8
gg1
 62
1
 40
0.000000
 41
0.000000
 66
  1
  0
VERTEX
  8
gg1
 10
0.450000
 20
0.030000
  0
VERTEX
  8
gg1
 10
0.450000
 20
0.070000
  0
SEQEND
  8
gg1
  0
POLYLINE
  8
gg1
 62
1
 40
0.000000
 41
0.000000
 66
  1
  0
VERTEX
  8
gg1
 10
0.130000
 20
0.750000
  0
VERTEX
  8
gg1
 10
0.170000
 20
0.750000
  0
SEQEND
  8
gg1
  0
POLYLINE
  8
gg1
 62
1
 40
0.000000
 41
0.000000
 66
  1
  0
VERTEX
  8
gg1
 10
0.150000
 20
0.730000
  0
VERTEX
  8
gg1
 10
0.150000
 20
0.770000
  0
SEQEND
  8
gg1
  0
POLYLINE
  8
gg1
 62
1
 40
0.000000
 41
0.000000
 66
  1
  0
VERTEX
  8
gg1
 10
0.159000
 20
0.410000
  0
VERTEX
  8
gg1
 10
0.171000
 20
0.410000
  0
SEQEND
  8
gg1
  0
POLYLINE
  8
gg1
 62
1
 40
0.000000
 41
0.000000
 66
  1
  0
VERTEX
  8
gg1
 10
0.165000
 20
0.404000
  0
VERTEX
  8
gg1
 10
0.165000
 20
0.416000
  0
SEQEND
  8
gg1
  0
POLYLINE
  8
gg1
 62
1
 40
0.000000
 41
0.000000
 66
  1
  0
VERTEX
  8
gg1
 10
0.447500
 20
0.641000
  0
VERTEX
  8
gg1
 10
0.462500
 20
0.641000
  0
SEQEND
  8
gg1
  0
POLYLINE
  8
gg1
 62
1
 40
0.000000
 41
0.000000
 66
  1
  0
VERTEX
  8
gg1
 10
0.455000
 20
0.633500
  0
VERTEX
  8
gg1
 10
0.455000
 20
0.648500
  0
SEQEND
  8
gg1
  0
POLYLINE
  8
gg1
 62
1
 40
0.000000
 41
0.000000
 66
  1
  0
VERTEX
  8
gg1
 10
0.462500
 20
0.615000
  0
VERTEX
  8
gg1
 10
0.477500
 20
0.615000
  0
SEQEND
  8
gg1
  0
POLYLINE
  8
gg1
 62
1
 40
0.000000
 41
0.000000
 66
  1
  0
VERTEX
  8
gg1
 10
0.470000
 20
0.607500
  0
VERTEX
  8
gg1
 10
0.470000
 20
0.622500
  0
SEQEND
  8
gg1
  0
POLYLINE
  8
gg1
 62
1
 40
0.000000
 41
0.000000
 66
  1
  0
VERTEX
  8
gg1
 10
0.432500
 20
0.615000
  0
VERTEX
  8
gg1
 10
0.447500
 20
0.615000
  0
SEQEND
  8
gg1
  0
POLYLINE
  8
gg1
 62
1
 40
0.000000
 41
0.000000
 66
  1
  0
VERTEX
  8
gg1
 10
0.440000
 20
0.607500
  0
VERTEX
  8
gg1
 10
0.440000
 20
0.622500
  0
SEQEND
  8
gg1
  0
POLYLINE
  8
gg1
 62
1
 40
0.000000
 41
0.000000
 66
  1
  0
VERTEX
  8
gg1
 10
0.373500
 20
0.656000
  0
VERTEX
  8
gg1
 10
0.388500
 20
0.656000
  0
SEQEND
  8
gg1
  0
POLYLINE
  8
gg1
 62
1
 40
0.000000
 41
0.000000
 66
  1
  0
VERTEX
  8
gg1
 10
0.381000
 20
0.648500
  0
VERTEX
  8
gg1
 10
0.381000
 20
0.663500
  0
SEQEND
  8
gg1
  0
POLYLINE
  8
gg1
 62
1
 40
0.000000
 41
0.000000
 66
  1
  0
VERTEX
  8
gg1
 10
0.279000
 20
0.114000
  0
VERTEX
  8
gg1
 10
0.291000
 20
0.114000
  0
SEQEND
  8
gg1
  0
POLYLINE
  8
gg1
 62
1
 40
0.000000
 41
0.000000
 66
  1
  0
VERTEX
  8
gg1
 10
0.285000
 20
0.108000
  0
VERTEX
  8
gg1
 10
0.285000
 20
0.120000
  0
SEQEND
  8
gg1
  0
POLYLINE
  8
gg1
 62
1
 40
0.000000
 41
0.000000
 66
  1
  0
VERTEX
  8
gg1
 10
0.164000
 20
0.080560
  0
VERTEX
  8
gg1
 10
0.176000
 20
0.080560
  0
SEQEND
  8
gg1
  0
POLYLINE
  8
gg1
 62
1
 40
0.000000
 41
0.000000
 66
  1
  0
VERTEX
  8
gg1
 10
0.170000
 20
0.074560
  0
VERTEX
  8
gg1
 10
0.170000
 20
0.086560
  0
SEQEND
  8
gg1
  0
POLYLINE
  8
gg1
 62
1
 40
0.000000
 41
0.000000
 66
  1
  0
VERTEX
  8
gg1
 10
0.196480
 20
0.727480
  0
VERTEX
  8
gg1
 10
0.208480
 20
0.727480
  0
SEQEND
  8
gg1
  0
POLYLINE
  8
gg1
 62
1
 40
0.000000
 41
0.000000
 66
  1
  0
VERTEX
  8
gg1
 10
0.202480
 20
0.721480
  0
VERTEX
  8
gg1
 10
0.202480
 20
0.733480
  0
SEQEND
  8
gg1
  0
POLYLINE
  8
gg1
 62
1
 40
0.000000
 41
0.000000
 66
  1
  0
VERTEX
  8
gg1
 10
0.278500
 20
0.566000
  0
VERTEX
  8
gg1
 10
0.293500
 20
0.566000
  0
SEQEND
  8
gg1
  0
POLYLINE
  8
gg1
 62
1
 40
0.000000
 41
0.000000
 66
  1
  0
VERTEX
  8
gg1
 10
0.286000
 20
0.558500
  0
VERTEX
  8
gg1
 10
0.286000
 20
0.573500
  0
SEQEND
  8
gg1
  0
POLYLINE
  8
gg1
 62
1
 40
0.000000
 41
0.000000
 66
  1
  0
VERTEX
  8
gg1
 10
0.127000
 20
0.393000
  0
VERTEX
  8
gg1
 10
0.139000
 20
0.393000
  0
SEQEND
  8
gg1
  0
POLYLINE
  8
gg1
 62
1
 40
0.000000
 41
0.000000
 66
  1
  0
VERTEX
  8
gg1
 10
0.133000
 20
0.387000
  0
VERTEX
  8
gg1
 10
0.133000
 20
0.399000
  0
SEQEND
  8
gg1
  0
POLYLINE
  8
gg1
 62
1
 40
0.000000
 41
0.000000
 66
  1
  0
VERTEX
  8
gg1
 10
0.124000
 20
0.429000
  0
VERTEX
  8
gg1
 10
0.136000
 20
0.429000
  0
SEQEND
  8
gg1
  0
POLYLINE
  8
gg1
 62
1
 40
0.000000
 41
0.000000
 66
  1
  0
VERTEX
  8
gg1
 10
0.130000
 20
0.423000
  0
VERTEX
  8
gg1
 10
0.130000
 20
0.435000
  0
SEQEND
  8
gg1
  0
POLYLINE
  8
gg1
 62
1
 40
0.000000
 41
0.000000
 66
  1
  0
VERTEX
  8
gg1
 10
0.214000
 20
0.465000
  0
VERTEX
  8
gg1
 10
0.226000
 20
0.465000
  0
SEQEND
  8
gg1
  0
POLYLINE
  8
gg1
 62
1
 40
0.000000
 41
0.000000
 66
  1
  0
VERTEX
  8
gg1
 10
0.220000
 20
0.459000
  0
VERTEX
  8
gg1
 10
0.220000
 20
0.471000
  0
SEQEND
  8
gg1
  0
POLYLINE
  8
gg1
 62
1
 40
0.000000
 41
0.000000
 66
  1
  0
VERTEX
  8
gg1
 10
0.195000
 20
0.227000
  0
VERTEX
  8
gg1
 10
0.207000
 20
0.227000
  0
SEQEND
  8
gg1
  0
POLYLINE
  8
gg1
 62
1
 40
0.000000
 41
0.000000
 66
  1
  0
VERTEX
  8
gg1
 10
0.201000
 20
0.221000
  0
VERTEX
  8
gg1
 10
0.201000
 20
0.233000
  0
SEQEND
  8
gg1
  0
POLYLINE
  8
gg1
 62
1
 40
0.000000
 41
0.000000
 66
  1
  0
VERTEX
  8
gg1
 10
0.124000
 20
0.225000
  0
VERTEX
  8
gg1
 10
0.136000
 20
0.225000
  0
SEQEND
  8
gg1
  0
POLYLINE
  8
gg1
 62
1
 40
0.000000
 41
0.000000
 66
  1
  0
VERTEX
  8
gg1
 10
0.130000
 20
0.219000
  0
VERTEX
  8
gg1
 10
0.130000
 20
0.231000
  0
SEQEND
  8
gg1
  0
POLYLINE
  8
gg1
 62
1
 40
0.000000
 41
0.000000
 66
  1
  0
VERTEX
  8
gg1
 10
0.121500
 20
0.570000
  0
VERTEX
  8
gg1
 10
0.136500
 20
0.570000
  0
SEQEND
  8
gg1
  0
POLYLINE
  8
gg1
 62
1
 40
0.000000
 41
0.000000
 66
  1
  0
VERTEX
  8
gg1
 10
0.129000
 20
0.562500
  0
VERTEX
  8
gg1
 10
0.129000
 20
0.577500
  0
SEQEND
  8
gg1
  0
POLYLINE
  8
gg1
 62
1
 40
0.000000
 41
0.000000
 66
  1
  0
VERTEX
  8
gg1
 10
0.316250
 20
0.515000
  0
VERTEX
  8
gg1
 10
0.336250
 20
0.515000
  0
SEQEND
  8
gg1
  0
POLYLINE
  8
gg1
 62
1
 40
0.000000
 41
0.000000
 66
  1
  0
VERTEX
  8
gg1
 10
0.326250
 20
0.505000
  0
VERTEX
  8
gg1
 10
0.326250
 20
0.525000
  0
SEQEND
  8
gg1
  0
POLYLINE
  8
gg1
 62
1
 40
0.000000
 41
0.000000
 66
  1
  0
VERTEX
  8
gg1
 10
0.244000
 20
0.195000
  0
VERTEX
  8
gg1
 10
0.256000
 20
0.195000
  0
SEQEND
  8
gg1
  0
POLYLINE
  8
gg1
 62
1
 40
0.000000
 41
0.000000
 66
  1
  0
VERTEX
  8
gg1
 10
0.250000
 20
0.189000
  0
VERTEX
  8
gg1
 10
0.250000
 20
0.201000
  0
SEQEND
  8
gg1
  0
POLYLINE
  8
gg1
 62
1
 40
0.000000
 41
0.000000
 66
  1
  0
VERTEX
  8
gg1
 10
0.379000
 20
0.037000
  0
VERTEX
  8
gg1
 10
0.391000
 20
0.037000
  0
SEQEND
  8
gg1
  0
POLYLINE
  8
gg1
 62
1
 40
0.000000
 41
0.000000
 66
  1
  0
VERTEX
  8
gg1
 10
0.385000
 20
0.031000
  0
VERTEX
  8
gg1
 10
0.385000
 20
0.043000
  0
SEQEND
  8
gg1
  0
POLYLINE
  8
gg1
 62
1
 40
0.000000
 41
0.000000
 66
  1
  0
VERTEX
  8
gg1
 10
0.367500
 20
0.450000
  0
VERTEX
  8
gg1
 10
0.382500
 20
0.450000
  0
SEQEND
  8
gg1
  0
POLYLINE
  8
gg1
 62
1
 40
0.000000
 41
0.000000
 66
  1
  0
VERTEX
  8
gg1
 10
0.375000
 20
0.442500
  0
VERTEX
  8
gg1
 10
0.375000
 20
0.457500
  0
SEQEND
  8
gg1
  0
POLYLINE
  8
gg1
 62
1
 40
0.000000
 41
0.000000
 66
  1
  0
VERTEX
  8
gg1
 10
0.407500
 20
0.215000
  0
VERTEX
  8
gg1
 10
0.422500
 20
0.215000
  0
SEQEND
  8
gg1
  0
POLYLINE
  8
gg1
 62
1
 40
0.000000
 41
0.000000
 66
  1
  0
VERTEX
  8
gg1
 10
0.415000
 20
0.207500
  0
VERTEX
  8
gg1
 10
0.415000
 20
0.222500
  0
SEQEND
  8
gg1
  0
POLYLINE
  8
gg1
 62
1
 40
0.000000
 41
0.000000
 66
  1
  0
VERTEX
  8
gg1
 10
0.472500
 20
0.195000
  0
VERTEX
  8
gg1
 10
0.487500
 20
0.195000
  0
SEQEND
  8
gg1
  0
POLYLINE
  8
gg1
 62
1
 40
0.000000
 41
0.000000
 66
  1
  0
VERTEX
  8
gg1
 10
0.480000
 20
0.187500
  0
VERTEX
  8
gg1
 10
0.480000
 20
0.202500
  0
SEQEND
  8
gg1
  0
POLYLINE
  8
gg1
 62
1
 40
0.000000
 41
0.000000
 66
  1
  0
VERTEX
  8
gg1
 10
0.470500
 20
0.286000
  0
VERTEX
  8
gg1
 10
0.485500
 20
0.286000
  0
SEQEND
  8
gg1
  0
POLYLINE
  8
gg1
 62
1
 40
0.000000
 41
0.000000
 66
  1
  0
VERTEX
  8
gg1
 10
0.478000
 20
0.278500
  0
VERTEX
  8
gg1
 10
0.478000
 20
0.293500
  0
SEQEND
  8
gg1
  0
POLYLINE
  8
gg1
 62
1
 40
0.000000
 41
0.000000
 66
  1
  0
VERTEX
  8
gg1
 10
0.286500
 20
0.651000
  0
VERTEX
  8
gg1
 10
0.301500
 20
0.651000
  0
SEQEND
  8
gg1
  0
POLYLINE
  8
gg1
 62
1
 40
0.000000
 41
0.000000
 66
  1
  0
VERTEX
  8
gg1
 10
0.294000
 20
0.643500
  0
VERTEX
  8
gg1
 10
0.294000
 20
0.658500
  0
SEQEND
  8
gg1
  0
POLYLINE
  8
gg1
 62
1
 40
0.000000
 41
0.000000
 66
  1
  0
VERTEX
  8
gg1
 10
0.402190
 20
0.656530
  0
VERTEX
  8
gg1
 10
0.417190
 20
0.656530
  0
SEQEND
  8
gg1
  0
POLYLINE
  8
gg1
 62
1
 40
0.000000
 41
0.000000
 66
  1
  0
VERTEX
  8
gg1
 10
0.409690
 20
0.649030
  0
VERTEX
  8
gg1
 10
0.409690
 20
0.664030
  0
SEQEND
  8
gg1
  0
POLYLINE
  8
gg1
 62
1
 40
0.000000
 41
0.000000
 66
  1
  0
VERTEX
  8
gg1
 10
0.472500
 20
0.166000
  0
VERTEX
  8
gg1
 10
0.487500
 20
0.166000
  0
SEQEND
  8
gg1
  0
POLYLINE
  8
gg1
 62
1
 40
0.000000
 41
0.000000
 66
  1
  0
VERTEX
  8
gg1
 10
0.480000
 20
0.158500
  0
VERTEX
  8
gg1
 10
0.480000
 20
0.173500
  0
SEQEND
  8
gg1
  0
POLYLINE
  8
gg1
 62
1
 40
0.000000
 41
0.000000
 66
  1
  0
VERTEX
  8
gg1
 10
0.150500
 20
0.570000
  0
VERTEX
  8
gg1
 10
0.165500
 20
0.570000
  0
SEQEND
  8
gg1
  0
POLYLINE
  8
gg1
 62
1
 40
0.000000
 41
0.000000
 66
  1
  0
VERTEX
  8
gg1
 10
0.158000
 20
0.562500
  0
VERTEX
  8
gg1
 10
0.158000
 20
0.577500
  0
SEQEND
  8
gg1
  0
POLYLINE
  8
gg1
 62
1
 40
0.000000
 41
0.000000
 66
  1
  0
VERTEX
  8
gg1
 10
0.220500
 20
0.570000
  0
VERTEX
  8
gg1
 10
0.235500
 20
0.570000
  0
SEQEND
  8
gg1
  0
POLYLINE
  8
gg1
 62
1
 40
0.000000
 41
0.000000
 66
  1
  0
VERTEX
  8
gg1
 10
0.228000
 20
0.562500
  0
VERTEX
  8
gg1
 10
0.228000
 20
0.577500
  0
SEQEND
  8
gg1
  0
POLYLINE
  8
gg1
 62
1
 40
0.000000
 41
0.000000
 66
  1
  0
VERTEX
  8
gg1
 10
0.249500
 20
0.570000
  0
VERTEX
  8
gg1
 10
0.264500
 20
0.570000
  0
SEQEND
  8
gg1
  0
POLYLINE
  8
gg1
 62
1
 40
0.000000
 41
0.000000
 66
  1
  0
VERTEX
  8
gg1
 10
0.257000
 20
0.562500
  0
VERTEX
  8
gg1
 10
0.257000
 20
0.577500
  0
SEQEND
  8
gg1
  0
POLYLINE
  8
gg1
 62
1
 40
0.000000
 41
0.000000
 66
  1
  0
VERTEX
  8
gg1
 10
0.179500
 20
0.570000
  0
VERTEX
  8
gg1
 10
0.194500
 20
0.570000
  0
SEQEND
  8
gg1
  0
POLYLINE
  8
gg1
 62
1
 40
0.000000
 41
0.000000
 66
  1
  0
VERTEX
  8
gg1
 10
0.187000
 20
0.562500
  0
VERTEX
  8
gg1
 10
0.187000
 20
0.577500
  0
SEQEND
  8
gg1
  0
POLYLINE
  8
gg1
 62
1
 40
0.000000
 41
0.000000
 66
  1
  0
VERTEX
  8
gg1
 10
0.441500
 20
0.289000
  0
VERTEX
  8
gg1
 10
0.456500
 20
0.289000
  0
SEQEND
  8
gg1
  0
POLYLINE
  8
gg1
 62
1
 40
0.000000
 41
0.000000
 66
  1
  0
VERTEX
  8
gg1
 10
0.449000
 20
0.281500
  0
VERTEX
  8
gg1
 10
0.449000
 20
0.296500
  0
SEQEND
  8
gg1
  0
POLYLINE
  8
gg1
 62
1
 40
0.000000
 41
0.000000
 66
  1
  0
VERTEX
  8
gg1
 10
0.499500
 20
0.291000
  0
VERTEX
  8
gg1
 10
0.514500
 20
0.291000
  0
SEQEND
  8
gg1
  0
POLYLINE
  8
gg1
 62
1
 40
0.000000
 41
0.000000
 66
  1
  0
VERTEX
  8
gg1
 10
0.507000
 20
0.283500
  0
VERTEX
  8
gg1
 10
0.507000
 20
0.298500
  0
SEQEND
  8
gg1
  0
POLYLINE
  8
gg1
 62
1
 40
0.000000
 41
0.000000
 66
  1
  0
VERTEX
  8
gg1
 10
0.469500
 20
0.429000
  0
VERTEX
  8
gg1
 10
0.484500
 20
0.429000
  0
SEQEND
  8
gg1
  0
POLYLINE
  8
gg1
 62
1
 40
0.000000
 41
0.000000
 66
  1
  0
VERTEX
  8
gg1
 10
0.477000
 20
0.421500
  0
VERTEX
  8
gg1
 10
0.477000
 20
0.436500
  0
SEQEND
  8
gg1
  0
POLYLINE
  8
gg1
 62
1
 40
0.000000
 41
0.000000
 66
  1
  0
VERTEX
  8
gg1
 10
0.481500
 20
0.456000
  0
VERTEX
  8
gg1
 10
0.496500
 20
0.456000
  0
SEQEND
  8
gg1
  0
POLYLINE
  8
gg1
 62
1
 40
0.000000
 41
0.000000
 66
  1
  0
VERTEX
  8
gg1
 10
0.489000
 20
0.448500
  0
VERTEX
  8
gg1
 10
0.489000
 20
0.463500
  0
SEQEND
  8
gg1
  0
POLYLINE
  8
gg1
 62
1
 40
0.000000
 41
0.000000
 66
  1
  0
VERTEX
  8
gg1
 10
0.491500
 20
0.483000
  0
VERTEX
  8
gg1
 10
0.506500
 20
0.483000
  0
SEQEND
  8
gg1
  0
POLYLINE
  8
gg1
 62
1
 40
0.000000
 41
0.000000
 66
  1
  0
VERTEX
  8
gg1
 10
0.499000
 20
0.475500
  0
VERTEX
  8
gg1
 10
0.499000
 20
0.490500
  0
SEQEND
  8
gg1
  0
POLYLINE
  8
gg1
 62
1
 40
0.000000
 41
0.000000
 66
  1
  0
VERTEX
  8
gg1
 10
0.293000
 20
0.483000
  0
VERTEX
  8
gg1
 10
0.305000
 20
0.483000
  0
SEQEND
  8
gg1
  0
POLYLINE
  8
gg1
 62
1
 40
0.000000
 41
0.000000
 66
  1
  0
VERTEX
  8
gg1
 10
0.299000
 20
0.477000
  0
VERTEX
  8
gg1
 10
0.299000
 20
0.489000
  0
SEQEND
  8
gg1
  0
POLYLINE
  8
gg1
 62
1
 40
0.000000
 41
0.000000
 66
  1
  0
VERTEX
  8
gg1
 10
0.344500
 20
0.655000
  0
VERTEX
  8
gg1
 10
0.359500
 20
0.655000
  0
SEQEND
  8
gg1
  0
POLYLINE
  8
gg1
 62
1
 40
0.000000
 41
0.000000
 66
  1
  0
VERTEX
  8
gg1
 10
0.352000
 20
0.647500
  0
VERTEX
  8
gg1
 10
0.352000
 20
0.662500
  0
SEQEND
  8
gg1
  0
POLYLINE
  8
gg1
 62
1
 40
0.000000
 41
0.000000
 66
  1
  0
VERTEX
  8
gg1
 10
0.315500
 20
0.651000
  0
VERTEX
  8
gg1
 10
0.330500
 20
0.651000
  0
SEQEND
  8
gg1
  0
POLYLINE
  8
gg1
 62
1
 40
0.000000
 41
0.000000
 66
  1
  0
VERTEX
  8
gg1
 10
0.323000
 20
0.643500
  0
VERTEX
  8
gg1
 10
0.323000
 20
0.658500
  0
SEQEND
  8
gg1
  0
POLYLINE
  8
gg1
 62
1
 40
0.000000
 41
0.000000
 66
  1
  0
VERTEX
  8
gg1
 10
0.341000
 20
0.098000
  0
VERTEX
  8
gg1
 10
0.353000
 20
0.098000
  0
SEQEND
  8
gg1
  0
POLYLINE
  8
gg1
 62
1
 40
0.000000
 41
0.000000
 66
  1
  0
VERTEX
  8
gg1
 10
0.347000
 20
0.092000
  0
VERTEX
  8
gg1
 10
0.347000
 20
0.104000
  0
SEQEND
  8
gg1
  0
POLYLINE
  8
gg1
 62
1
 40
0.000000
 41
0.000000
 66
  1
  0
VERTEX
  8
gg1
 10
0.124000
 20
0.310000
  0
VERTEX
  8
gg1
 10
0.136000
 20
0.310000
  0
SEQEND
  8
gg1
  0
POLYLINE
  8
gg1
 62
1
 40
0.000000
 41
0.000000
 66
  1
  0
VERTEX
  8
gg1
 10
0.130000
 20
0.304000
  0
VERTEX
  8
gg1
 10
0.130000
 20
0.316000
  0
SEQEND
  8
gg1
  0
POLYLINE
  8
gg1
 62
1
 40
0.000000
 41
0.000000
 66
  1
  0
VERTEX
  8
gg1
 10
0.172540
 20
0.255460
  0
VERTEX
  8
gg1
 10
0.184540
 20
0.255460
  0
SEQEND
  8
gg1
  0
POLYLINE
  8
gg1
 62
1
 40
0.000000
 41
0.000000
 66
  1
  0
VERTEX
  8
gg1
 10
0.178540
 20
0.249460
  0
VERTEX
  8
gg1
 10
0.178540
 20
0.261460
  0
SEQEND
  8
gg1
  0
POLYLINE
  8
gg1
 62
1
 40
0.000000
 41
0.000000
 66
  1
  0
VERTEX
  8
gg1
 10
0.260500
 20
0.078500
  0
VERTEX
  8
gg1
 10
0.272500
 20
0.078500
  0
SEQEND
  8
gg1
  0
POLYLINE
  8
gg1
 62
1
 40
0.000000
 41
0.000000
 66
  1
  0
VERTEX
  8
gg1
 10
0.266500
 20
0.072500
  0
VERTEX
  8
gg1
 10
0.266500
 20
0.084500
  0
SEQEND
  8
gg1
  0
POLYLINE
  8
gg1
 62
1
 40
0.000000
 41
0.000000
 66
  1
  0
VERTEX
  8
gg1
 10
0.134000
 20
0.130000
  0
VERTEX
  8
gg1
 10
0.146000
 20
0.130000
  0
SEQEND
  8
gg1
  0
POLYLINE
  8
gg1
 62
1
 40
0.000000
 41
0.000000
 66
  1
  0
VERTEX
  8
gg1
 10
0.140000
 20
0.124000
  0
VERTEX
  8
gg1
 10
0.140000
 20
0.136000
  0
SEQEND
  8
gg1
  0
POLYLINE
  8
gg1
 62
1
 40
0.000000
 41
0.000000
 66
  1
  0
VERTEX
  8
gg1
 10
0.164000
 20
0.151000
  0
VERTEX
  8
gg1
 10
0.176000
 20
0.151000
  0
SEQEND
  8
gg1
  0
POLYLINE
  8
gg1
 62
1
 40
0.000000
 41
0.000000
 66
  1
  0
VERTEX
  8
gg1
 10
0.170000
 20
0.145000
  0
VERTEX
  8
gg1
 10
0.170000
 20
0.157000
  0
SEQEND
  8
gg1
  0
POLYLINE
  8
gg1
 62
1
 40
0.000000
 41
0.000000
 66
  1
  0
VERTEX
  8
gg1
 10
0.124000
 20
0.465000
  0
VERTEX
  8
gg1
 10
0.136000
 20
0.465000
  0
SEQEND
  8
gg1
  0
POLYLINE
  8
gg1
 62
1
 40
0.000000
 41
0.000000
 66
  1
  0
VERTEX
  8
gg1
 10
0.130000
 20
0.459000
  0
VERTEX
  8
gg1
 10
0.130000
 20
0.471000
  0
SEQEND
  8
gg1
  0
POLYLINE
  8
gg1
 62
1
 40
0.000000
 41
0.000000
 66
  1
  0
VERTEX
  8
gg1
 10
0.367000
 20
0.098000
  0
VERTEX
  8
gg1
 10
0.379000
 20
0.098000
  0
SEQEND
  8
gg1
  0
POLYLINE
  8
gg1
 62
1
 40
0.000000
 41
0.000000
 66
  1
  0
VERTEX
  8
gg1
 10
0.373000
 20
0.092000
  0
VERTEX
  8
gg1
 10
0.373000
 20
0.104000
  0
SEQEND
  8
gg1
  0
POLYLINE
  8
gg1
 62
1
 40
0.000000
 41
0.000000
 66
  1
  0
VERTEX
  8
gg1
 10
0.304470
 20
0.375670
  0
VERTEX
  8
gg1
 10
0.316470
 20
0.375670
  0
SEQEND
  8
gg1
  0
POLYLINE
  8
gg1
 62
1
 40
0.000000
 41
0.000000
 66
  1
  0
VERTEX
  8
gg1
 10
0.310470
 20
0.369670
  0
VERTEX
  8
gg1
 10
0.310470
 20
0.381670
  0
SEQEND
  8
gg1
  0
POLYLINE
  8
gg1
 62
1
 40
0.000000
 41
0.000000
 66
  1
  0
VERTEX
  8
gg1
 10
0.304470
 20
0.334330
  0
VERTEX
  8
gg1
 10
0.316470
 20
0.334330
  0
SEQEND
  8
gg1
  0
POLYLINE
  8
gg1
 62
1
 40
0.000000
 41
0.000000
 66
  1
  0
VERTEX
  8
gg1
 10
0.310470
 20
0.328330
  0
VERTEX
  8
gg1
 10
0.310470
 20
0.340330
  0
SEQEND
  8
gg1
  0
POLYLINE
  8
gg1
 62
1
 40
0.000000
 41
0.000000
 66
  1
  0
VERTEX
  8
gg1
 10
0.304470
 20
0.292990
  0
VERTEX
  8
gg1
 10
0.316470
 20
0.292990
  0
SEQEND
  8
gg1
  0
POLYLINE
  8
gg1
 62
1
 40
0.000000
 41
0.000000
 66
  1
  0
VERTEX
  8
gg1
 10
0.310470
 20
0.286990
  0
VERTEX
  8
gg1
 10
0.310470
 20
0.298990
  0
SEQEND
  8
gg1
  0
POLYLINE
  8
gg1
 62
1
 40
0.000000
 41
0.000000
 66
  1
  0
VERTEX
  8
gg1
 10
0.282820
 20
0.313660
  0
VERTEX
  8
gg1
 10
0.294820
 20
0.313660
  0
SEQEND
  8
gg1
  0
POLYLINE
  8
gg1
 62
1
 40
0.000000
 41
0.000000
 66
  1
  0
VERTEX
  8
gg1
 10
0.288820
 20
0.307660
  0
VERTEX
  8
gg1
 10
0.288820
 20
0.319660
  0
SEQEND
  8
gg1
  0
POLYLINE
  8
gg1
 62
1
 40
0.000000
 41
0.000000
 66
  1
  0
VERTEX
  8
gg1
 10
0.282820
 20
0.355000
  0
VERTEX
  8
gg1
 10
0.294820
 20
0.355000
  0
SEQEND
  8
gg1
  0
POLYLINE
  8
gg1
 62
1
 40
0.000000
 41
0.000000
 66
  1
  0
VERTEX
  8
gg1
 10
0.288820
 20
0.349000
  0
VERTEX
  8
gg1
 10
0.288820
 20
0.361000
  0
SEQEND
  8
gg1
  0
POLYLINE
  8
gg1
 62
1
 40
0.000000
 41
0.000000
 66
  1
  0
VERTEX
  8
gg1
 10
0.326130
 20
0.355000
  0
VERTEX
  8
gg1
 10
0.338130
 20
0.355000
  0
SEQEND
  8
gg1
  0
POLYLINE
  8
gg1
 62
1
 40
0.000000
 41
0.000000
 66
  1
  0
VERTEX
  8
gg1
 10
0.332130
 20
0.349000
  0
VERTEX
  8
gg1
 10
0.332130
 20
0.361000
  0
SEQEND
  8
gg1
  0
POLYLINE
  8
gg1
 62
1
 40
0.000000
 41
0.000000
 66
  1
  0
VERTEX
  8
gg1
 10
0.326130
 20
0.313660
  0
VERTEX
  8
gg1
 10
0.338130
 20
0.313660
  0
SEQEND
  8
gg1
  0
POLYLINE
  8
gg1
 62
1
 40
0.000000
 41
0.000000
 66
  1
  0
VERTEX
  8
gg1
 10
0.332130
 20
0.307660
  0
VERTEX
  8
gg1
 10
0.332130
 20
0.319660
  0
SEQEND
  8
gg1
  0
POLYLINE
  8
gg1
 62
1
 40
0.000000
 41
0.000000
 66
  1
  0
VERTEX
  8
gg1
 10
0.282820
 20
0.272320
  0
VERTEX
  8
gg1
 10
0.294820
 20
0.272320
  0
SEQEND
  8
gg1
  0
POLYLINE
  8
gg1
 62
1
 40
0.000000
 41
0.000000
 66
  1
  0
VERTEX
  8
gg1
 10
0.288820
 20
0.266320
  0
VERTEX
  8
gg1
 10
0.288820
 20
0.278320
  0
SEQEND
  8
gg1
  0
POLYLINE
  8
gg1
 62
1
 40
0.000000
 41
0.000000
 66
  1
  0
VERTEX
  8
gg1
 10
0.326130
 20
0.272320
  0
VERTEX
  8
gg1
 10
0.338130
 20
0.272320
  0
SEQEND
  8
gg1
  0
POLYLINE
  8
gg1
 62
1
 40
0.000000
 41
0.000000
 66
  1
  0
VERTEX
  8
gg1
 10
0.332130
 20
0.266320
  0
VERTEX
  8
gg1
 10
0.332130
 20
0.278320
  0
SEQEND
  8
gg1
  0
POLYLINE
  8
gg1
 62
1
 40
0.000000
 41
0.000000
 66
  1
  0
VERTEX
  8
gg1
 10
0.282820
 20
0.396340
  0
VERTEX
  8
gg1
 10
0.294820
 20
0.396340
  0
SEQEND
  8
gg1
  0
POLYLINE
  8
gg1
 62
1
 40
0.000000
 41
0.000000
 66
  1
  0
VERTEX
  8
gg1
 10
0.288820
 20
0.390340
  0
VERTEX
  8
gg1
 10
0.288820
 20
0.402340
  0
SEQEND
  8
gg1
  0
POLYLINE
  8
gg1
 62
1
 40
0.000000
 41
0.000000
 66
  1
  0
VERTEX
  8
gg1
 10
0.326130
 20
0.396340
  0
VERTEX
  8
gg1
 10
0.338130
 20
0.396340
  0
SEQEND
  8
gg1
  0
POLYLINE
  8
gg1
 62
1
 40
0.000000
 41
0.000000
 66
  1
  0
VERTEX
  8
gg1
 10
0.332130
 20
0.390340
  0
VERTEX
  8
gg1
 10
0.332130
 20
0.402340
  0
SEQEND
  8
gg1
  0
POLYLINE
  8
gg1
 62
1
 40
0.000000
 41
0.000000
 66
  1
  0
VERTEX
  8
gg1
 10
0.348000
 20
0.485000
  0
VERTEX
  8
gg1
 10
0.360000
 20
0.485000
  0
SEQEND
  8
gg1
  0
POLYLINE
  8
gg1
 62
1
 40
0.000000
 41
0.000000
 66
  1
  0
VERTEX
  8
gg1
 10
0.354000
 20
0.479000
  0
VERTEX
  8
gg1
 10
0.354000
 20
0.491000
  0
SEQEND
  8
gg1
  0
POLYLINE
  8
gg1
 62
1
 40
0.000000
 41
0.000000
 66
  1
  0
VERTEX
  8
gg1
 10
-0.168990
 20
0.229050
  0
VERTEX
  8
gg1
 10
-0.178990
 20
0.239050
  0
VERTEX
  8
gg1
 10
-0.178990
 20
0.259040
  0
VERTEX
  8
gg1
 10
-0.168990
 20
0.269040
  0
VERTEX
  8
gg1
 10
-0.159000
 20
0.269040
  0
VERTEX
  8
gg1
 10
-0.149000
 20
0.259040
  0
VERTEX
  8
gg1
 10
-0.139000
 20
0.269040
  0
VERTEX
  8
gg1
 10
-0.129010
 20
0.269040
  0
VERTEX
  8
gg1
 10
-0.119010
 20
0.259040
  0
VERTEX
  8
gg1
 10
-0.119010
 20
0.239050
  0
VERTEX
  8
gg1
 10
-0.129010
 20
0.229050
  0
VERTEX
  8
gg1
 10
-0.139000
 20
0.229050
  0
VERTEX
  8
gg1
 10
-0.149000
 20
0.239050
  0
VERTEX
  8
gg1
 10
-0.159000
 20
0.229050
  0
VERTEX
  8
gg1
 10
-0.168990
 20
0.229050
  0
SEQEND
  8
gg1
  0
POLYLINE
  8
gg1
 62
1
 40
0.000000
 41
0.000000
 66
  1
  0
VERTEX
  8
gg1
 10
-0.149000
 20
0.239050
  0
VERTEX
  8
gg1
 10
-0.149000
 20
0.259040
  0
SEQEND
  8
gg1
  0
POLYLINE
  8
gg1
 62
1
 40
0.000000
 41
0.000000
 66
  1
  0
VERTEX
  8
gg1
 10
-0.168990
 20
0.289030
  0
VERTEX
  8
gg1
 10
-0.178990
 20
0.299030
  0
VERTEX
  8
gg1
 10
-0.178990
 20
0.319020
  0
VERTEX
  8
gg1
 10
-0.168990
 20
0.329020
  0
VERTEX
  8
gg1
 10
-0.129010
 20
0.329020
  0
VERTEX
  8
gg1
 10
-0.119010
 20
0.319020
  0
VERTEX
  8
gg1
 10
-0.119010
 20
0.299030
  0
VERTEX
  8
gg1
 10
-0.129010
 20
0.289030
  0
VERTEX
  8
gg1
 10
-0.168990
 20
0.289030
  0
SEQEND
  8
gg1
  0
POLYLINE
  8
gg1
 62
1
 40
0.000000
 41
0.000000
 66
  1
  0
VERTEX
  8
gg1
 10
-0.168990
 20
0.349010
  0
VERTEX
  8
gg1
 10
-0.178990
 20
0.359010
  0
VERTEX
  8
gg1
 10
-0.178990
 20
0.379000
  0
VERTEX
  8
gg1
 10
-0.168990
 20
0.389000
  0
VERTEX
  8
gg1
 10
-0.129010
 20
0.389000
  0
VERTEX
  8
gg1
 10
-0.119010
 20
0.379000
  0
VERTEX
  8
gg1
 10
-0.119010
 20
0.359010
  0
VERTEX
  8
gg1
 10
-0.129010
 20
0.349010
  0
VERTEX
  8
gg1
 10
-0.168990
 20
0.349010
  0
SEQEND
  8
gg1
  0
POLYLINE
  8
gg1
 62
1
 40
0.000000
 41
0.000000
 66
  1
  0
VERTEX
  8
gg1
 10
-0.119010
 20
0.408990
  0
VERTEX
  8
gg1
 10
-0.159000
 20
0.408990
  0
VERTEX
  8
gg1
 10
-0.159000
 20
0.418990
  0
VERTEX
  8
gg1
 10
-0.149000
 20
0.428980
  0
VERTEX
  8
gg1
 10
-0.119010
 20
0.428980
  0
VERTEX
  8
gg1
 10
-0.149000
 20
0.428980
  0
VERTEX
  8
gg1
 10
-0.159000
 20
0.438980
  0
VERTEX
  8
gg1
 10
-0.149000
 20
0.448980
  0
VERTEX
  8
gg1
 10
-0.119010
 20
0.448980
  0
SEQEND
  8
gg1
  0
POLYLINE
  8
gg1
 62
1
 40
0.000000
 41
0.000000
 66
  1
  0
VERTEX
  8
gg1
 10
-0.119010
 20
0.468970
  0
VERTEX
  8
gg1
 10
-0.119010
 20
0.488970
  0
VERTEX
  8
gg1
 10
-0.119010
 20
0.478970
  0
VERTEX
  8
gg1
 10
-0.159000
 20
0.478970
  0
VERTEX
  8
gg1
 10
-0.159000
 20
0.468970
  0
SEQEND
  8
gg1
  0
POLYLINE
  8
gg1
 62
1
 40
0.000000
 41
0.000000
 66
  1
  0
VERTEX
  8
gg1
 10
-0.119010
 20
0.518960
  0
VERTEX
  8
gg1
 10
-0.119010
 20
0.538950
  0
VERTEX
  8
gg1
 10
-0.119010
 20
0.528950
  0
VERTEX
  8
gg1
 10
-0.178990
 20
0.528950
  0
VERTEX
  8
gg1
 10
-0.178990
 20
0.518960
  0
SEQEND
  8
gg1
  0
POLYLINE
  8
gg1
 62
1
 40
0.000000
 41
0.000000
 66
  1
  0
VERTEX
  8
gg1
 10
0.169040
 20
-0.076010
  0
VERTEX
  8
gg1
 10
0.149040
 20
-0.086010
  0
VERTEX
  8
gg1
 10
0.129050
 20
-0.106000
  0
VERTEX
  8
gg1
 10
0.129050
 20
-0.125990
  0
VERTEX
  8
gg1
 10
0.139050
 20
-0.135990
  0
VERTEX
  8
gg1
 10
0.159040
 20
-0.135990
  0
VERTEX
  8
gg1
 10
0.169040
 20
-0.125990
  0
VERTEX
  8
gg1
 10
0.169040
 20
-0.116000
  0
VERTEX
  8
gg1
 10
0.159040
 20
-0.106000
  0
VERTEX
  8
gg1
 10
0.129050
 20
-0.106000
  0
SEQEND
  8
gg1
  0
POLYLINE
  8
gg1
 62
1
 40
0.000000
 41
0.000000
 66
  1
  0
VERTEX
  8
gg1
 10
0.189030
 20
-0.086010
  0
VERTEX
  8
gg1
 10
0.199030
 20
-0.076010
  0
VERTEX
  8
gg1
 10
0.219020
 20
-0.076010
  0
VERTEX
  8
gg1
 10
0.229020
 20
-0.086010
  0
VERTEX
  8
gg1
 10
0.229020
 20
-0.125990
  0
VERTEX
  8
gg1
 10
0.219020
 20
-0.135990
  0
VERTEX
  8
gg1
 10
0.199030
 20
-0.135990
  0
VERTEX
  8
gg1
 10
0.189030
 20
-0.125990
  0
VERTEX
  8
gg1
 10
0.189030
 20
-0.086010
  0
SEQEND
  8
gg1
  0
POLYLINE
  8
gg1
 62
1
 40
0.000000
 41
0.000000
 66
  1
  0
VERTEX
  8
gg1
 10
0.249010
 20
-0.086010
  0
VERTEX
  8
gg1
 10
0.259010
 20
-0.076010
  0
VERTEX
  8
gg1
 10
0.279000
 20
-0.076010
  0
VERTEX
  8
gg1
 10
0.289000
 20
-0.086010
  0
VERTEX
  8
gg1
 10
0.289000
 20
-0.125990
  0
VERTEX
  8
gg1
 10
0.279000
 20
-0.135990
  0
VERTEX
  8
gg1
 10
0.259010
 20
-0.135990
  0
VERTEX
  8
gg1
 10
0.249010
 20
-0.125990
  0
VERTEX
  8
gg1
 10
0.249010
 20
-0.086010
  0
SEQEND
  8
gg1
  0
POLYLINE
  8
gg1
 62
1
 40
0.000000
 41
0.000000
 66
  1
  0
VERTEX
  8
gg1
 10
0.308990
 20
-0.135990
  0
VERTEX
  8
gg1
 10
0.308990
 20
-0.096000
  0
VERTEX
  8
gg1
 10
0.318990
 20
-0.096000
  0
VERTEX
  8
gg1
 10
0.328990
 20
-0.106000
  0
VERTEX
  8
gg1
 10
0.328990
 20
-0.135990
  0
VERTEX
  8
gg1
 10
0.328990
 20
-0.106000
  0
VERTEX
  8
gg1
 10
0.338980
 20
-0.096000
  0
VERTEX
  8
gg1
 10
0.348980
 20
-0.106000
  0
VERTEX
  8
gg1
 10
0.348980
 20
-0.135990
  0
SEQEND
  8
gg1
  0
POLYLINE
  8
gg1
 62
1
 40
0.000000
 41
0.000000
 66
  1
  0
VERTEX
  8
gg1
 10
0.368970
 20
-0.135990
  0
VERTEX
  8
gg1
 10
0.388970
 20
-0.135990
  0
VERTEX
  8
gg1
 10
0.378970
 20
-0.135990
  0
VERTEX
  8
gg1
 10
0.378970
 20
-0.096000
  0
VERTEX
  8
gg1
 10
0.368970
 20
-0.096000
  0
SEQEND
  8
gg1
  0
POLYLINE
  8
gg1
 62
1
 40
0.000000
 41
0.000000
 66
  1
  0
VERTEX
  8
gg1
 10
0.418960
 20
-0.135990
  0
VERTEX
  8
gg1
 10
0.438950
 20
-0.135990
  0
VERTEX
  8
gg1
 10
0.428950
 20
-0.135990
  0
VERTEX
  8
gg1
 10
0.428950
 20
-0.076010
  0
VERTEX
  8
gg1
 10
0.418960
 20
-0.076010
  0
SEQEND
  8
gg1
  0
ENDSEC
  0
EOF
