  0
SECTION
  2
HEADER
  9
$EXTMIN
 10
-0.127000
 20
-0.124000
  9
$EXTMAX
 10
1.352000
 20
0.602000
  9
$LIMMIN
 10
-0.127000
 20
-0.124000
  9
$LIMMAX
 10
1.352000
 20
0.602000
  9
$FILLMODE
 70
  1
  0
ENDSEC
  0
SECTION
  2
TABLES
  0
TABLE
  2
LTYPE
 70
  1
  0
LTYPE
  2
CONTINUOUS
 70
 64
  3
Solid line
 72
 65
 73
  0
 40
0.0
  0
ENDTAB
  0
TABLE
  2
LAYER
 70
 1
  0
LAYER
  2
0
 70
  0
 62
7
  6
CONTINUOUS
  0
LAYER
  2
gg1
 70
  0
 62
1
  6
CONTINUOUS
  0
ENDTAB
  0
TABLE
  2
STYLE
 70
  1
  0
STYLE
  2
STANDARD
 70
  0
 40
0.0
 41
1.0
 50
0.0
 71
  0
 42
0.2
  3
txt
  4

  0
ENDTAB
  0
ENDSEC
  0
SECTION
  2
BLOCKS
  0
BLOCK
  8
0
  2
D10
 70
64
 10
0.0
 20
0.0
  3
D10
  0
CIRCLE
  8
0
 10
0.000000
 20
0.000000
 40
0.002500
 0
ENDBLK
  8
0
  0
BLOCK
  8
0
  2
D11
 70
64
 10
0.0
 20
0.0
  3
D11
  0
CIRCLE
  8
0
 10
0.000000
 20
0.000000
 40
0.003000
 0
ENDBLK
  8
0
  0
ENDSEC
  0
SECTION
  2
ENTITIES
  0
POLYLINE
  8
gg1
 62
1
 40
0.000000
 41
0.000000
 66
  1
  0
VERTEX
  8
gg1
 10
-0.110000
 20
0.000000
  0
VERTEX
  8
gg1
 10
-0.027500
 20
0.000000
  0
SEQEND
  8
gg1
  0
POLYLINE
  8
gg1
 62
1
 40
0.000000
 41
0.000000
 66
  1
  0
VERTEX
  8
gg1
 10
-0.110000
 20
0.600000
  0
VERTEX
  8
gg1
 10
-0.027500
 20
0.600000
  0
SEQEND
  8
gg1
  0
POLYLINE
  8
gg1
 62
1
 40
0.000000
 41
0.000000
 66
  1
  0
VERTEX
  8
gg1
 10
-0.100000
 20
0.000000
  0
VERTEX
  8
gg1
 10
-0.100000
 20
0.113050
  0
SEQEND
  8
gg1
  0
POLYLINE
  8
gg1
 62
1
 40
0.000000
 41
0.000000
 66
  1
  0
VERTEX
  8
gg1
 10
-0.100000
 20
0.454950
  0
VERTEX
  8
gg1
 10
-0.100000
 20
0.600000
  0
SEQEND
  8
gg1
  0
POLYLINE
  8
gg1
 62
1
 40
0.000000
 41
0.000000
 66
  1
  0
VERTEX
  8
gg1
 10
-0.100000
 20
0.000000
  0
VERTEX
  8
gg1
 10
-0.080000
 20
0.060000
  0
SEQEND
  8
gg1
  0
POLYLINE
  8
gg1
 62
1
 40
0.000000
 41
0.000000
 66
  1
  0
VERTEX
  8
gg1
 10
-0.120000
 20
0.060000
  0
VERTEX
  8
gg1
 10
-0.100000
 20
0.000000
  0
SEQEND
  8
gg1
  0
POLYLINE
  8
gg1
 62
1
 40
0.000000
 41
0.000000
 66
  1
  0
VERTEX
  8
gg1
 10
-0.120000
 20
0.540000
  0
VERTEX
  8
gg1
 10
-0.100000
 20
0.600000
  0
VERTEX
  8
gg1
 10
-0.080000
 20
0.540000
  0
SEQEND
  8
gg1
  0
POLYLINE
  8
gg1
 62
1
 40
0.000000
 41
0.000000
 66
  1
  0
VERTEX
  8
gg1
 10
1.350000
 20
-0.095000
  0
VERTEX
  8
gg1
 10
1.350000
 20
-0.027500
  0
SEQEND
  8
gg1
  0
POLYLINE
  8
gg1
 62
1
 40
0.000000
 41
0.000000
 66
  1
  0
VERTEX
  8
gg1
 10
0.000000
 20
-0.095000
  0
VERTEX
  8
gg1
 10
0.000000
 20
-0.027500
  0
SEQEND
  8
gg1
  0
POLYLINE
  8
gg1
 62
1
 40
0.000000
 41
0.000000
 66
  1
  0
VERTEX
  8
gg1
 10
0.854940
 20
-0.085000
  0
VERTEX
  8
gg1
 10
1.350000
 20
-0.085000
  0
SEQEND
  8
gg1
  0
POLYLINE
  8
gg1
 62
1
 40
0.000000
 41
0.000000
 66
  1
  0
VERTEX
  8
gg1
 10
0.000000
 20
-0.085000
  0
VERTEX
  8
gg1
 10
0.463060
 20
-0.085000
  0
SEQEND
  8
gg1
  0
POLYLINE
  8
gg1
 62
1
 40
0.000000
 41
0.000000
 66
  1
  0
VERTEX
  8
gg1
 10
1.290000
 20
-0.065000
  0
VERTEX
  8
gg1
 10
1.350000
 20
-0.085000
  0
SEQEND
  8
gg1
  0
POLYLINE
  8
gg1
 62
1
 40
0.000000
 41
0.000000
 66
  1
  0
VERTEX
  8
gg1
 10
1.290000
 20
-0.105000
  0
VERTEX
  8
gg1
 10
1.350000
 20
-0.085000
  0
SEQEND
  8
gg1
  0
POLYLINE
  8
gg1
 62
1
 40
0.000000
 41
0.000000
 66
  1
  0
VERTEX
  8
gg1
 10
0.000000
 20
-0.085000
  0
VERTEX
  8
gg1
 10
0.060000
 20
-0.105000
  0
SEQEND
  8
gg1
  0
POLYLINE
  8
gg1
 62
1
 40
0.000000
 41
0.000000
 66
  1
  0
VERTEX
  8
gg1
 10
0.000000
 20
-0.085000
  0
VERTEX
  8
gg1
 10
0.060000
 20
-0.065000
  0
SEQEND
  8
gg1
  0
POLYLINE
  8
gg1
 62
1
 40
0.000000
 41
0.000000
 66
  1
  0
VERTEX
  8
gg1
 10
0.000000
 20
0.000000
  0
VERTEX
  8
gg1
 10
0.000000
 20
0.600000
  0
VERTEX
  8
gg1
 10
1.350000
 20
0.600000
  0
SEQEND
  8
gg1
  0
POLYLINE
  8
gg1
 62
1
 40
0.000000
 41
0.000000
 66
  1
  0
VERTEX
  8
gg1
 10
1.350000
 20
0.000000
  0
VERTEX
  8
gg1
 10
1.350000
 20
0.600000
  0
SEQEND
  8
gg1
  0
POLYLINE
  8
gg1
 62
1
 40
0.000000
 41
0.000000
 66
  1
  0
VERTEX
  8
gg1
 10
0.000000
 20
0.000000
  0
VERTEX
  8
gg1
 10
1.350000
 20
0.000000
  0
SEQEND
  8
gg1
  0
POLYLINE
  8
gg1
 62
1
 40
0.000000
 41
0.000000
 66
  1
  0
VERTEX
  8
gg1
 10
0.030000
 20
0.550000
  0
VERTEX
  8
gg1
 10
0.070000
 20
0.550000
  0
SEQEND
  8
gg1
  0
POLYLINE
  8
gg1
 62
1
 40
0.000000
 41
0.000000
 66
  1
  0
VERTEX
  8
gg1
 10
0.050000
 20
0.530000
  0
VERTEX
  8
gg1
 10
0.050000
 20
0.570000
  0
SEQEND
  8
gg1
  0
POLYLINE
  8
gg1
 62
1
 40
0.000000
 41
0.000000
 66
  1
  0
VERTEX
  8
gg1
 10
0.920000
 20
0.125000
  0
VERTEX
  8
gg1
 10
0.940000
 20
0.125000
  0
SEQEND
  8
gg1
  0
POLYLINE
  8
gg1
 62
1
 40
0.000000
 41
0.000000
 66
  1
  0
VERTEX
  8
gg1
 10
0.930000
 20
0.115000
  0
VERTEX
  8
gg1
 10
0.930000
 20
0.135000
  0
SEQEND
  8
gg1
  0
POLYLINE
  8
gg1
 62
1
 40
0.000000
 41
0.000000
 66
  1
  0
VERTEX
  8
gg1
 10
0.150000
 20
0.043000
  0
VERTEX
  8
gg1
 10
0.170000
 20
0.043000
  0
SEQEND
  8
gg1
  0
POLYLINE
  8
gg1
 62
1
 40
0.000000
 41
0.000000
 66
  1
  0
VERTEX
  8
gg1
 10
0.160000
 20
0.033000
  0
VERTEX
  8
gg1
 10
0.160000
 20
0.053000
  0
SEQEND
  8
gg1
  0
POLYLINE
  8
gg1
 62
1
 40
0.000000
 41
0.000000
 66
  1
  0
VERTEX
  8
gg1
 10
1.105000
 20
0.300000
  0
VERTEX
  8
gg1
 10
1.145000
 20
0.300000
  0
SEQEND
  8
gg1
  0
POLYLINE
  8
gg1
 62
1
 40
0.000000
 41
0.000000
 66
  1
  0
VERTEX
  8
gg1
 10
1.125000
 20
0.280000
  0
VERTEX
  8
gg1
 10
1.125000
 20
0.320000
  0
SEQEND
  8
gg1
  0
POLYLINE
  8
gg1
 62
1
 40
0.000000
 41
0.000000
 66
  1
  0
VERTEX
  8
gg1
 10
1.005000
 20
0.200000
  0
VERTEX
  8
gg1
 10
1.045000
 20
0.200000
  0
SEQEND
  8
gg1
  0
POLYLINE
  8
gg1
 62
1
 40
0.000000
 41
0.000000
 66
  1
  0
VERTEX
  8
gg1
 10
1.025000
 20
0.180000
  0
VERTEX
  8
gg1
 10
1.025000
 20
0.220000
  0
SEQEND
  8
gg1
  0
POLYLINE
  8
gg1
 62
1
 40
0.000000
 41
0.000000
 66
  1
  0
VERTEX
  8
gg1
 10
1.105000
 20
0.200000
  0
VERTEX
  8
gg1
 10
1.145000
 20
0.200000
  0
SEQEND
  8
gg1
  0
POLYLINE
  8
gg1
 62
1
 40
0.000000
 41
0.000000
 66
  1
  0
VERTEX
  8
gg1
 10
1.125000
 20
0.180000
  0
VERTEX
  8
gg1
 10
1.125000
 20
0.220000
  0
SEQEND
  8
gg1
  0
POLYLINE
  8
gg1
 62
1
 40
0.000000
 41
0.000000
 66
  1
  0
VERTEX
  8
gg1
 10
1.005000
 20
0.300000
  0
VERTEX
  8
gg1
 10
1.045000
 20
0.300000
  0
SEQEND
  8
gg1
  0
POLYLINE
  8
gg1
 62
1
 40
0.000000
 41
0.000000
 66
  1
  0
VERTEX
  8
gg1
 10
1.025000
 20
0.280000
  0
VERTEX
  8
gg1
 10
1.025000
 20
0.320000
  0
SEQEND
  8
gg1
  0
POLYLINE
  8
gg1
 62
1
 40
0.000000
 41
0.000000
 66
  1
  0
VERTEX
  8
gg1
 10
1.105000
 20
0.400000
  0
VERTEX
  8
gg1
 10
1.145000
 20
0.400000
  0
SEQEND
  8
gg1
  0
POLYLINE
  8
gg1
 62
1
 40
0.000000
 41
0.000000
 66
  1
  0
VERTEX
  8
gg1
 10
1.125000
 20
0.380000
  0
VERTEX
  8
gg1
 10
1.125000
 20
0.420000
  0
SEQEND
  8
gg1
  0
POLYLINE
  8
gg1
 62
1
 40
0.000000
 41
0.000000
 66
  1
  0
VERTEX
  8
gg1
 10
1.005000
 20
0.400000
  0
VERTEX
  8
gg1
 10
1.045000
 20
0.400000
  0
SEQEND
  8
gg1
  0
POLYLINE
  8
gg1
 62
1
 40
0.000000
 41
0.000000
 66
  1
  0
VERTEX
  8
gg1
 10
1.025000
 20
0.380000
  0
VERTEX
  8
gg1
 10
1.025000
 20
0.420000
  0
SEQEND
  8
gg1
  0
POLYLINE
  8
gg1
 62
1
 40
0.000000
 41
0.000000
 66
  1
  0
VERTEX
  8
gg1
 10
1.280000
 20
0.550000
  0
VERTEX
  8
gg1
 10
1.320000
 20
0.550000
  0
SEQEND
  8
gg1
  0
POLYLINE
  8
gg1
 62
1
 40
0.000000
 41
0.000000
 66
  1
  0
VERTEX
  8
gg1
 10
1.300000
 20
0.530000
  0
VERTEX
  8
gg1
 10
1.300000
 20
0.570000
  0
SEQEND
  8
gg1
  0
POLYLINE
  8
gg1
 62
1
 40
0.000000
 41
0.000000
 66
  1
  0
VERTEX
  8
gg1
 10
1.280000
 20
0.050000
  0
VERTEX
  8
gg1
 10
1.320000
 20
0.050000
  0
SEQEND
  8
gg1
  0
POLYLINE
  8
gg1
 62
1
 40
0.000000
 41
0.000000
 66
  1
  0
VERTEX
  8
gg1
 10
1.300000
 20
0.030000
  0
VERTEX
  8
gg1
 10
1.300000
 20
0.070000
  0
SEQEND
  8
gg1
  0
POLYLINE
  8
gg1
 62
1
 40
0.000000
 41
0.000000
 66
  1
  0
VERTEX
  8
gg1
 10
1.280000
 20
0.150000
  0
VERTEX
  8
gg1
 10
1.320000
 20
0.150000
  0
SEQEND
  8
gg1
  0
POLYLINE
  8
gg1
 62
1
 40
0.000000
 41
0.000000
 66
  1
  0
VERTEX
  8
gg1
 10
1.300000
 20
0.130000
  0
VERTEX
  8
gg1
 10
1.300000
 20
0.170000
  0
SEQEND
  8
gg1
  0
POLYLINE
  8
gg1
 62
1
 40
0.000000
 41
0.000000
 66
  1
  0
VERTEX
  8
gg1
 10
1.280000
 20
0.250000
  0
VERTEX
  8
gg1
 10
1.320000
 20
0.250000
  0
SEQEND
  8
gg1
  0
POLYLINE
  8
gg1
 62
1
 40
0.000000
 41
0.000000
 66
  1
  0
VERTEX
  8
gg1
 10
1.300000
 20
0.230000
  0
VERTEX
  8
gg1
 10
1.300000
 20
0.270000
  0
SEQEND
  8
gg1
  0
POLYLINE
  8
gg1
 62
1
 40
0.000000
 41
0.000000
 66
  1
  0
VERTEX
  8
gg1
 10
1.280000
 20
0.350000
  0
VERTEX
  8
gg1
 10
1.320000
 20
0.350000
  0
SEQEND
  8
gg1
  0
POLYLINE
  8
gg1
 62
1
 40
0.000000
 41
0.000000
 66
  1
  0
VERTEX
  8
gg1
 10
1.300000
 20
0.330000
  0
VERTEX
  8
gg1
 10
1.300000
 20
0.370000
  0
SEQEND
  8
gg1
  0
POLYLINE
  8
gg1
 62
1
 40
0.000000
 41
0.000000
 66
  1
  0
VERTEX
  8
gg1
 10
1.280000
 20
0.450000
  0
VERTEX
  8
gg1
 10
1.320000
 20
0.450000
  0
SEQEND
  8
gg1
  0
POLYLINE
  8
gg1
 62
1
 40
0.000000
 41
0.000000
 66
  1
  0
VERTEX
  8
gg1
 10
1.300000
 20
0.430000
  0
VERTEX
  8
gg1
 10
1.300000
 20
0.470000
  0
SEQEND
  8
gg1
  0
POLYLINE
  8
gg1
 62
1
 40
0.000000
 41
0.000000
 66
  1
  0
VERTEX
  8
gg1
 10
0.558000
 20
0.323000
  0
VERTEX
  8
gg1
 10
0.578000
 20
0.323000
  0
SEQEND
  8
gg1
  0
POLYLINE
  8
gg1
 62
1
 40
0.000000
 41
0.000000
 66
  1
  0
VERTEX
  8
gg1
 10
0.568000
 20
0.313000
  0
VERTEX
  8
gg1
 10
0.568000
 20
0.333000
  0
SEQEND
  8
gg1
  0
POLYLINE
  8
gg1
 62
1
 40
0.000000
 41
0.000000
 66
  1
  0
VERTEX
  8
gg1
 10
0.589000
 20
0.180000
  0
VERTEX
  8
gg1
 10
0.609000
 20
0.180000
  0
SEQEND
  8
gg1
  0
POLYLINE
  8
gg1
 62
1
 40
0.000000
 41
0.000000
 66
  1
  0
VERTEX
  8
gg1
 10
0.599000
 20
0.170000
  0
VERTEX
  8
gg1
 10
0.599000
 20
0.190000
  0
SEQEND
  8
gg1
  0
POLYLINE
  8
gg1
 62
1
 40
0.000000
 41
0.000000
 66
  1
  0
VERTEX
  8
gg1
 10
0.149170
 20
0.201570
  0
VERTEX
  8
gg1
 10
0.170830
 20
0.201570
  0
SEQEND
  8
gg1
  0
POLYLINE
  8
gg1
 62
1
 40
0.000000
 41
0.000000
 66
  1
  0
VERTEX
  8
gg1
 10
0.160000
 20
0.190750
  0
VERTEX
  8
gg1
 10
0.160000
 20
0.212400
  0
SEQEND
  8
gg1
  0
POLYLINE
  8
gg1
 62
1
 40
0.000000
 41
0.000000
 66
  1
  0
VERTEX
  8
gg1
 10
0.042870
 20
0.437800
  0
VERTEX
  8
gg1
 10
0.064530
 20
0.437800
  0
SEQEND
  8
gg1
  0
POLYLINE
  8
gg1
 62
1
 40
0.000000
 41
0.000000
 66
  1
  0
VERTEX
  8
gg1
 10
0.053700
 20
0.426970
  0
VERTEX
  8
gg1
 10
0.053700
 20
0.448620
  0
SEQEND
  8
gg1
  0
POLYLINE
  8
gg1
 62
1
 40
0.000000
 41
0.000000
 66
  1
  0
VERTEX
  8
gg1
 10
0.149170
 20
0.398430
  0
VERTEX
  8
gg1
 10
0.170830
 20
0.398430
  0
SEQEND
  8
gg1
  0
POLYLINE
  8
gg1
 62
1
 40
0.000000
 41
0.000000
 66
  1
  0
VERTEX
  8
gg1
 10
0.160000
 20
0.387600
  0
VERTEX
  8
gg1
 10
0.160000
 20
0.409250
  0
SEQEND
  8
gg1
  0
POLYLINE
  8
gg1
 62
1
 40
0.000000
 41
0.000000
 66
  1
  0
VERTEX
  8
gg1
 10
0.042870
 20
0.162200
  0
VERTEX
  8
gg1
 10
0.064530
 20
0.162200
  0
SEQEND
  8
gg1
  0
POLYLINE
  8
gg1
 62
1
 40
0.000000
 41
0.000000
 66
  1
  0
VERTEX
  8
gg1
 10
0.053700
 20
0.151380
  0
VERTEX
  8
gg1
 10
0.053700
 20
0.173030
  0
SEQEND
  8
gg1
  0
POLYLINE
  8
gg1
 62
1
 40
0.000000
 41
0.000000
 66
  1
  0
VERTEX
  8
gg1
 10
0.572500
 20
0.557480
  0
VERTEX
  8
gg1
 10
0.587500
 20
0.557480
  0
SEQEND
  8
gg1
  0
POLYLINE
  8
gg1
 62
1
 40
0.000000
 41
0.000000
 66
  1
  0
VERTEX
  8
gg1
 10
0.580000
 20
0.549980
  0
VERTEX
  8
gg1
 10
0.580000
 20
0.564980
  0
SEQEND
  8
gg1
  0
POLYLINE
  8
gg1
 62
1
 40
0.000000
 41
0.000000
 66
  1
  0
VERTEX
  8
gg1
 10
0.112500
 20
0.490000
  0
VERTEX
  8
gg1
 10
0.127500
 20
0.490000
  0
SEQEND
  8
gg1
  0
POLYLINE
  8
gg1
 62
1
 40
0.000000
 41
0.000000
 66
  1
  0
VERTEX
  8
gg1
 10
0.120000
 20
0.482500
  0
VERTEX
  8
gg1
 10
0.120000
 20
0.497500
  0
SEQEND
  8
gg1
  0
POLYLINE
  8
gg1
 62
1
 40
0.000000
 41
0.000000
 66
  1
  0
VERTEX
  8
gg1
 10
0.475500
 20
0.129000
  0
VERTEX
  8
gg1
 10
0.490500
 20
0.129000
  0
SEQEND
  8
gg1
  0
POLYLINE
  8
gg1
 62
1
 40
0.000000
 41
0.000000
 66
  1
  0
VERTEX
  8
gg1
 10
0.483000
 20
0.121500
  0
VERTEX
  8
gg1
 10
0.483000
 20
0.136500
  0
SEQEND
  8
gg1
  0
POLYLINE
  8
gg1
 62
1
 40
0.000000
 41
0.000000
 66
  1
  0
VERTEX
  8
gg1
 10
0.518500
 20
0.170000
  0
VERTEX
  8
gg1
 10
0.533500
 20
0.170000
  0
SEQEND
  8
gg1
  0
POLYLINE
  8
gg1
 62
1
 40
0.000000
 41
0.000000
 66
  1
  0
VERTEX
  8
gg1
 10
0.526000
 20
0.162500
  0
VERTEX
  8
gg1
 10
0.526000
 20
0.177500
  0
SEQEND
  8
gg1
  0
POLYLINE
  8
gg1
 62
1
 40
0.000000
 41
0.000000
 66
  1
  0
VERTEX
  8
gg1
 10
0.502500
 20
0.454000
  0
VERTEX
  8
gg1
 10
0.517500
 20
0.454000
  0
SEQEND
  8
gg1
  0
POLYLINE
  8
gg1
 62
1
 40
0.000000
 41
0.000000
 66
  1
  0
VERTEX
  8
gg1
 10
0.510000
 20
0.446500
  0
VERTEX
  8
gg1
 10
0.510000
 20
0.461500
  0
SEQEND
  8
gg1
  0
POLYLINE
  8
gg1
 62
1
 40
0.000000
 41
0.000000
 66
  1
  0
VERTEX
  8
gg1
 10
0.546500
 20
0.410000
  0
VERTEX
  8
gg1
 10
0.561500
 20
0.410000
  0
SEQEND
  8
gg1
  0
POLYLINE
  8
gg1
 62
1
 40
0.000000
 41
0.000000
 66
  1
  0
VERTEX
  8
gg1
 10
0.554000
 20
0.402500
  0
VERTEX
  8
gg1
 10
0.554000
 20
0.417500
  0
SEQEND
  8
gg1
  0
POLYLINE
  8
gg1
 62
1
 40
0.000000
 41
0.000000
 66
  1
  0
VERTEX
  8
gg1
 10
0.722500
 20
0.180000
  0
VERTEX
  8
gg1
 10
0.737500
 20
0.180000
  0
SEQEND
  8
gg1
  0
POLYLINE
  8
gg1
 62
1
 40
0.000000
 41
0.000000
 66
  1
  0
VERTEX
  8
gg1
 10
0.730000
 20
0.172500
  0
VERTEX
  8
gg1
 10
0.730000
 20
0.187500
  0
SEQEND
  8
gg1
  0
POLYLINE
  8
gg1
 62
1
 40
0.000000
 41
0.000000
 66
  1
  0
VERTEX
  8
gg1
 10
0.282500
 20
0.180000
  0
VERTEX
  8
gg1
 10
0.297500
 20
0.180000
  0
SEQEND
  8
gg1
  0
POLYLINE
  8
gg1
 62
1
 40
0.000000
 41
0.000000
 66
  1
  0
VERTEX
  8
gg1
 10
0.290000
 20
0.172500
  0
VERTEX
  8
gg1
 10
0.290000
 20
0.187500
  0
SEQEND
  8
gg1
  0
POLYLINE
  8
gg1
 62
1
 40
0.000000
 41
0.000000
 66
  1
  0
VERTEX
  8
gg1
 10
0.227500
 20
0.375000
  0
VERTEX
  8
gg1
 10
0.242500
 20
0.375000
  0
SEQEND
  8
gg1
  0
POLYLINE
  8
gg1
 62
1
 40
0.000000
 41
0.000000
 66
  1
  0
VERTEX
  8
gg1
 10
0.235000
 20
0.367500
  0
VERTEX
  8
gg1
 10
0.235000
 20
0.382500
  0
SEQEND
  8
gg1
  0
POLYLINE
  8
gg1
 62
1
 40
0.000000
 41
0.000000
 66
  1
  0
VERTEX
  8
gg1
 10
0.277500
 20
0.410000
  0
VERTEX
  8
gg1
 10
0.292500
 20
0.410000
  0
SEQEND
  8
gg1
  0
POLYLINE
  8
gg1
 62
1
 40
0.000000
 41
0.000000
 66
  1
  0
VERTEX
  8
gg1
 10
0.285000
 20
0.402500
  0
VERTEX
  8
gg1
 10
0.285000
 20
0.417500
  0
SEQEND
  8
gg1
  0
POLYLINE
  8
gg1
 62
1
 40
0.000000
 41
0.000000
 66
  1
  0
VERTEX
  8
gg1
 10
0.147500
 20
0.085000
  0
VERTEX
  8
gg1
 10
0.162500
 20
0.085000
  0
SEQEND
  8
gg1
  0
POLYLINE
  8
gg1
 62
1
 40
0.000000
 41
0.000000
 66
  1
  0
VERTEX
  8
gg1
 10
0.155000
 20
0.077500
  0
VERTEX
  8
gg1
 10
0.155000
 20
0.092500
  0
SEQEND
  8
gg1
  0
POLYLINE
  8
gg1
 62
1
 40
0.000000
 41
0.000000
 66
  1
  0
VERTEX
  8
gg1
 10
0.317500
 20
0.515000
  0
VERTEX
  8
gg1
 10
0.332500
 20
0.515000
  0
SEQEND
  8
gg1
  0
POLYLINE
  8
gg1
 62
1
 40
0.000000
 41
0.000000
 66
  1
  0
VERTEX
  8
gg1
 10
0.325000
 20
0.507500
  0
VERTEX
  8
gg1
 10
0.325000
 20
0.522500
  0
SEQEND
  8
gg1
  0
POLYLINE
  8
gg1
 62
1
 40
0.000000
 41
0.000000
 66
  1
  0
VERTEX
  8
gg1
 10
0.317500
 20
0.555000
  0
VERTEX
  8
gg1
 10
0.332500
 20
0.555000
  0
SEQEND
  8
gg1
  0
POLYLINE
  8
gg1
 62
1
 40
0.000000
 41
0.000000
 66
  1
  0
VERTEX
  8
gg1
 10
0.325000
 20
0.547500
  0
VERTEX
  8
gg1
 10
0.325000
 20
0.562500
  0
SEQEND
  8
gg1
  0
POLYLINE
  8
gg1
 62
1
 40
0.000000
 41
0.000000
 66
  1
  0
VERTEX
  8
gg1
 10
0.317500
 20
0.475000
  0
VERTEX
  8
gg1
 10
0.332500
 20
0.475000
  0
SEQEND
  8
gg1
  0
POLYLINE
  8
gg1
 62
1
 40
0.000000
 41
0.000000
 66
  1
  0
VERTEX
  8
gg1
 10
0.325000
 20
0.467500
  0
VERTEX
  8
gg1
 10
0.325000
 20
0.482500
  0
SEQEND
  8
gg1
  0
POLYLINE
  8
gg1
 62
1
 40
0.000000
 41
0.000000
 66
  1
  0
VERTEX
  8
gg1
 10
0.907500
 20
0.525000
  0
VERTEX
  8
gg1
 10
0.922500
 20
0.525000
  0
SEQEND
  8
gg1
  0
POLYLINE
  8
gg1
 62
1
 40
0.000000
 41
0.000000
 66
  1
  0
VERTEX
  8
gg1
 10
0.915000
 20
0.517500
  0
VERTEX
  8
gg1
 10
0.915000
 20
0.532500
  0
SEQEND
  8
gg1
  0
POLYLINE
  8
gg1
 62
1
 40
0.000000
 41
0.000000
 66
  1
  0
VERTEX
  8
gg1
 10
0.957500
 20
0.510000
  0
VERTEX
  8
gg1
 10
0.972500
 20
0.510000
  0
SEQEND
  8
gg1
  0
POLYLINE
  8
gg1
 62
1
 40
0.000000
 41
0.000000
 66
  1
  0
VERTEX
  8
gg1
 10
0.965000
 20
0.502500
  0
VERTEX
  8
gg1
 10
0.965000
 20
0.517500
  0
SEQEND
  8
gg1
  0
POLYLINE
  8
gg1
 62
1
 40
0.000000
 41
0.000000
 66
  1
  0
VERTEX
  8
gg1
 10
0.602500
 20
0.320000
  0
VERTEX
  8
gg1
 10
0.617500
 20
0.320000
  0
SEQEND
  8
gg1
  0
POLYLINE
  8
gg1
 62
1
 40
0.000000
 41
0.000000
 66
  1
  0
VERTEX
  8
gg1
 10
0.610000
 20
0.312500
  0
VERTEX
  8
gg1
 10
0.610000
 20
0.327500
  0
SEQEND
  8
gg1
  0
POLYLINE
  8
gg1
 62
1
 40
0.000000
 41
0.000000
 66
  1
  0
VERTEX
  8
gg1
 10
0.892500
 20
0.253000
  0
VERTEX
  8
gg1
 10
0.907500
 20
0.253000
  0
SEQEND
  8
gg1
  0
POLYLINE
  8
gg1
 62
1
 40
0.000000
 41
0.000000
 66
  1
  0
VERTEX
  8
gg1
 10
0.900000
 20
0.245500
  0
VERTEX
  8
gg1
 10
0.900000
 20
0.260500
  0
SEQEND
  8
gg1
  0
POLYLINE
  8
gg1
 62
1
 40
0.000000
 41
0.000000
 66
  1
  0
VERTEX
  8
gg1
 10
0.912500
 20
0.420000
  0
VERTEX
  8
gg1
 10
0.927500
 20
0.420000
  0
SEQEND
  8
gg1
  0
POLYLINE
  8
gg1
 62
1
 40
0.000000
 41
0.000000
 66
  1
  0
VERTEX
  8
gg1
 10
0.920000
 20
0.412500
  0
VERTEX
  8
gg1
 10
0.920000
 20
0.427500
  0
SEQEND
  8
gg1
  0
POLYLINE
  8
gg1
 62
1
 40
0.000000
 41
0.000000
 66
  1
  0
VERTEX
  8
gg1
 10
0.987500
 20
0.110000
  0
VERTEX
  8
gg1
 10
1.002500
 20
0.110000
  0
SEQEND
  8
gg1
  0
POLYLINE
  8
gg1
 62
1
 40
0.000000
 41
0.000000
 66
  1
  0
VERTEX
  8
gg1
 10
0.995000
 20
0.102500
  0
VERTEX
  8
gg1
 10
0.995000
 20
0.117500
  0
SEQEND
  8
gg1
  0
POLYLINE
  8
gg1
 62
1
 40
0.000000
 41
0.000000
 66
  1
  0
VERTEX
  8
gg1
 10
1.122500
 20
0.500000
  0
VERTEX
  8
gg1
 10
1.137500
 20
0.500000
  0
SEQEND
  8
gg1
  0
POLYLINE
  8
gg1
 62
1
 40
0.000000
 41
0.000000
 66
  1
  0
VERTEX
  8
gg1
 10
1.130000
 20
0.492500
  0
VERTEX
  8
gg1
 10
1.130000
 20
0.507500
  0
SEQEND
  8
gg1
  0
POLYLINE
  8
gg1
 62
1
 40
0.000000
 41
0.000000
 66
  1
  0
VERTEX
  8
gg1
 10
1.167500
 20
0.450000
  0
VERTEX
  8
gg1
 10
1.182500
 20
0.450000
  0
SEQEND
  8
gg1
  0
POLYLINE
  8
gg1
 62
1
 40
0.000000
 41
0.000000
 66
  1
  0
VERTEX
  8
gg1
 10
1.175000
 20
0.442500
  0
VERTEX
  8
gg1
 10
1.175000
 20
0.457500
  0
SEQEND
  8
gg1
  0
POLYLINE
  8
gg1
 62
1
 40
0.000000
 41
0.000000
 66
  1
  0
VERTEX
  8
gg1
 10
0.952500
 20
0.200000
  0
VERTEX
  8
gg1
 10
0.967500
 20
0.200000
  0
SEQEND
  8
gg1
  0
POLYLINE
  8
gg1
 62
1
 40
0.000000
 41
0.000000
 66
  1
  0
VERTEX
  8
gg1
 10
0.960000
 20
0.192500
  0
VERTEX
  8
gg1
 10
0.960000
 20
0.207500
  0
SEQEND
  8
gg1
  0
POLYLINE
  8
gg1
 62
1
 40
0.000000
 41
0.000000
 66
  1
  0
VERTEX
  8
gg1
 10
0.172500
 20
0.115000
  0
VERTEX
  8
gg1
 10
0.187500
 20
0.115000
  0
SEQEND
  8
gg1
  0
POLYLINE
  8
gg1
 62
1
 40
0.000000
 41
0.000000
 66
  1
  0
VERTEX
  8
gg1
 10
0.180000
 20
0.107500
  0
VERTEX
  8
gg1
 10
0.180000
 20
0.122500
  0
SEQEND
  8
gg1
  0
POLYLINE
  8
gg1
 62
1
 40
0.000000
 41
0.000000
 66
  1
  0
VERTEX
  8
gg1
 10
0.737500
 20
0.375000
  0
VERTEX
  8
gg1
 10
0.752500
 20
0.375000
  0
SEQEND
  8
gg1
  0
POLYLINE
  8
gg1
 62
1
 40
0.000000
 41
0.000000
 66
  1
  0
VERTEX
  8
gg1
 10
0.745000
 20
0.367500
  0
VERTEX
  8
gg1
 10
0.745000
 20
0.382500
  0
SEQEND
  8
gg1
  0
POLYLINE
  8
gg1
 62
1
 40
0.000000
 41
0.000000
 66
  1
  0
VERTEX
  8
gg1
 10
0.738500
 20
0.283000
  0
VERTEX
  8
gg1
 10
0.753500
 20
0.283000
  0
SEQEND
  8
gg1
  0
POLYLINE
  8
gg1
 62
1
 40
0.000000
 41
0.000000
 66
  1
  0
VERTEX
  8
gg1
 10
0.746000
 20
0.275500
  0
VERTEX
  8
gg1
 10
0.746000
 20
0.290500
  0
SEQEND
  8
gg1
  0
POLYLINE
  8
gg1
 62
1
 40
0.000000
 41
0.000000
 66
  1
  0
VERTEX
  8
gg1
 10
0.694500
 20
0.240000
  0
VERTEX
  8
gg1
 10
0.709500
 20
0.240000
  0
SEQEND
  8
gg1
  0
POLYLINE
  8
gg1
 62
1
 40
0.000000
 41
0.000000
 66
  1
  0
VERTEX
  8
gg1
 10
0.702000
 20
0.232500
  0
VERTEX
  8
gg1
 10
0.702000
 20
0.247500
  0
SEQEND
  8
gg1
  0
POLYLINE
  8
gg1
 62
1
 40
0.000000
 41
0.000000
 66
  1
  0
VERTEX
  8
gg1
 10
0.392500
 20
0.295000
  0
VERTEX
  8
gg1
 10
0.407500
 20
0.295000
  0
SEQEND
  8
gg1
  0
POLYLINE
  8
gg1
 62
1
 40
0.000000
 41
0.000000
 66
  1
  0
VERTEX
  8
gg1
 10
0.400000
 20
0.287500
  0
VERTEX
  8
gg1
 10
0.400000
 20
0.302500
  0
SEQEND
  8
gg1
  0
POLYLINE
  8
gg1
 62
1
 40
0.000000
 41
0.000000
 66
  1
  0
VERTEX
  8
gg1
 10
0.392500
 20
0.340000
  0
VERTEX
  8
gg1
 10
0.407500
 20
0.340000
  0
SEQEND
  8
gg1
  0
POLYLINE
  8
gg1
 62
1
 40
0.000000
 41
0.000000
 66
  1
  0
VERTEX
  8
gg1
 10
0.400000
 20
0.332500
  0
VERTEX
  8
gg1
 10
0.400000
 20
0.347500
  0
SEQEND
  8
gg1
  0
POLYLINE
  8
gg1
 62
1
 40
0.000000
 41
0.000000
 66
  1
  0
VERTEX
  8
gg1
 10
0.677500
 20
0.464000
  0
VERTEX
  8
gg1
 10
0.692500
 20
0.464000
  0
SEQEND
  8
gg1
  0
POLYLINE
  8
gg1
 62
1
 40
0.000000
 41
0.000000
 66
  1
  0
VERTEX
  8
gg1
 10
0.685000
 20
0.456500
  0
VERTEX
  8
gg1
 10
0.685000
 20
0.471500
  0
SEQEND
  8
gg1
  0
POLYLINE
  8
gg1
 62
1
 40
0.000000
 41
0.000000
 66
  1
  0
VERTEX
  8
gg1
 10
0.550500
 20
0.193000
  0
VERTEX
  8
gg1
 10
0.565500
 20
0.193000
  0
SEQEND
  8
gg1
  0
POLYLINE
  8
gg1
 62
1
 40
0.000000
 41
0.000000
 66
  1
  0
VERTEX
  8
gg1
 10
0.558000
 20
0.185500
  0
VERTEX
  8
gg1
 10
0.558000
 20
0.200500
  0
SEQEND
  8
gg1
  0
POLYLINE
  8
gg1
 62
1
 40
0.000000
 41
0.000000
 66
  1
  0
VERTEX
  8
gg1
 10
0.465500
 20
0.040000
  0
VERTEX
  8
gg1
 10
0.480500
 20
0.040000
  0
SEQEND
  8
gg1
  0
POLYLINE
  8
gg1
 62
1
 40
0.000000
 41
0.000000
 66
  1
  0
VERTEX
  8
gg1
 10
0.473000
 20
0.032500
  0
VERTEX
  8
gg1
 10
0.473000
 20
0.047500
  0
SEQEND
  8
gg1
  0
POLYLINE
  8
gg1
 62
1
 40
0.000000
 41
0.000000
 66
  1
  0
VERTEX
  8
gg1
 10
0.737500
 20
0.144000
  0
VERTEX
  8
gg1
 10
0.752500
 20
0.144000
  0
SEQEND
  8
gg1
  0
POLYLINE
  8
gg1
 62
1
 40
0.000000
 41
0.000000
 66
  1
  0
VERTEX
  8
gg1
 10
0.745000
 20
0.136500
  0
VERTEX
  8
gg1
 10
0.745000
 20
0.151500
  0
SEQEND
  8
gg1
  0
POLYLINE
  8
gg1
 62
1
 40
0.000000
 41
0.000000
 66
  1
  0
VERTEX
  8
gg1
 10
0.407500
 20
0.095000
  0
VERTEX
  8
gg1
 10
0.422500
 20
0.095000
  0
SEQEND
  8
gg1
  0
POLYLINE
  8
gg1
 62
1
 40
0.000000
 41
0.000000
 66
  1
  0
VERTEX
  8
gg1
 10
0.415000
 20
0.087500
  0
VERTEX
  8
gg1
 10
0.415000
 20
0.102500
  0
SEQEND
  8
gg1
  0
POLYLINE
  8
gg1
 62
1
 40
0.000000
 41
0.000000
 66
  1
  0
VERTEX
  8
gg1
 10
0.437500
 20
0.120000
  0
VERTEX
  8
gg1
 10
0.452500
 20
0.120000
  0
SEQEND
  8
gg1
  0
POLYLINE
  8
gg1
 62
1
 40
0.000000
 41
0.000000
 66
  1
  0
VERTEX
  8
gg1
 10
0.445000
 20
0.112500
  0
VERTEX
  8
gg1
 10
0.445000
 20
0.127500
  0
SEQEND
  8
gg1
  0
POLYLINE
  8
gg1
 62
1
 40
0.000000
 41
0.000000
 66
  1
  0
VERTEX
  8
gg1
 10
0.377500
 20
0.065000
  0
VERTEX
  8
gg1
 10
0.392500
 20
0.065000
  0
SEQEND
  8
gg1
  0
POLYLINE
  8
gg1
 62
1
 40
0.000000
 41
0.000000
 66
  1
  0
VERTEX
  8
gg1
 10
0.385000
 20
0.057500
  0
VERTEX
  8
gg1
 10
0.385000
 20
0.072500
  0
SEQEND
  8
gg1
  0
POLYLINE
  8
gg1
 62
1
 40
0.000000
 41
0.000000
 66
  1
  0
VERTEX
  8
gg1
 10
0.239500
 20
0.215000
  0
VERTEX
  8
gg1
 10
0.254500
 20
0.215000
  0
SEQEND
  8
gg1
  0
POLYLINE
  8
gg1
 62
1
 40
0.000000
 41
0.000000
 66
  1
  0
VERTEX
  8
gg1
 10
0.247000
 20
0.207500
  0
VERTEX
  8
gg1
 10
0.247000
 20
0.222500
  0
SEQEND
  8
gg1
  0
POLYLINE
  8
gg1
 62
1
 40
0.000000
 41
0.000000
 66
  1
  0
VERTEX
  8
gg1
 10
0.240500
 20
0.295000
  0
VERTEX
  8
gg1
 10
0.255500
 20
0.295000
  0
SEQEND
  8
gg1
  0
POLYLINE
  8
gg1
 62
1
 40
0.000000
 41
0.000000
 66
  1
  0
VERTEX
  8
gg1
 10
0.248000
 20
0.287500
  0
VERTEX
  8
gg1
 10
0.248000
 20
0.302500
  0
SEQEND
  8
gg1
  0
POLYLINE
  8
gg1
 62
1
 40
0.000000
 41
0.000000
 66
  1
  0
VERTEX
  8
gg1
 10
0.217500
 20
0.335000
  0
VERTEX
  8
gg1
 10
0.232500
 20
0.335000
  0
SEQEND
  8
gg1
  0
POLYLINE
  8
gg1
 62
1
 40
0.000000
 41
0.000000
 66
  1
  0
VERTEX
  8
gg1
 10
0.225000
 20
0.327500
  0
VERTEX
  8
gg1
 10
0.225000
 20
0.342500
  0
SEQEND
  8
gg1
  0
POLYLINE
  8
gg1
 62
1
 40
0.000000
 41
0.000000
 66
  1
  0
VERTEX
  8
gg1
 10
1.167500
 20
0.250000
  0
VERTEX
  8
gg1
 10
1.182500
 20
0.250000
  0
SEQEND
  8
gg1
  0
POLYLINE
  8
gg1
 62
1
 40
0.000000
 41
0.000000
 66
  1
  0
VERTEX
  8
gg1
 10
1.175000
 20
0.242500
  0
VERTEX
  8
gg1
 10
1.175000
 20
0.257500
  0
SEQEND
  8
gg1
  0
POLYLINE
  8
gg1
 62
1
 40
0.000000
 41
0.000000
 66
  1
  0
VERTEX
  8
gg1
 10
-0.123990
 20
0.169040
  0
VERTEX
  8
gg1
 10
-0.113990
 20
0.149040
  0
VERTEX
  8
gg1
 10
-0.094000
 20
0.129050
  0
VERTEX
  8
gg1
 10
-0.074010
 20
0.129050
  0
VERTEX
  8
gg1
 10
-0.064010
 20
0.139050
  0
VERTEX
  8
gg1
 10
-0.064010
 20
0.159040
  0
VERTEX
  8
gg1
 10
-0.074010
 20
0.169040
  0
VERTEX
  8
gg1
 10
-0.084000
 20
0.169040
  0
VERTEX
  8
gg1
 10
-0.094000
 20
0.159040
  0
VERTEX
  8
gg1
 10
-0.094000
 20
0.129050
  0
SEQEND
  8
gg1
  0
POLYLINE
  8
gg1
 62
1
 40
0.000000
 41
0.000000
 66
  1
  0
VERTEX
  8
gg1
 10
-0.113990
 20
0.189030
  0
VERTEX
  8
gg1
 10
-0.123990
 20
0.199030
  0
VERTEX
  8
gg1
 10
-0.123990
 20
0.219020
  0
VERTEX
  8
gg1
 10
-0.113990
 20
0.229020
  0
VERTEX
  8
gg1
 10
-0.074010
 20
0.229020
  0
VERTEX
  8
gg1
 10
-0.064010
 20
0.219020
  0
VERTEX
  8
gg1
 10
-0.064010
 20
0.199030
  0
VERTEX
  8
gg1
 10
-0.074010
 20
0.189030
  0
VERTEX
  8
gg1
 10
-0.113990
 20
0.189030
  0
SEQEND
  8
gg1
  0
POLYLINE
  8
gg1
 62
1
 40
0.000000
 41
0.000000
 66
  1
  0
VERTEX
  8
gg1
 10
-0.113990
 20
0.249010
  0
VERTEX
  8
gg1
 10
-0.123990
 20
0.259010
  0
VERTEX
  8
gg1
 10
-0.123990
 20
0.279000
  0
VERTEX
  8
gg1
 10
-0.113990
 20
0.289000
  0
VERTEX
  8
gg1
 10
-0.074010
 20
0.289000
  0
VERTEX
  8
gg1
 10
-0.064010
 20
0.279000
  0
VERTEX
  8
gg1
 10
-0.064010
 20
0.259010
  0
VERTEX
  8
gg1
 10
-0.074010
 20
0.249010
  0
VERTEX
  8
gg1
 10
-0.113990
 20
0.249010
  0
SEQEND
  8
gg1
  0
POLYLINE
  8
gg1
 62
1
 40
0.000000
 41
0.000000
 66
  1
  0
VERTEX
  8
gg1
 10
-0.064010
 20
0.308990
  0
VERTEX
  8
gg1
 10
-0.104000
 20
0.308990
  0
VERTEX
  8
gg1
 10
-0.104000
 20
0.318990
  0
VERTEX
  8
gg1
 10
-0.094000
 20
0.328990
  0
VERTEX
  8
gg1
 10
-0.064010
 20
0.328990
  0
VERTEX
  8
gg1
 10
-0.094000
 20
0.328990
  0
VERTEX
  8
gg1
 10
-0.104000
 20
0.338980
  0
VERTEX
  8
gg1
 10
-0.094000
 20
0.348980
  0
VERTEX
  8
gg1
 10
-0.064010
 20
0.348980
  0
SEQEND
  8
gg1
  0
POLYLINE
  8
gg1
 62
1
 40
0.000000
 41
0.000000
 66
  1
  0
VERTEX
  8
gg1
 10
-0.064010
 20
0.368970
  0
VERTEX
  8
gg1
 10
-0.064010
 20
0.388970
  0
VERTEX
  8
gg1
 10
-0.064010
 20
0.378970
  0
VERTEX
  8
gg1
 10
-0.104000
 20
0.378970
  0
VERTEX
  8
gg1
 10
-0.104000
 20
0.368970
  0
SEQEND
  8
gg1
  0
POLYLINE
  8
gg1
 62
1
 40
0.000000
 41
0.000000
 66
  1
  0
VERTEX
  8
gg1
 10
-0.064010
 20
0.418960
  0
VERTEX
  8
gg1
 10
-0.064010
 20
0.438950
  0
VERTEX
  8
gg1
 10
-0.064010
 20
0.428950
  0
VERTEX
  8
gg1
 10
-0.123990
 20
0.428950
  0
VERTEX
  8
gg1
 10
-0.123990
 20
0.418960
  0
SEQEND
  8
gg1
  0
POLYLINE
  8
gg1
 62
1
 40
0.000000
 41
0.000000
 66
  1
  0
VERTEX
  8
gg1
 10
0.479060
 20
-0.120990
  0
VERTEX
  8
gg1
 10
0.499050
 20
-0.120990
  0
VERTEX
  8
gg1
 10
0.489060
 20
-0.120990
  0
VERTEX
  8
gg1
 10
0.489060
 20
-0.061010
  0
VERTEX
  8
gg1
 10
0.479060
 20
-0.071010
  0
SEQEND
  8
gg1
  0
POLYLINE
  8
gg1
 62
1
 40
0.000000
 41
0.000000
 66
  1
  0
VERTEX
  8
gg1
 10
0.529040
 20
-0.071010
  0
VERTEX
  8
gg1
 10
0.539040
 20
-0.061010
  0
VERTEX
  8
gg1
 10
0.559030
 20
-0.061010
  0
VERTEX
  8
gg1
 10
0.569030
 20
-0.071010
  0
VERTEX
  8
gg1
 10
0.569030
 20
-0.081000
  0
VERTEX
  8
gg1
 10
0.559030
 20
-0.091000
  0
VERTEX
  8
gg1
 10
0.549040
 20
-0.091000
  0
VERTEX
  8
gg1
 10
0.559030
 20
-0.091000
  0
VERTEX
  8
gg1
 10
0.569030
 20
-0.101000
  0
VERTEX
  8
gg1
 10
0.569030
 20
-0.110990
  0
VERTEX
  8
gg1
 10
0.559030
 20
-0.120990
  0
VERTEX
  8
gg1
 10
0.539040
 20
-0.120990
  0
VERTEX
  8
gg1
 10
0.529040
 20
-0.110990
  0
SEQEND
  8
gg1
  0
POLYLINE
  8
gg1
 62
1
 40
0.000000
 41
0.000000
 66
  1
  0
VERTEX
  8
gg1
 10
0.629010
 20
-0.061010
  0
VERTEX
  8
gg1
 10
0.589020
 20
-0.061010
  0
VERTEX
  8
gg1
 10
0.589020
 20
-0.091000
  0
VERTEX
  8
gg1
 10
0.609020
 20
-0.081000
  0
VERTEX
  8
gg1
 10
0.619010
 20
-0.081000
  0
VERTEX
  8
gg1
 10
0.629010
 20
-0.091000
  0
VERTEX
  8
gg1
 10
0.629010
 20
-0.110990
  0
VERTEX
  8
gg1
 10
0.619010
 20
-0.120990
  0
VERTEX
  8
gg1
 10
0.599020
 20
-0.120990
  0
VERTEX
  8
gg1
 10
0.589020
 20
-0.110990
  0
SEQEND
  8
gg1
  0
POLYLINE
  8
gg1
 62
1
 40
0.000000
 41
0.000000
 66
  1
  0
VERTEX
  8
gg1
 10
0.649000
 20
-0.071010
  0
VERTEX
  8
gg1
 10
0.659000
 20
-0.061010
  0
VERTEX
  8
gg1
 10
0.678990
 20
-0.061010
  0
VERTEX
  8
gg1
 10
0.688990
 20
-0.071010
  0
VERTEX
  8
gg1
 10
0.688990
 20
-0.110990
  0
VERTEX
  8
gg1
 10
0.678990
 20
-0.120990
  0
VERTEX
  8
gg1
 10
0.659000
 20
-0.120990
  0
VERTEX
  8
gg1
 10
0.649000
 20
-0.110990
  0
VERTEX
  8
gg1
 10
0.649000
 20
-0.071010
  0
SEQEND
  8
gg1
  0
POLYLINE
  8
gg1
 62
1
 40
0.000000
 41
0.000000
 66
  1
  0
VERTEX
  8
gg1
 10
0.708980
 20
-0.120990
  0
VERTEX
  8
gg1
 10
0.708980
 20
-0.081000
  0
VERTEX
  8
gg1
 10
0.718980
 20
-0.081000
  0
VERTEX
  8
gg1
 10
0.728980
 20
-0.091000
  0
VERTEX
  8
gg1
 10
0.728980
 20
-0.120990
  0
VERTEX
  8
gg1
 10
0.728980
 20
-0.091000
  0
VERTEX
  8
gg1
 10
0.738970
 20
-0.081000
  0
VERTEX
  8
gg1
 10
0.748970
 20
-0.091000
  0
VERTEX
  8
gg1
 10
0.748970
 20
-0.120990
  0
SEQEND
  8
gg1
  0
POLYLINE
  8
gg1
 62
1
 40
0.000000
 41
0.000000
 66
  1
  0
VERTEX
  8
gg1
 10
0.768960
 20
-0.120990
  0
VERTEX
  8
gg1
 10
0.788960
 20
-0.120990
  0
VERTEX
  8
gg1
 10
0.778960
 20
-0.120990
  0
VERTEX
  8
gg1
 10
0.778960
 20
-0.081000
  0
VERTEX
  8
gg1
 10
0.768960
 20
-0.081000
  0
SEQEND
  8
gg1
  0
POLYLINE
  8
gg1
 62
1
 40
0.000000
 41
0.000000
 66
  1
  0
VERTEX
  8
gg1
 10
0.818950
 20
-0.120990
  0
VERTEX
  8
gg1
 10
0.838940
 20
-0.120990
  0
VERTEX
  8
gg1
 10
0.828940
 20
-0.120990
  0
VERTEX
  8
gg1
 10
0.828940
 20
-0.061010
  0
VERTEX
  8
gg1
 10
0.818950
 20
-0.061010
  0
SEQEND
  8
gg1
  0
ENDSEC
  0
EOF
