  0
SECTION
  2
HEADER
  9
$EXTMIN
 10
-0.277000
 20
-0.214000
  9
$EXTMAX
 10
0.805000
 20
1.005000
  9
$LIMMIN
 10
-0.277000
 20
-0.214000
  9
$LIMMAX
 10
0.805000
 20
1.005000
  9
$FILLMODE
 70
  1
  0
ENDSEC
  0
SECTION
  2
TABLES
  0
TABLE
  2
LTYPE
 70
  1
  0
LTYPE
  2
CONTINUOUS
 70
 64
  3
Solid line
 72
 65
 73
  0
 40
0.0
  0
ENDTAB
  0
TABLE
  2
LAYER
 70
 1
  0
LAYER
  2
0
 70
  0
 62
7
  6
CONTINUOUS
  0
LAYER
  2
gg1
 70
  0
 62
1
  6
CONTINUOUS
  0
ENDTAB
  0
TABLE
  2
STYLE
 70
  1
  0
STYLE
  2
STANDARD
 70
  0
 40
0.0
 41
1.0
 50
0.0
 71
  0
 42
0.2
  3
txt
  4

  0
ENDTAB
  0
ENDSEC
  0
SECTION
  2
BLOCKS
  0
BLOCK
  8
0
  2
D10
 70
64
 10
0.0
 20
0.0
  3
D10
  0
CIRCLE
  8
0
 10
0.000000
 20
0.000000
 40
0.005000
 0
ENDBLK
  8
0
  0
BLOCK
  8
0
  2
D11
 70
64
 10
0.0
 20
0.0
  3
D11
  0
CIRCLE
  8
0
 10
0.000000
 20
0.000000
 40
0.002500
 0
ENDBLK
  8
0
  0
BLOCK
  8
0
  2
D12
 70
64
 10
0.0
 20
0.0
  3
D12
  0
CIRCLE
  8
0
 10
0.000000
 20
0.000000
 40
0.003000
 0
ENDBLK
  8
0
  0
BLOCK
  8
0
  2
D13
 70
64
 10
0.0
 20
0.0
  3
D13
  0
CIRCLE
  8
0
 10
0.000000
 20
0.000000
 40
0.001000
 0
ENDBLK
  8
0
  0
ENDSEC
  0
SECTION
  2
ENTITIES
  0
POLYLINE
  8
gg1
 62
1
 40
0.000000
 41
0.000000
 66
  1
  0
VERTEX
  8
gg1
 10
0.800000
 20
-0.185000
  0
VERTEX
  8
gg1
 10
0.800000
 20
-0.010000
  0
SEQEND
  8
gg1
  0
POLYLINE
  8
gg1
 62
1
 40
0.000000
 41
0.000000
 66
  1
  0
VERTEX
  8
gg1
 10
0.000000
 20
-0.185000
  0
VERTEX
  8
gg1
 10
0.000000
 20
-0.010000
  0
SEQEND
  8
gg1
  0
POLYLINE
  8
gg1
 62
1
 40
0.000000
 41
0.000000
 66
  1
  0
VERTEX
  8
gg1
 10
0.554900
 20
-0.175000
  0
VERTEX
  8
gg1
 10
0.800000
 20
-0.175000
  0
SEQEND
  8
gg1
  0
POLYLINE
  8
gg1
 62
1
 40
0.000000
 41
0.000000
 66
  1
  0
VERTEX
  8
gg1
 10
0.000000
 20
-0.175000
  0
VERTEX
  8
gg1
 10
0.213000
 20
-0.175000
  0
SEQEND
  8
gg1
  0
POLYLINE
  8
gg1
 62
1
 40
0.000000
 41
0.000000
 66
  1
  0
VERTEX
  8
gg1
 10
0.740000
 20
-0.155000
  0
VERTEX
  8
gg1
 10
0.800000
 20
-0.175000
  0
SEQEND
  8
gg1
  0
POLYLINE
  8
gg1
 62
1
 40
0.000000
 41
0.000000
 66
  1
  0
VERTEX
  8
gg1
 10
0.740000
 20
-0.195000
  0
VERTEX
  8
gg1
 10
0.800000
 20
-0.175000
  0
SEQEND
  8
gg1
  0
POLYLINE
  8
gg1
 62
1
 40
0.000000
 41
0.000000
 66
  1
  0
VERTEX
  8
gg1
 10
0.000000
 20
-0.175000
  0
VERTEX
  8
gg1
 10
0.060000
 20
-0.195000
  0
SEQEND
  8
gg1
  0
POLYLINE
  8
gg1
 62
1
 40
0.000000
 41
0.000000
 66
  1
  0
VERTEX
  8
gg1
 10
0.000000
 20
-0.175000
  0
VERTEX
  8
gg1
 10
0.060000
 20
-0.155000
  0
SEQEND
  8
gg1
  0
POLYLINE
  8
gg1
 62
1
 40
0.000000
 41
0.000000
 66
  1
  0
VERTEX
  8
gg1
 10
-0.260000
 20
1.000000
  0
VERTEX
  8
gg1
 10
-0.010000
 20
1.000000
  0
SEQEND
  8
gg1
  0
POLYLINE
  8
gg1
 62
1
 40
0.000000
 41
0.000000
 66
  1
  0
VERTEX
  8
gg1
 10
-0.260000
 20
0.000000
  0
VERTEX
  8
gg1
 10
-0.010000
 20
0.000000
  0
SEQEND
  8
gg1
  0
POLYLINE
  8
gg1
 62
1
 40
0.000000
 41
0.000000
 66
  1
  0
VERTEX
  8
gg1
 10
-0.250000
 20
0.679900
  0
VERTEX
  8
gg1
 10
-0.250000
 20
1.000000
  0
SEQEND
  8
gg1
  0
POLYLINE
  8
gg1
 62
1
 40
0.000000
 41
0.000000
 66
  1
  0
VERTEX
  8
gg1
 10
-0.250000
 20
0.000000
  0
VERTEX
  8
gg1
 10
-0.250000
 20
0.288100
  0
SEQEND
  8
gg1
  0
POLYLINE
  8
gg1
 62
1
 40
0.000000
 41
0.000000
 66
  1
  0
VERTEX
  8
gg1
 10
-0.270000
 20
0.940000
  0
VERTEX
  8
gg1
 10
-0.250000
 20
1.000000
  0
VERTEX
  8
gg1
 10
-0.230000
 20
0.940000
  0
SEQEND
  8
gg1
  0
POLYLINE
  8
gg1
 62
1
 40
0.000000
 41
0.000000
 66
  1
  0
VERTEX
  8
gg1
 10
-0.250000
 20
0.000000
  0
VERTEX
  8
gg1
 10
-0.230000
 20
0.060000
  0
SEQEND
  8
gg1
  0
POLYLINE
  8
gg1
 62
1
 40
0.000000
 41
0.000000
 66
  1
  0
VERTEX
  8
gg1
 10
-0.270000
 20
0.060000
  0
VERTEX
  8
gg1
 10
-0.250000
 20
0.000000
  0
SEQEND
  8
gg1
  0
POLYLINE
  8
gg1
 62
1
 40
0.000000
 41
0.000000
 66
  1
  0
VERTEX
  8
gg1
 10
0.000000
 20
0.000000
  0
VERTEX
  8
gg1
 10
0.000000
 20
1.000000
  0
VERTEX
  8
gg1
 10
0.800000
 20
1.000000
  0
SEQEND
  8
gg1
  0
POLYLINE
  8
gg1
 62
1
 40
0.000000
 41
0.000000
 66
  1
  0
VERTEX
  8
gg1
 10
0.800000
 20
0.000000
  0
VERTEX
  8
gg1
 10
0.800000
 20
1.000000
  0
SEQEND
  8
gg1
  0
POLYLINE
  8
gg1
 62
1
 40
0.000000
 41
0.000000
 66
  1
  0
VERTEX
  8
gg1
 10
0.000000
 20
0.000000
  0
VERTEX
  8
gg1
 10
0.800000
 20
0.000000
  0
SEQEND
  8
gg1
  0
POLYLINE
  8
gg1
 62
1
 40
0.000000
 41
0.000000
 66
  1
  0
VERTEX
  8
gg1
 10
0.229000
 20
-0.161000
  0
VERTEX
  8
gg1
 10
0.239000
 20
-0.151000
  0
VERTEX
  8
gg1
 10
0.259000
 20
-0.151000
  0
VERTEX
  8
gg1
 10
0.269000
 20
-0.161000
  0
VERTEX
  8
gg1
 10
0.269000
 20
-0.171000
  0
VERTEX
  8
gg1
 10
0.259000
 20
-0.181000
  0
VERTEX
  8
gg1
 10
0.269000
 20
-0.191000
  0
VERTEX
  8
gg1
 10
0.269000
 20
-0.201000
  0
VERTEX
  8
gg1
 10
0.259000
 20
-0.211000
  0
VERTEX
  8
gg1
 10
0.239000
 20
-0.211000
  0
VERTEX
  8
gg1
 10
0.229000
 20
-0.201000
  0
VERTEX
  8
gg1
 10
0.229000
 20
-0.191000
  0
VERTEX
  8
gg1
 10
0.239000
 20
-0.181000
  0
VERTEX
  8
gg1
 10
0.229000
 20
-0.171000
  0
VERTEX
  8
gg1
 10
0.229000
 20
-0.161000
  0
SEQEND
  8
gg1
  0
POLYLINE
  8
gg1
 62
1
 40
0.000000
 41
0.000000
 66
  1
  0
VERTEX
  8
gg1
 10
0.239000
 20
-0.181000
  0
VERTEX
  8
gg1
 10
0.259000
 20
-0.181000
  0
SEQEND
  8
gg1
  0
POLYLINE
  8
gg1
 62
1
 40
0.000000
 41
0.000000
 66
  1
  0
VERTEX
  8
gg1
 10
0.289000
 20
-0.161000
  0
VERTEX
  8
gg1
 10
0.299000
 20
-0.151000
  0
VERTEX
  8
gg1
 10
0.319000
 20
-0.151000
  0
VERTEX
  8
gg1
 10
0.329000
 20
-0.161000
  0
VERTEX
  8
gg1
 10
0.329000
 20
-0.201000
  0
VERTEX
  8
gg1
 10
0.319000
 20
-0.211000
  0
VERTEX
  8
gg1
 10
0.299000
 20
-0.211000
  0
VERTEX
  8
gg1
 10
0.289000
 20
-0.201000
  0
VERTEX
  8
gg1
 10
0.289000
 20
-0.161000
  0
SEQEND
  8
gg1
  0
POLYLINE
  8
gg1
 62
1
 40
0.000000
 41
0.000000
 66
  1
  0
VERTEX
  8
gg1
 10
0.349000
 20
-0.161000
  0
VERTEX
  8
gg1
 10
0.359000
 20
-0.151000
  0
VERTEX
  8
gg1
 10
0.379000
 20
-0.151000
  0
VERTEX
  8
gg1
 10
0.389000
 20
-0.161000
  0
VERTEX
  8
gg1
 10
0.389000
 20
-0.201000
  0
VERTEX
  8
gg1
 10
0.379000
 20
-0.211000
  0
VERTEX
  8
gg1
 10
0.359000
 20
-0.211000
  0
VERTEX
  8
gg1
 10
0.349000
 20
-0.201000
  0
VERTEX
  8
gg1
 10
0.349000
 20
-0.161000
  0
SEQEND
  8
gg1
  0
POLYLINE
  8
gg1
 62
1
 40
0.000000
 41
0.000000
 66
  1
  0
VERTEX
  8
gg1
 10
0.409000
 20
-0.211000
  0
VERTEX
  8
gg1
 10
0.409000
 20
-0.171000
  0
VERTEX
  8
gg1
 10
0.419000
 20
-0.171000
  0
VERTEX
  8
gg1
 10
0.429000
 20
-0.181000
  0
VERTEX
  8
gg1
 10
0.429000
 20
-0.211000
  0
VERTEX
  8
gg1
 10
0.429000
 20
-0.181000
  0
VERTEX
  8
gg1
 10
0.439000
 20
-0.171000
  0
VERTEX
  8
gg1
 10
0.449000
 20
-0.181000
  0
VERTEX
  8
gg1
 10
0.449000
 20
-0.211000
  0
SEQEND
  8
gg1
  0
POLYLINE
  8
gg1
 62
1
 40
0.000000
 41
0.000000
 66
  1
  0
VERTEX
  8
gg1
 10
0.469000
 20
-0.211000
  0
VERTEX
  8
gg1
 10
0.489000
 20
-0.211000
  0
VERTEX
  8
gg1
 10
0.479000
 20
-0.211000
  0
VERTEX
  8
gg1
 10
0.479000
 20
-0.171000
  0
VERTEX
  8
gg1
 10
0.469000
 20
-0.171000
  0
SEQEND
  8
gg1
  0
POLYLINE
  8
gg1
 62
1
 40
0.000000
 41
0.000000
 66
  1
  0
VERTEX
  8
gg1
 10
0.519000
 20
-0.211000
  0
VERTEX
  8
gg1
 10
0.539000
 20
-0.211000
  0
VERTEX
  8
gg1
 10
0.529000
 20
-0.211000
  0
VERTEX
  8
gg1
 10
0.529000
 20
-0.151000
  0
VERTEX
  8
gg1
 10
0.519000
 20
-0.151000
  0
SEQEND
  8
gg1
  0
POLYLINE
  8
gg1
 62
1
 40
0.000000
 41
0.000000
 66
  1
  0
VERTEX
  8
gg1
 10
-0.214000
 20
0.304100
  0
VERTEX
  8
gg1
 10
-0.214000
 20
0.324100
  0
VERTEX
  8
gg1
 10
-0.214000
 20
0.314100
  0
VERTEX
  8
gg1
 10
-0.274000
 20
0.314100
  0
VERTEX
  8
gg1
 10
-0.264000
 20
0.304100
  0
SEQEND
  8
gg1
  0
POLYLINE
  8
gg1
 62
1
 40
0.000000
 41
0.000000
 66
  1
  0
VERTEX
  8
gg1
 10
-0.264000
 20
0.354000
  0
VERTEX
  8
gg1
 10
-0.274000
 20
0.364000
  0
VERTEX
  8
gg1
 10
-0.274000
 20
0.384000
  0
VERTEX
  8
gg1
 10
-0.264000
 20
0.394000
  0
VERTEX
  8
gg1
 10
-0.224000
 20
0.394000
  0
VERTEX
  8
gg1
 10
-0.214000
 20
0.384000
  0
VERTEX
  8
gg1
 10
-0.214000
 20
0.364000
  0
VERTEX
  8
gg1
 10
-0.224000
 20
0.354000
  0
VERTEX
  8
gg1
 10
-0.264000
 20
0.354000
  0
SEQEND
  8
gg1
  0
POLYLINE
  8
gg1
 62
1
 40
0.000000
 41
0.000000
 66
  1
  0
VERTEX
  8
gg1
 10
-0.264000
 20
0.414000
  0
VERTEX
  8
gg1
 10
-0.274000
 20
0.424000
  0
VERTEX
  8
gg1
 10
-0.274000
 20
0.444000
  0
VERTEX
  8
gg1
 10
-0.264000
 20
0.454000
  0
VERTEX
  8
gg1
 10
-0.224000
 20
0.454000
  0
VERTEX
  8
gg1
 10
-0.214000
 20
0.444000
  0
VERTEX
  8
gg1
 10
-0.214000
 20
0.424000
  0
VERTEX
  8
gg1
 10
-0.224000
 20
0.414000
  0
VERTEX
  8
gg1
 10
-0.264000
 20
0.414000
  0
SEQEND
  8
gg1
  0
POLYLINE
  8
gg1
 62
1
 40
0.000000
 41
0.000000
 66
  1
  0
VERTEX
  8
gg1
 10
-0.264000
 20
0.474000
  0
VERTEX
  8
gg1
 10
-0.274000
 20
0.484000
  0
VERTEX
  8
gg1
 10
-0.274000
 20
0.504000
  0
VERTEX
  8
gg1
 10
-0.264000
 20
0.514000
  0
VERTEX
  8
gg1
 10
-0.224000
 20
0.514000
  0
VERTEX
  8
gg1
 10
-0.214000
 20
0.504000
  0
VERTEX
  8
gg1
 10
-0.214000
 20
0.484000
  0
VERTEX
  8
gg1
 10
-0.224000
 20
0.474000
  0
VERTEX
  8
gg1
 10
-0.264000
 20
0.474000
  0
SEQEND
  8
gg1
  0
POLYLINE
  8
gg1
 62
1
 40
0.000000
 41
0.000000
 66
  1
  0
VERTEX
  8
gg1
 10
-0.214000
 20
0.534000
  0
VERTEX
  8
gg1
 10
-0.254000
 20
0.534000
  0
VERTEX
  8
gg1
 10
-0.254000
 20
0.544000
  0
VERTEX
  8
gg1
 10
-0.244000
 20
0.554000
  0
VERTEX
  8
gg1
 10
-0.214000
 20
0.554000
  0
VERTEX
  8
gg1
 10
-0.244000
 20
0.554000
  0
VERTEX
  8
gg1
 10
-0.254000
 20
0.564000
  0
VERTEX
  8
gg1
 10
-0.244000
 20
0.574000
  0
VERTEX
  8
gg1
 10
-0.214000
 20
0.574000
  0
SEQEND
  8
gg1
  0
POLYLINE
  8
gg1
 62
1
 40
0.000000
 41
0.000000
 66
  1
  0
VERTEX
  8
gg1
 10
-0.214000
 20
0.594000
  0
VERTEX
  8
gg1
 10
-0.214000
 20
0.614000
  0
VERTEX
  8
gg1
 10
-0.214000
 20
0.604000
  0
VERTEX
  8
gg1
 10
-0.254000
 20
0.604000
  0
VERTEX
  8
gg1
 10
-0.254000
 20
0.594000
  0
SEQEND
  8
gg1
  0
POLYLINE
  8
gg1
 62
1
 40
0.000000
 41
0.000000
 66
  1
  0
VERTEX
  8
gg1
 10
-0.214000
 20
0.643900
  0
VERTEX
  8
gg1
 10
-0.214000
 20
0.663900
  0
VERTEX
  8
gg1
 10
-0.214000
 20
0.653900
  0
VERTEX
  8
gg1
 10
-0.274000
 20
0.653900
  0
VERTEX
  8
gg1
 10
-0.274000
 20
0.643900
  0
SEQEND
  8
gg1
  0
POLYLINE
  8
gg1
 62
1
 40
0.000000
 41
0.000000
 66
  1
  0
VERTEX
  8
gg1
 10
0.730000
 20
0.100000
  0
VERTEX
  8
gg1
 10
0.770000
 20
0.100000
  0
SEQEND
  8
gg1
  0
POLYLINE
  8
gg1
 62
1
 40
0.000000
 41
0.000000
 66
  1
  0
VERTEX
  8
gg1
 10
0.750000
 20
0.080000
  0
VERTEX
  8
gg1
 10
0.750000
 20
0.120000
  0
SEQEND
  8
gg1
  0
POLYLINE
  8
gg1
 62
1
 40
0.000000
 41
0.000000
 66
  1
  0
VERTEX
  8
gg1
 10
0.030000
 20
0.100000
  0
VERTEX
  8
gg1
 10
0.070000
 20
0.100000
  0
SEQEND
  8
gg1
  0
POLYLINE
  8
gg1
 62
1
 40
0.000000
 41
0.000000
 66
  1
  0
VERTEX
  8
gg1
 10
0.050000
 20
0.080000
  0
VERTEX
  8
gg1
 10
0.050000
 20
0.120000
  0
SEQEND
  8
gg1
  0
POLYLINE
  8
gg1
 62
1
 40
0.000000
 41
0.000000
 66
  1
  0
VERTEX
  8
gg1
 10
0.730000
 20
0.300000
  0
VERTEX
  8
gg1
 10
0.770000
 20
0.300000
  0
SEQEND
  8
gg1
  0
POLYLINE
  8
gg1
 62
1
 40
0.000000
 41
0.000000
 66
  1
  0
VERTEX
  8
gg1
 10
0.750000
 20
0.280000
  0
VERTEX
  8
gg1
 10
0.750000
 20
0.320000
  0
SEQEND
  8
gg1
  0
POLYLINE
  8
gg1
 62
1
 40
0.000000
 41
0.000000
 66
  1
  0
VERTEX
  8
gg1
 10
0.455400
 20
0.910000
  0
VERTEX
  8
gg1
 10
0.541400
 20
0.910000
  0
SEQEND
  8
gg1
  0
POLYLINE
  8
gg1
 62
1
 40
0.000000
 41
0.000000
 66
  1
  0
VERTEX
  8
gg1
 10
0.498400
 20
0.867000
  0
VERTEX
  8
gg1
 10
0.498400
 20
0.953000
  0
SEQEND
  8
gg1
  0
POLYLINE
  8
gg1
 62
1
 40
0.000000
 41
0.000000
 66
  1
  0
VERTEX
  8
gg1
 10
0.652300
 20
0.910000
  0
VERTEX
  8
gg1
 10
0.738300
 20
0.910000
  0
SEQEND
  8
gg1
  0
POLYLINE
  8
gg1
 62
1
 40
0.000000
 41
0.000000
 66
  1
  0
VERTEX
  8
gg1
 10
0.695300
 20
0.867000
  0
VERTEX
  8
gg1
 10
0.695300
 20
0.953000
  0
SEQEND
  8
gg1
  0
POLYLINE
  8
gg1
 62
1
 40
0.000000
 41
0.000000
 66
  1
  0
VERTEX
  8
gg1
 10
0.061700
 20
0.910000
  0
VERTEX
  8
gg1
 10
0.147700
 20
0.910000
  0
SEQEND
  8
gg1
  0
POLYLINE
  8
gg1
 62
1
 40
0.000000
 41
0.000000
 66
  1
  0
VERTEX
  8
gg1
 10
0.104700
 20
0.867000
  0
VERTEX
  8
gg1
 10
0.104700
 20
0.953000
  0
SEQEND
  8
gg1
  0
POLYLINE
  8
gg1
 62
1
 40
0.000000
 41
0.000000
 66
  1
  0
VERTEX
  8
gg1
 10
0.258600
 20
0.910000
  0
VERTEX
  8
gg1
 10
0.344600
 20
0.910000
  0
SEQEND
  8
gg1
  0
POLYLINE
  8
gg1
 62
1
 40
0.000000
 41
0.000000
 66
  1
  0
VERTEX
  8
gg1
 10
0.301600
 20
0.867000
  0
VERTEX
  8
gg1
 10
0.301600
 20
0.953000
  0
SEQEND
  8
gg1
  0
POLYLINE
  8
gg1
 62
1
 40
0.000000
 41
0.000000
 66
  1
  0
VERTEX
  8
gg1
 10
0.030000
 20
0.400000
  0
VERTEX
  8
gg1
 10
0.070000
 20
0.400000
  0
SEQEND
  8
gg1
  0
POLYLINE
  8
gg1
 62
1
 40
0.000000
 41
0.000000
 66
  1
  0
VERTEX
  8
gg1
 10
0.050000
 20
0.380000
  0
VERTEX
  8
gg1
 10
0.050000
 20
0.420000
  0
SEQEND
  8
gg1
  0
POLYLINE
  8
gg1
 62
1
 40
0.000000
 41
0.000000
 66
  1
  0
VERTEX
  8
gg1
 10
0.030000
 20
0.300000
  0
VERTEX
  8
gg1
 10
0.070000
 20
0.300000
  0
SEQEND
  8
gg1
  0
POLYLINE
  8
gg1
 62
1
 40
0.000000
 41
0.000000
 66
  1
  0
VERTEX
  8
gg1
 10
0.050000
 20
0.280000
  0
VERTEX
  8
gg1
 10
0.050000
 20
0.320000
  0
SEQEND
  8
gg1
  0
POLYLINE
  8
gg1
 62
1
 40
0.000000
 41
0.000000
 66
  1
  0
VERTEX
  8
gg1
 10
0.030000
 20
0.200000
  0
VERTEX
  8
gg1
 10
0.070000
 20
0.200000
  0
SEQEND
  8
gg1
  0
POLYLINE
  8
gg1
 62
1
 40
0.000000
 41
0.000000
 66
  1
  0
VERTEX
  8
gg1
 10
0.050000
 20
0.180000
  0
VERTEX
  8
gg1
 10
0.050000
 20
0.220000
  0
SEQEND
  8
gg1
  0
POLYLINE
  8
gg1
 62
1
 40
0.000000
 41
0.000000
 66
  1
  0
VERTEX
  8
gg1
 10
0.421200
 20
0.080000
  0
VERTEX
  8
gg1
 10
0.448800
 20
0.080000
  0
SEQEND
  8
gg1
  0
POLYLINE
  8
gg1
 62
1
 40
0.000000
 41
0.000000
 66
  1
  0
VERTEX
  8
gg1
 10
0.435000
 20
0.066200
  0
VERTEX
  8
gg1
 10
0.435000
 20
0.093800
  0
SEQEND
  8
gg1
  0
POLYLINE
  8
gg1
 62
1
 40
0.000000
 41
0.000000
 66
  1
  0
VERTEX
  8
gg1
 10
0.350400
 20
0.080000
  0
VERTEX
  8
gg1
 10
0.377900
 20
0.080000
  0
SEQEND
  8
gg1
  0
POLYLINE
  8
gg1
 62
1
 40
0.000000
 41
0.000000
 66
  1
  0
VERTEX
  8
gg1
 10
0.364100
 20
0.066200
  0
VERTEX
  8
gg1
 10
0.364100
 20
0.093800
  0
SEQEND
  8
gg1
  0
POLYLINE
  8
gg1
 62
1
 40
0.000000
 41
0.000000
 66
  1
  0
VERTEX
  8
gg1
 10
0.730000
 20
0.200000
  0
VERTEX
  8
gg1
 10
0.770000
 20
0.200000
  0
SEQEND
  8
gg1
  0
POLYLINE
  8
gg1
 62
1
 40
0.000000
 41
0.000000
 66
  1
  0
VERTEX
  8
gg1
 10
0.750000
 20
0.180000
  0
VERTEX
  8
gg1
 10
0.750000
 20
0.220000
  0
SEQEND
  8
gg1
  0
POLYLINE
  8
gg1
 62
1
 40
0.000000
 41
0.000000
 66
  1
  0
VERTEX
  8
gg1
 10
0.730000
 20
0.400000
  0
VERTEX
  8
gg1
 10
0.770000
 20
0.400000
  0
SEQEND
  8
gg1
  0
POLYLINE
  8
gg1
 62
1
 40
0.000000
 41
0.000000
 66
  1
  0
VERTEX
  8
gg1
 10
0.750000
 20
0.380000
  0
VERTEX
  8
gg1
 10
0.750000
 20
0.420000
  0
SEQEND
  8
gg1
  0
POLYLINE
  8
gg1
 62
1
 40
0.000000
 41
0.000000
 66
  1
  0
VERTEX
  8
gg1
 10
0.730000
 20
0.500000
  0
VERTEX
  8
gg1
 10
0.770000
 20
0.500000
  0
SEQEND
  8
gg1
  0
POLYLINE
  8
gg1
 62
1
 40
0.000000
 41
0.000000
 66
  1
  0
VERTEX
  8
gg1
 10
0.750000
 20
0.480000
  0
VERTEX
  8
gg1
 10
0.750000
 20
0.520000
  0
SEQEND
  8
gg1
  0
POLYLINE
  8
gg1
 62
1
 40
0.000000
 41
0.000000
 66
  1
  0
VERTEX
  8
gg1
 10
0.730000
 20
0.600000
  0
VERTEX
  8
gg1
 10
0.770000
 20
0.600000
  0
SEQEND
  8
gg1
  0
POLYLINE
  8
gg1
 62
1
 40
0.000000
 41
0.000000
 66
  1
  0
VERTEX
  8
gg1
 10
0.750000
 20
0.580000
  0
VERTEX
  8
gg1
 10
0.750000
 20
0.620000
  0
SEQEND
  8
gg1
  0
POLYLINE
  8
gg1
 62
1
 40
0.000000
 41
0.000000
 66
  1
  0
VERTEX
  8
gg1
 10
0.225000
 20
0.375000
  0
VERTEX
  8
gg1
 10
0.245000
 20
0.375000
  0
SEQEND
  8
gg1
  0
POLYLINE
  8
gg1
 62
1
 40
0.000000
 41
0.000000
 66
  1
  0
VERTEX
  8
gg1
 10
0.235000
 20
0.365000
  0
VERTEX
  8
gg1
 10
0.235000
 20
0.385000
  0
SEQEND
  8
gg1
  0
POLYLINE
  8
gg1
 62
1
 40
0.000000
 41
0.000000
 66
  1
  0
VERTEX
  8
gg1
 10
0.030000
 20
0.700000
  0
VERTEX
  8
gg1
 10
0.070000
 20
0.700000
  0
SEQEND
  8
gg1
  0
POLYLINE
  8
gg1
 62
1
 40
0.000000
 41
0.000000
 66
  1
  0
VERTEX
  8
gg1
 10
0.050000
 20
0.680000
  0
VERTEX
  8
gg1
 10
0.050000
 20
0.720000
  0
SEQEND
  8
gg1
  0
POLYLINE
  8
gg1
 62
1
 40
0.000000
 41
0.000000
 66
  1
  0
VERTEX
  8
gg1
 10
0.030000
 20
0.800000
  0
VERTEX
  8
gg1
 10
0.070000
 20
0.800000
  0
SEQEND
  8
gg1
  0
POLYLINE
  8
gg1
 62
1
 40
0.000000
 41
0.000000
 66
  1
  0
VERTEX
  8
gg1
 10
0.050000
 20
0.780000
  0
VERTEX
  8
gg1
 10
0.050000
 20
0.820000
  0
SEQEND
  8
gg1
  0
POLYLINE
  8
gg1
 62
1
 40
0.000000
 41
0.000000
 66
  1
  0
VERTEX
  8
gg1
 10
0.730000
 20
0.700000
  0
VERTEX
  8
gg1
 10
0.770000
 20
0.700000
  0
SEQEND
  8
gg1
  0
POLYLINE
  8
gg1
 62
1
 40
0.000000
 41
0.000000
 66
  1
  0
VERTEX
  8
gg1
 10
0.750000
 20
0.680000
  0
VERTEX
  8
gg1
 10
0.750000
 20
0.720000
  0
SEQEND
  8
gg1
  0
POLYLINE
  8
gg1
 62
1
 40
0.000000
 41
0.000000
 66
  1
  0
VERTEX
  8
gg1
 10
0.730000
 20
0.800000
  0
VERTEX
  8
gg1
 10
0.770000
 20
0.800000
  0
SEQEND
  8
gg1
  0
POLYLINE
  8
gg1
 62
1
 40
0.000000
 41
0.000000
 66
  1
  0
VERTEX
  8
gg1
 10
0.750000
 20
0.780000
  0
VERTEX
  8
gg1
 10
0.750000
 20
0.820000
  0
SEQEND
  8
gg1
  0
POLYLINE
  8
gg1
 62
1
 40
0.000000
 41
0.000000
 66
  1
  0
VERTEX
  8
gg1
 10
0.030000
 20
0.500000
  0
VERTEX
  8
gg1
 10
0.070000
 20
0.500000
  0
SEQEND
  8
gg1
  0
POLYLINE
  8
gg1
 62
1
 40
0.000000
 41
0.000000
 66
  1
  0
VERTEX
  8
gg1
 10
0.050000
 20
0.480000
  0
VERTEX
  8
gg1
 10
0.050000
 20
0.520000
  0
SEQEND
  8
gg1
  0
POLYLINE
  8
gg1
 62
1
 40
0.000000
 41
0.000000
 66
  1
  0
VERTEX
  8
gg1
 10
0.030000
 20
0.600000
  0
VERTEX
  8
gg1
 10
0.070000
 20
0.600000
  0
SEQEND
  8
gg1
  0
POLYLINE
  8
gg1
 62
1
 40
0.000000
 41
0.000000
 66
  1
  0
VERTEX
  8
gg1
 10
0.050000
 20
0.580000
  0
VERTEX
  8
gg1
 10
0.050000
 20
0.620000
  0
SEQEND
  8
gg1
  0
POLYLINE
  8
gg1
 62
1
 40
0.000000
 41
0.000000
 66
  1
  0
VERTEX
  8
gg1
 10
0.087500
 20
0.045000
  0
VERTEX
  8
gg1
 10
0.102500
 20
0.045000
  0
SEQEND
  8
gg1
  0
POLYLINE
  8
gg1
 62
1
 40
0.000000
 41
0.000000
 66
  1
  0
VERTEX
  8
gg1
 10
0.095000
 20
0.037500
  0
VERTEX
  8
gg1
 10
0.095000
 20
0.052500
  0
SEQEND
  8
gg1
  0
POLYLINE
  8
gg1
 62
1
 40
0.000000
 41
0.000000
 66
  1
  0
VERTEX
  8
gg1
 10
0.392200
 20
0.895000
  0
VERTEX
  8
gg1
 10
0.407200
 20
0.895000
  0
SEQEND
  8
gg1
  0
POLYLINE
  8
gg1
 62
1
 40
0.000000
 41
0.000000
 66
  1
  0
VERTEX
  8
gg1
 10
0.399700
 20
0.887500
  0
VERTEX
  8
gg1
 10
0.399700
 20
0.902500
  0
SEQEND
  8
gg1
  0
POLYLINE
  8
gg1
 62
1
 40
0.000000
 41
0.000000
 66
  1
  0
VERTEX
  8
gg1
 10
0.692500
 20
0.720000
  0
VERTEX
  8
gg1
 10
0.707500
 20
0.720000
  0
SEQEND
  8
gg1
  0
POLYLINE
  8
gg1
 62
1
 40
0.000000
 41
0.000000
 66
  1
  0
VERTEX
  8
gg1
 10
0.700000
 20
0.712500
  0
VERTEX
  8
gg1
 10
0.700000
 20
0.727500
  0
SEQEND
  8
gg1
  0
POLYLINE
  8
gg1
 62
1
 40
0.000000
 41
0.000000
 66
  1
  0
VERTEX
  8
gg1
 10
0.697500
 20
0.750000
  0
VERTEX
  8
gg1
 10
0.712500
 20
0.750000
  0
SEQEND
  8
gg1
  0
POLYLINE
  8
gg1
 62
1
 40
0.000000
 41
0.000000
 66
  1
  0
VERTEX
  8
gg1
 10
0.705000
 20
0.742500
  0
VERTEX
  8
gg1
 10
0.705000
 20
0.757500
  0
SEQEND
  8
gg1
  0
POLYLINE
  8
gg1
 62
1
 40
0.000000
 41
0.000000
 66
  1
  0
VERTEX
  8
gg1
 10
0.692500
 20
0.780000
  0
VERTEX
  8
gg1
 10
0.707500
 20
0.780000
  0
SEQEND
  8
gg1
  0
POLYLINE
  8
gg1
 62
1
 40
0.000000
 41
0.000000
 66
  1
  0
VERTEX
  8
gg1
 10
0.700000
 20
0.772500
  0
VERTEX
  8
gg1
 10
0.700000
 20
0.787500
  0
SEQEND
  8
gg1
  0
POLYLINE
  8
gg1
 62
1
 40
0.000000
 41
0.000000
 66
  1
  0
VERTEX
  8
gg1
 10
0.627500
 20
0.850000
  0
VERTEX
  8
gg1
 10
0.642500
 20
0.850000
  0
SEQEND
  8
gg1
  0
POLYLINE
  8
gg1
 62
1
 40
0.000000
 41
0.000000
 66
  1
  0
VERTEX
  8
gg1
 10
0.635000
 20
0.842500
  0
VERTEX
  8
gg1
 10
0.635000
 20
0.857500
  0
SEQEND
  8
gg1
  0
POLYLINE
  8
gg1
 62
1
 40
0.000000
 41
0.000000
 66
  1
  0
VERTEX
  8
gg1
 10
0.592500
 20
0.850000
  0
VERTEX
  8
gg1
 10
0.607500
 20
0.850000
  0
SEQEND
  8
gg1
  0
POLYLINE
  8
gg1
 62
1
 40
0.000000
 41
0.000000
 66
  1
  0
VERTEX
  8
gg1
 10
0.600000
 20
0.842500
  0
VERTEX
  8
gg1
 10
0.600000
 20
0.857500
  0
SEQEND
  8
gg1
  0
POLYLINE
  8
gg1
 62
1
 40
0.000000
 41
0.000000
 66
  1
  0
VERTEX
  8
gg1
 10
0.092500
 20
0.780000
  0
VERTEX
  8
gg1
 10
0.107500
 20
0.780000
  0
SEQEND
  8
gg1
  0
POLYLINE
  8
gg1
 62
1
 40
0.000000
 41
0.000000
 66
  1
  0
VERTEX
  8
gg1
 10
0.100000
 20
0.772500
  0
VERTEX
  8
gg1
 10
0.100000
 20
0.787500
  0
SEQEND
  8
gg1
  0
POLYLINE
  8
gg1
 62
1
 40
0.000000
 41
0.000000
 66
  1
  0
VERTEX
  8
gg1
 10
0.192500
 20
0.885000
  0
VERTEX
  8
gg1
 10
0.207500
 20
0.885000
  0
SEQEND
  8
gg1
  0
POLYLINE
  8
gg1
 62
1
 40
0.000000
 41
0.000000
 66
  1
  0
VERTEX
  8
gg1
 10
0.200000
 20
0.877500
  0
VERTEX
  8
gg1
 10
0.200000
 20
0.892500
  0
SEQEND
  8
gg1
  0
POLYLINE
  8
gg1
 62
1
 40
0.000000
 41
0.000000
 66
  1
  0
VERTEX
  8
gg1
 10
0.192500
 20
0.850000
  0
VERTEX
  8
gg1
 10
0.207500
 20
0.850000
  0
SEQEND
  8
gg1
  0
POLYLINE
  8
gg1
 62
1
 40
0.000000
 41
0.000000
 66
  1
  0
VERTEX
  8
gg1
 10
0.200000
 20
0.842500
  0
VERTEX
  8
gg1
 10
0.200000
 20
0.857500
  0
SEQEND
  8
gg1
  0
POLYLINE
  8
gg1
 62
1
 40
0.000000
 41
0.000000
 66
  1
  0
VERTEX
  8
gg1
 10
0.192500
 20
0.955000
  0
VERTEX
  8
gg1
 10
0.207500
 20
0.955000
  0
SEQEND
  8
gg1
  0
POLYLINE
  8
gg1
 62
1
 40
0.000000
 41
0.000000
 66
  1
  0
VERTEX
  8
gg1
 10
0.200000
 20
0.947500
  0
VERTEX
  8
gg1
 10
0.200000
 20
0.962500
  0
SEQEND
  8
gg1
  0
POLYLINE
  8
gg1
 62
1
 40
0.000000
 41
0.000000
 66
  1
  0
VERTEX
  8
gg1
 10
0.157500
 20
0.850000
  0
VERTEX
  8
gg1
 10
0.172500
 20
0.850000
  0
SEQEND
  8
gg1
  0
POLYLINE
  8
gg1
 62
1
 40
0.000000
 41
0.000000
 66
  1
  0
VERTEX
  8
gg1
 10
0.165000
 20
0.842500
  0
VERTEX
  8
gg1
 10
0.165000
 20
0.857500
  0
SEQEND
  8
gg1
  0
POLYLINE
  8
gg1
 62
1
 40
0.000000
 41
0.000000
 66
  1
  0
VERTEX
  8
gg1
 10
0.087500
 20
0.750000
  0
VERTEX
  8
gg1
 10
0.102500
 20
0.750000
  0
SEQEND
  8
gg1
  0
POLYLINE
  8
gg1
 62
1
 40
0.000000
 41
0.000000
 66
  1
  0
VERTEX
  8
gg1
 10
0.095000
 20
0.742500
  0
VERTEX
  8
gg1
 10
0.095000
 20
0.757500
  0
SEQEND
  8
gg1
  0
POLYLINE
  8
gg1
 62
1
 40
0.000000
 41
0.000000
 66
  1
  0
VERTEX
  8
gg1
 10
0.392500
 20
0.865000
  0
VERTEX
  8
gg1
 10
0.407500
 20
0.865000
  0
SEQEND
  8
gg1
  0
POLYLINE
  8
gg1
 62
1
 40
0.000000
 41
0.000000
 66
  1
  0
VERTEX
  8
gg1
 10
0.400000
 20
0.857500
  0
VERTEX
  8
gg1
 10
0.400000
 20
0.872500
  0
SEQEND
  8
gg1
  0
POLYLINE
  8
gg1
 62
1
 40
0.000000
 41
0.000000
 66
  1
  0
VERTEX
  8
gg1
 10
0.392500
 20
0.925000
  0
VERTEX
  8
gg1
 10
0.407500
 20
0.925000
  0
SEQEND
  8
gg1
  0
POLYLINE
  8
gg1
 62
1
 40
0.000000
 41
0.000000
 66
  1
  0
VERTEX
  8
gg1
 10
0.400000
 20
0.917500
  0
VERTEX
  8
gg1
 10
0.400000
 20
0.932500
  0
SEQEND
  8
gg1
  0
POLYLINE
  8
gg1
 62
1
 40
0.000000
 41
0.000000
 66
  1
  0
VERTEX
  8
gg1
 10
0.392500
 20
0.955000
  0
VERTEX
  8
gg1
 10
0.407500
 20
0.955000
  0
SEQEND
  8
gg1
  0
POLYLINE
  8
gg1
 62
1
 40
0.000000
 41
0.000000
 66
  1
  0
VERTEX
  8
gg1
 10
0.400000
 20
0.947500
  0
VERTEX
  8
gg1
 10
0.400000
 20
0.962500
  0
SEQEND
  8
gg1
  0
POLYLINE
  8
gg1
 62
1
 40
0.000000
 41
0.000000
 66
  1
  0
VERTEX
  8
gg1
 10
0.092500
 20
0.720000
  0
VERTEX
  8
gg1
 10
0.107500
 20
0.720000
  0
SEQEND
  8
gg1
  0
POLYLINE
  8
gg1
 62
1
 40
0.000000
 41
0.000000
 66
  1
  0
VERTEX
  8
gg1
 10
0.100000
 20
0.712500
  0
VERTEX
  8
gg1
 10
0.100000
 20
0.727500
  0
SEQEND
  8
gg1
  0
POLYLINE
  8
gg1
 62
1
 40
0.000000
 41
0.000000
 66
  1
  0
VERTEX
  8
gg1
 10
0.592500
 20
0.885000
  0
VERTEX
  8
gg1
 10
0.607500
 20
0.885000
  0
SEQEND
  8
gg1
  0
POLYLINE
  8
gg1
 62
1
 40
0.000000
 41
0.000000
 66
  1
  0
VERTEX
  8
gg1
 10
0.600000
 20
0.877500
  0
VERTEX
  8
gg1
 10
0.600000
 20
0.892500
  0
SEQEND
  8
gg1
  0
POLYLINE
  8
gg1
 62
1
 40
0.000000
 41
0.000000
 66
  1
  0
VERTEX
  8
gg1
 10
0.592500
 20
0.920000
  0
VERTEX
  8
gg1
 10
0.607500
 20
0.920000
  0
SEQEND
  8
gg1
  0
POLYLINE
  8
gg1
 62
1
 40
0.000000
 41
0.000000
 66
  1
  0
VERTEX
  8
gg1
 10
0.600000
 20
0.912500
  0
VERTEX
  8
gg1
 10
0.600000
 20
0.927500
  0
SEQEND
  8
gg1
  0
POLYLINE
  8
gg1
 62
1
 40
0.000000
 41
0.000000
 66
  1
  0
VERTEX
  8
gg1
 10
0.257500
 20
0.195000
  0
VERTEX
  8
gg1
 10
0.272500
 20
0.195000
  0
SEQEND
  8
gg1
  0
POLYLINE
  8
gg1
 62
1
 40
0.000000
 41
0.000000
 66
  1
  0
VERTEX
  8
gg1
 10
0.265000
 20
0.187500
  0
VERTEX
  8
gg1
 10
0.265000
 20
0.202500
  0
SEQEND
  8
gg1
  0
POLYLINE
  8
gg1
 62
1
 40
0.000000
 41
0.000000
 66
  1
  0
VERTEX
  8
gg1
 10
0.282500
 20
0.390000
  0
VERTEX
  8
gg1
 10
0.297500
 20
0.390000
  0
SEQEND
  8
gg1
  0
POLYLINE
  8
gg1
 62
1
 40
0.000000
 41
0.000000
 66
  1
  0
VERTEX
  8
gg1
 10
0.290000
 20
0.382500
  0
VERTEX
  8
gg1
 10
0.290000
 20
0.397500
  0
SEQEND
  8
gg1
  0
POLYLINE
  8
gg1
 62
1
 40
0.000000
 41
0.000000
 66
  1
  0
VERTEX
  8
gg1
 10
0.389600
 20
0.495000
  0
VERTEX
  8
gg1
 10
0.404600
 20
0.495000
  0
SEQEND
  8
gg1
  0
POLYLINE
  8
gg1
 62
1
 40
0.000000
 41
0.000000
 66
  1
  0
VERTEX
  8
gg1
 10
0.397100
 20
0.487500
  0
VERTEX
  8
gg1
 10
0.397100
 20
0.502500
  0
SEQEND
  8
gg1
  0
POLYLINE
  8
gg1
 62
1
 40
0.000000
 41
0.000000
 66
  1
  0
VERTEX
  8
gg1
 10
0.242500
 20
0.460000
  0
VERTEX
  8
gg1
 10
0.257500
 20
0.460000
  0
SEQEND
  8
gg1
  0
POLYLINE
  8
gg1
 62
1
 40
0.000000
 41
0.000000
 66
  1
  0
VERTEX
  8
gg1
 10
0.250000
 20
0.452500
  0
VERTEX
  8
gg1
 10
0.250000
 20
0.467500
  0
SEQEND
  8
gg1
  0
POLYLINE
  8
gg1
 62
1
 40
0.000000
 41
0.000000
 66
  1
  0
VERTEX
  8
gg1
 10
0.502500
 20
0.265000
  0
VERTEX
  8
gg1
 10
0.517500
 20
0.265000
  0
SEQEND
  8
gg1
  0
POLYLINE
  8
gg1
 62
1
 40
0.000000
 41
0.000000
 66
  1
  0
VERTEX
  8
gg1
 10
0.510000
 20
0.257500
  0
VERTEX
  8
gg1
 10
0.510000
 20
0.272500
  0
SEQEND
  8
gg1
  0
POLYLINE
  8
gg1
 62
1
 40
0.000000
 41
0.000000
 66
  1
  0
VERTEX
  8
gg1
 10
0.502500
 20
0.340000
  0
VERTEX
  8
gg1
 10
0.517500
 20
0.340000
  0
SEQEND
  8
gg1
  0
POLYLINE
  8
gg1
 62
1
 40
0.000000
 41
0.000000
 66
  1
  0
VERTEX
  8
gg1
 10
0.510000
 20
0.332500
  0
VERTEX
  8
gg1
 10
0.510000
 20
0.347500
  0
SEQEND
  8
gg1
  0
POLYLINE
  8
gg1
 62
1
 40
0.000000
 41
0.000000
 66
  1
  0
VERTEX
  8
gg1
 10
0.427500
 20
0.520000
  0
VERTEX
  8
gg1
 10
0.442500
 20
0.520000
  0
SEQEND
  8
gg1
  0
POLYLINE
  8
gg1
 62
1
 40
0.000000
 41
0.000000
 66
  1
  0
VERTEX
  8
gg1
 10
0.435000
 20
0.512500
  0
VERTEX
  8
gg1
 10
0.435000
 20
0.527500
  0
SEQEND
  8
gg1
  0
POLYLINE
  8
gg1
 62
1
 40
0.000000
 41
0.000000
 66
  1
  0
VERTEX
  8
gg1
 10
0.542500
 20
0.460000
  0
VERTEX
  8
gg1
 10
0.557500
 20
0.460000
  0
SEQEND
  8
gg1
  0
POLYLINE
  8
gg1
 62
1
 40
0.000000
 41
0.000000
 66
  1
  0
VERTEX
  8
gg1
 10
0.550000
 20
0.452500
  0
VERTEX
  8
gg1
 10
0.550000
 20
0.467500
  0
SEQEND
  8
gg1
  0
POLYLINE
  8
gg1
 62
1
 40
0.000000
 41
0.000000
 66
  1
  0
VERTEX
  8
gg1
 10
0.542500
 20
0.395000
  0
VERTEX
  8
gg1
 10
0.557500
 20
0.395000
  0
SEQEND
  8
gg1
  0
POLYLINE
  8
gg1
 62
1
 40
0.000000
 41
0.000000
 66
  1
  0
VERTEX
  8
gg1
 10
0.550000
 20
0.387500
  0
VERTEX
  8
gg1
 10
0.550000
 20
0.402500
  0
SEQEND
  8
gg1
  0
POLYLINE
  8
gg1
 62
1
 40
0.000000
 41
0.000000
 66
  1
  0
VERTEX
  8
gg1
 10
0.282500
 20
0.490000
  0
VERTEX
  8
gg1
 10
0.297500
 20
0.490000
  0
SEQEND
  8
gg1
  0
POLYLINE
  8
gg1
 62
1
 40
0.000000
 41
0.000000
 66
  1
  0
VERTEX
  8
gg1
 10
0.290000
 20
0.482500
  0
VERTEX
  8
gg1
 10
0.290000
 20
0.497500
  0
SEQEND
  8
gg1
  0
POLYLINE
  8
gg1
 62
1
 40
0.000000
 41
0.000000
 66
  1
  0
VERTEX
  8
gg1
 10
0.322500
 20
0.520000
  0
VERTEX
  8
gg1
 10
0.337500
 20
0.520000
  0
SEQEND
  8
gg1
  0
POLYLINE
  8
gg1
 62
1
 40
0.000000
 41
0.000000
 66
  1
  0
VERTEX
  8
gg1
 10
0.330000
 20
0.512500
  0
VERTEX
  8
gg1
 10
0.330000
 20
0.527500
  0
SEQEND
  8
gg1
  0
POLYLINE
  8
gg1
 62
1
 40
0.000000
 41
0.000000
 66
  1
  0
VERTEX
  8
gg1
 10
0.167500
 20
0.260000
  0
VERTEX
  8
gg1
 10
0.182500
 20
0.260000
  0
SEQEND
  8
gg1
  0
POLYLINE
  8
gg1
 62
1
 40
0.000000
 41
0.000000
 66
  1
  0
VERTEX
  8
gg1
 10
0.175000
 20
0.252500
  0
VERTEX
  8
gg1
 10
0.175000
 20
0.267500
  0
SEQEND
  8
gg1
  0
POLYLINE
  8
gg1
 62
1
 40
0.000000
 41
0.000000
 66
  1
  0
VERTEX
  8
gg1
 10
0.707500
 20
0.040000
  0
VERTEX
  8
gg1
 10
0.722500
 20
0.040000
  0
SEQEND
  8
gg1
  0
POLYLINE
  8
gg1
 62
1
 40
0.000000
 41
0.000000
 66
  1
  0
VERTEX
  8
gg1
 10
0.715000
 20
0.032500
  0
VERTEX
  8
gg1
 10
0.715000
 20
0.047500
  0
SEQEND
  8
gg1
  0
POLYLINE
  8
gg1
 62
1
 40
0.000000
 41
0.000000
 66
  1
  0
VERTEX
  8
gg1
 10
0.502500
 20
0.303000
  0
VERTEX
  8
gg1
 10
0.517500
 20
0.303000
  0
SEQEND
  8
gg1
  0
POLYLINE
  8
gg1
 62
1
 40
0.000000
 41
0.000000
 66
  1
  0
VERTEX
  8
gg1
 10
0.510000
 20
0.295500
  0
VERTEX
  8
gg1
 10
0.510000
 20
0.310500
  0
SEQEND
  8
gg1
  0
POLYLINE
  8
gg1
 62
1
 40
0.000000
 41
0.000000
 66
  1
  0
VERTEX
  8
gg1
 10
0.507500
 20
0.430000
  0
VERTEX
  8
gg1
 10
0.522500
 20
0.430000
  0
SEQEND
  8
gg1
  0
POLYLINE
  8
gg1
 62
1
 40
0.000000
 41
0.000000
 66
  1
  0
VERTEX
  8
gg1
 10
0.515000
 20
0.422500
  0
VERTEX
  8
gg1
 10
0.515000
 20
0.437500
  0
SEQEND
  8
gg1
  0
POLYLINE
  8
gg1
 62
1
 40
0.000000
 41
0.000000
 66
  1
  0
VERTEX
  8
gg1
 10
0.282500
 20
0.430000
  0
VERTEX
  8
gg1
 10
0.297500
 20
0.430000
  0
SEQEND
  8
gg1
  0
POLYLINE
  8
gg1
 62
1
 40
0.000000
 41
0.000000
 66
  1
  0
VERTEX
  8
gg1
 10
0.290000
 20
0.422500
  0
VERTEX
  8
gg1
 10
0.290000
 20
0.437500
  0
SEQEND
  8
gg1
  0
POLYLINE
  8
gg1
 62
1
 40
0.000000
 41
0.000000
 66
  1
  0
VERTEX
  8
gg1
 10
0.242500
 20
0.520000
  0
VERTEX
  8
gg1
 10
0.257500
 20
0.520000
  0
SEQEND
  8
gg1
  0
POLYLINE
  8
gg1
 62
1
 40
0.000000
 41
0.000000
 66
  1
  0
VERTEX
  8
gg1
 10
0.250000
 20
0.512500
  0
VERTEX
  8
gg1
 10
0.250000
 20
0.527500
  0
SEQEND
  8
gg1
  0
POLYLINE
  8
gg1
 62
1
 40
0.000000
 41
0.000000
 66
  1
  0
VERTEX
  8
gg1
 10
0.507500
 20
0.490000
  0
VERTEX
  8
gg1
 10
0.522500
 20
0.490000
  0
SEQEND
  8
gg1
  0
POLYLINE
  8
gg1
 62
1
 40
0.000000
 41
0.000000
 66
  1
  0
VERTEX
  8
gg1
 10
0.515000
 20
0.482500
  0
VERTEX
  8
gg1
 10
0.515000
 20
0.497500
  0
SEQEND
  8
gg1
  0
POLYLINE
  8
gg1
 62
1
 40
0.000000
 41
0.000000
 66
  1
  0
VERTEX
  8
gg1
 10
0.542500
 20
0.520000
  0
VERTEX
  8
gg1
 10
0.557500
 20
0.520000
  0
SEQEND
  8
gg1
  0
POLYLINE
  8
gg1
 62
1
 40
0.000000
 41
0.000000
 66
  1
  0
VERTEX
  8
gg1
 10
0.550000
 20
0.512500
  0
VERTEX
  8
gg1
 10
0.550000
 20
0.527500
  0
SEQEND
  8
gg1
  0
POLYLINE
  8
gg1
 62
1
 40
0.000000
 41
0.000000
 66
  1
  0
VERTEX
  8
gg1
 10
0.655000
 20
0.150000
  0
VERTEX
  8
gg1
 10
0.670000
 20
0.150000
  0
SEQEND
  8
gg1
  0
POLYLINE
  8
gg1
 62
1
 40
0.000000
 41
0.000000
 66
  1
  0
VERTEX
  8
gg1
 10
0.662500
 20
0.142500
  0
VERTEX
  8
gg1
 10
0.662500
 20
0.157500
  0
SEQEND
  8
gg1
  0
POLYLINE
  8
gg1
 62
1
 40
0.000000
 41
0.000000
 66
  1
  0
VERTEX
  8
gg1
 10
0.192500
 20
0.920000
  0
VERTEX
  8
gg1
 10
0.207500
 20
0.920000
  0
SEQEND
  8
gg1
  0
POLYLINE
  8
gg1
 62
1
 40
0.000000
 41
0.000000
 66
  1
  0
VERTEX
  8
gg1
 10
0.200000
 20
0.912500
  0
VERTEX
  8
gg1
 10
0.200000
 20
0.927500
  0
SEQEND
  8
gg1
  0
POLYLINE
  8
gg1
 62
1
 40
0.000000
 41
0.000000
 66
  1
  0
VERTEX
  8
gg1
 10
0.592500
 20
0.955000
  0
VERTEX
  8
gg1
 10
0.607500
 20
0.955000
  0
SEQEND
  8
gg1
  0
POLYLINE
  8
gg1
 62
1
 40
0.000000
 41
0.000000
 66
  1
  0
VERTEX
  8
gg1
 10
0.600000
 20
0.947500
  0
VERTEX
  8
gg1
 10
0.600000
 20
0.962500
  0
SEQEND
  8
gg1
  0
ENDSEC
  0
EOF
