  0
SECTION
  2
HEADER
  9
$EXTMIN
 10
-0.177000
 20
-0.169000
  9
$EXTMAX
 10
0.605000
 20
0.605000
  9
$LIMMIN
 10
-0.177000
 20
-0.169000
  9
$LIMMAX
 10
0.605000
 20
0.605000
  9
$FILLMODE
 70
  1
  0
ENDSEC
  0
SECTION
  2
TABLES
  0
TABLE
  2
LTYPE
 70
  1
  0
LTYPE
  2
CONTINUOUS
 70
 64
  3
Solid line
 72
 65
 73
  0
 40
0.0
  0
ENDTAB
  0
TABLE
  2
LAYER
 70
 1
  0
LAYER
  2
0
 70
  0
 62
7
  6
CONTINUOUS
  0
LAYER
  2
gg1
 70
  0
 62
1
  6
CONTINUOUS
  0
ENDTAB
  0
TABLE
  2
STYLE
 70
  1
  0
STYLE
  2
STANDARD
 70
  0
 40
0.0
 41
1.0
 50
0.0
 71
  0
 42
0.2
  3
txt
  4

  0
ENDTAB
  0
ENDSEC
  0
SECTION
  2
BLOCKS
  0
BLOCK
  8
0
  2
D10
 70
64
 10
0.0
 20
0.0
  3
D10
  0
CIRCLE
  8
0
 10
0.000000
 20
0.000000
 40
0.005000
 0
ENDBLK
  8
0
  0
BLOCK
  8
0
  2
D11
 70
64
 10
0.0
 20
0.0
  3
D11
  0
CIRCLE
  8
0
 10
0.000000
 20
0.000000
 40
0.002500
 0
ENDBLK
  8
0
  0
BLOCK
  8
0
  2
D12
 70
64
 10
0.0
 20
0.0
  3
D12
  0
CIRCLE
  8
0
 10
0.000000
 20
0.000000
 40
0.003000
 0
ENDBLK
  8
0
  0
ENDSEC
  0
SECTION
  2
ENTITIES
  0
POLYLINE
  8
gg1
 62
1
 40
0.000000
 41
0.000000
 66
  1
  0
VERTEX
  8
gg1
 10
0.600000
 20
-0.140000
  0
VERTEX
  8
gg1
 10
0.600000
 20
-0.010000
  0
SEQEND
  8
gg1
  0
POLYLINE
  8
gg1
 62
1
 40
0.000000
 41
0.000000
 66
  1
  0
VERTEX
  8
gg1
 10
0.000000
 20
-0.140000
  0
VERTEX
  8
gg1
 10
0.000000
 20
-0.010000
  0
SEQEND
  8
gg1
  0
POLYLINE
  8
gg1
 62
1
 40
0.000000
 41
0.000000
 66
  1
  0
VERTEX
  8
gg1
 10
0.455000
 20
-0.130000
  0
VERTEX
  8
gg1
 10
0.600000
 20
-0.130000
  0
SEQEND
  8
gg1
  0
POLYLINE
  8
gg1
 62
1
 40
0.000000
 41
0.000000
 66
  1
  0
VERTEX
  8
gg1
 10
0.000000
 20
-0.130000
  0
VERTEX
  8
gg1
 10
0.113000
 20
-0.130000
  0
SEQEND
  8
gg1
  0
POLYLINE
  8
gg1
 62
1
 40
0.000000
 41
0.000000
 66
  1
  0
VERTEX
  8
gg1
 10
0.540000
 20
-0.110000
  0
VERTEX
  8
gg1
 10
0.600000
 20
-0.130000
  0
SEQEND
  8
gg1
  0
POLYLINE
  8
gg1
 62
1
 40
0.000000
 41
0.000000
 66
  1
  0
VERTEX
  8
gg1
 10
0.540000
 20
-0.150000
  0
VERTEX
  8
gg1
 10
0.600000
 20
-0.130000
  0
SEQEND
  8
gg1
  0
POLYLINE
  8
gg1
 62
1
 40
0.000000
 41
0.000000
 66
  1
  0
VERTEX
  8
gg1
 10
0.000000
 20
-0.130000
  0
VERTEX
  8
gg1
 10
0.060000
 20
-0.150000
  0
SEQEND
  8
gg1
  0
POLYLINE
  8
gg1
 62
1
 40
0.000000
 41
0.000000
 66
  1
  0
VERTEX
  8
gg1
 10
0.000000
 20
-0.130000
  0
VERTEX
  8
gg1
 10
0.060000
 20
-0.110000
  0
SEQEND
  8
gg1
  0
POLYLINE
  8
gg1
 62
1
 40
0.000000
 41
0.000000
 66
  1
  0
VERTEX
  8
gg1
 10
-0.160000
 20
0.000000
  0
VERTEX
  8
gg1
 10
-0.010000
 20
0.000000
  0
SEQEND
  8
gg1
  0
POLYLINE
  8
gg1
 62
1
 40
0.000000
 41
0.000000
 66
  1
  0
VERTEX
  8
gg1
 10
-0.160000
 20
0.600000
  0
VERTEX
  8
gg1
 10
-0.010000
 20
0.600000
  0
SEQEND
  8
gg1
  0
POLYLINE
  8
gg1
 62
1
 40
0.000000
 41
0.000000
 66
  1
  0
VERTEX
  8
gg1
 10
-0.150000
 20
0.000000
  0
VERTEX
  8
gg1
 10
-0.150000
 20
0.113000
  0
SEQEND
  8
gg1
  0
POLYLINE
  8
gg1
 62
1
 40
0.000000
 41
0.000000
 66
  1
  0
VERTEX
  8
gg1
 10
-0.150000
 20
0.455000
  0
VERTEX
  8
gg1
 10
-0.150000
 20
0.600000
  0
SEQEND
  8
gg1
  0
POLYLINE
  8
gg1
 62
1
 40
0.000000
 41
0.000000
 66
  1
  0
VERTEX
  8
gg1
 10
-0.150000
 20
0.000000
  0
VERTEX
  8
gg1
 10
-0.130000
 20
0.060000
  0
SEQEND
  8
gg1
  0
POLYLINE
  8
gg1
 62
1
 40
0.000000
 41
0.000000
 66
  1
  0
VERTEX
  8
gg1
 10
-0.170000
 20
0.060000
  0
VERTEX
  8
gg1
 10
-0.150000
 20
0.000000
  0
SEQEND
  8
gg1
  0
POLYLINE
  8
gg1
 62
1
 40
0.000000
 41
0.000000
 66
  1
  0
VERTEX
  8
gg1
 10
-0.170000
 20
0.540000
  0
VERTEX
  8
gg1
 10
-0.150000
 20
0.600000
  0
VERTEX
  8
gg1
 10
-0.130000
 20
0.540000
  0
SEQEND
  8
gg1
  0
POLYLINE
  8
gg1
 62
1
 40
0.000000
 41
0.000000
 66
  1
  0
VERTEX
  8
gg1
 10
0.000000
 20
0.600000
  0
VERTEX
  8
gg1
 10
0.600000
 20
0.600000
  0
SEQEND
  8
gg1
  0
POLYLINE
  8
gg1
 62
1
 40
0.000000
 41
0.000000
 66
  1
  0
VERTEX
  8
gg1
 10
0.600000
 20
0.000000
  0
VERTEX
  8
gg1
 10
0.600000
 20
0.600000
  0
SEQEND
  8
gg1
  0
POLYLINE
  8
gg1
 62
1
 40
0.000000
 41
0.000000
 66
  1
  0
VERTEX
  8
gg1
 10
0.000000
 20
0.000000
  0
VERTEX
  8
gg1
 10
0.600000
 20
0.000000
  0
SEQEND
  8
gg1
  0
POLYLINE
  8
gg1
 62
1
 40
0.000000
 41
0.000000
 66
  1
  0
VERTEX
  8
gg1
 10
0.000000
 20
0.000000
  0
VERTEX
  8
gg1
 10
0.000000
 20
0.600000
  0
SEQEND
  8
gg1
  0
POLYLINE
  8
gg1
 62
1
 40
0.000000
 41
0.000000
 66
  1
  0
VERTEX
  8
gg1
 10
0.338000
 20
0.103000
  0
VERTEX
  8
gg1
 10
0.358000
 20
0.103000
  0
SEQEND
  8
gg1
  0
POLYLINE
  8
gg1
 62
1
 40
0.000000
 41
0.000000
 66
  1
  0
VERTEX
  8
gg1
 10
0.348000
 20
0.093000
  0
VERTEX
  8
gg1
 10
0.348000
 20
0.113000
  0
SEQEND
  8
gg1
  0
POLYLINE
  8
gg1
 62
1
 40
0.000000
 41
0.000000
 66
  1
  0
VERTEX
  8
gg1
 10
0.030000
 20
0.050000
  0
VERTEX
  8
gg1
 10
0.070000
 20
0.050000
  0
SEQEND
  8
gg1
  0
POLYLINE
  8
gg1
 62
1
 40
0.000000
 41
0.000000
 66
  1
  0
VERTEX
  8
gg1
 10
0.050000
 20
0.030000
  0
VERTEX
  8
gg1
 10
0.050000
 20
0.070000
  0
SEQEND
  8
gg1
  0
POLYLINE
  8
gg1
 62
1
 40
0.000000
 41
0.000000
 66
  1
  0
VERTEX
  8
gg1
 10
0.030000
 20
0.550000
  0
VERTEX
  8
gg1
 10
0.070000
 20
0.550000
  0
SEQEND
  8
gg1
  0
POLYLINE
  8
gg1
 62
1
 40
0.000000
 41
0.000000
 66
  1
  0
VERTEX
  8
gg1
 10
0.050000
 20
0.530000
  0
VERTEX
  8
gg1
 10
0.050000
 20
0.570000
  0
SEQEND
  8
gg1
  0
POLYLINE
  8
gg1
 62
1
 40
0.000000
 41
0.000000
 66
  1
  0
VERTEX
  8
gg1
 10
0.030000
 20
0.450000
  0
VERTEX
  8
gg1
 10
0.070000
 20
0.450000
  0
SEQEND
  8
gg1
  0
POLYLINE
  8
gg1
 62
1
 40
0.000000
 41
0.000000
 66
  1
  0
VERTEX
  8
gg1
 10
0.050000
 20
0.430000
  0
VERTEX
  8
gg1
 10
0.050000
 20
0.470000
  0
SEQEND
  8
gg1
  0
POLYLINE
  8
gg1
 62
1
 40
0.000000
 41
0.000000
 66
  1
  0
VERTEX
  8
gg1
 10
0.030000
 20
0.350000
  0
VERTEX
  8
gg1
 10
0.070000
 20
0.350000
  0
SEQEND
  8
gg1
  0
POLYLINE
  8
gg1
 62
1
 40
0.000000
 41
0.000000
 66
  1
  0
VERTEX
  8
gg1
 10
0.050000
 20
0.330000
  0
VERTEX
  8
gg1
 10
0.050000
 20
0.370000
  0
SEQEND
  8
gg1
  0
POLYLINE
  8
gg1
 62
1
 40
0.000000
 41
0.000000
 66
  1
  0
VERTEX
  8
gg1
 10
0.030000
 20
0.250000
  0
VERTEX
  8
gg1
 10
0.070000
 20
0.250000
  0
SEQEND
  8
gg1
  0
POLYLINE
  8
gg1
 62
1
 40
0.000000
 41
0.000000
 66
  1
  0
VERTEX
  8
gg1
 10
0.050000
 20
0.230000
  0
VERTEX
  8
gg1
 10
0.050000
 20
0.270000
  0
SEQEND
  8
gg1
  0
POLYLINE
  8
gg1
 62
1
 40
0.000000
 41
0.000000
 66
  1
  0
VERTEX
  8
gg1
 10
0.030000
 20
0.150000
  0
VERTEX
  8
gg1
 10
0.070000
 20
0.150000
  0
SEQEND
  8
gg1
  0
POLYLINE
  8
gg1
 62
1
 40
0.000000
 41
0.000000
 66
  1
  0
VERTEX
  8
gg1
 10
0.050000
 20
0.130000
  0
VERTEX
  8
gg1
 10
0.050000
 20
0.170000
  0
SEQEND
  8
gg1
  0
POLYLINE
  8
gg1
 62
1
 40
0.000000
 41
0.000000
 66
  1
  0
VERTEX
  8
gg1
 10
0.530000
 20
0.550000
  0
VERTEX
  8
gg1
 10
0.570000
 20
0.550000
  0
SEQEND
  8
gg1
  0
POLYLINE
  8
gg1
 62
1
 40
0.000000
 41
0.000000
 66
  1
  0
VERTEX
  8
gg1
 10
0.550000
 20
0.530000
  0
VERTEX
  8
gg1
 10
0.550000
 20
0.570000
  0
SEQEND
  8
gg1
  0
POLYLINE
  8
gg1
 62
1
 40
0.000000
 41
0.000000
 66
  1
  0
VERTEX
  8
gg1
 10
0.530000
 20
0.050000
  0
VERTEX
  8
gg1
 10
0.570000
 20
0.050000
  0
SEQEND
  8
gg1
  0
POLYLINE
  8
gg1
 62
1
 40
0.000000
 41
0.000000
 66
  1
  0
VERTEX
  8
gg1
 10
0.550000
 20
0.030000
  0
VERTEX
  8
gg1
 10
0.550000
 20
0.070000
  0
SEQEND
  8
gg1
  0
POLYLINE
  8
gg1
 62
1
 40
0.000000
 41
0.000000
 66
  1
  0
VERTEX
  8
gg1
 10
0.530000
 20
0.150000
  0
VERTEX
  8
gg1
 10
0.570000
 20
0.150000
  0
SEQEND
  8
gg1
  0
POLYLINE
  8
gg1
 62
1
 40
0.000000
 41
0.000000
 66
  1
  0
VERTEX
  8
gg1
 10
0.550000
 20
0.130000
  0
VERTEX
  8
gg1
 10
0.550000
 20
0.170000
  0
SEQEND
  8
gg1
  0
POLYLINE
  8
gg1
 62
1
 40
0.000000
 41
0.000000
 66
  1
  0
VERTEX
  8
gg1
 10
0.530000
 20
0.250000
  0
VERTEX
  8
gg1
 10
0.570000
 20
0.250000
  0
SEQEND
  8
gg1
  0
POLYLINE
  8
gg1
 62
1
 40
0.000000
 41
0.000000
 66
  1
  0
VERTEX
  8
gg1
 10
0.550000
 20
0.230000
  0
VERTEX
  8
gg1
 10
0.550000
 20
0.270000
  0
SEQEND
  8
gg1
  0
POLYLINE
  8
gg1
 62
1
 40
0.000000
 41
0.000000
 66
  1
  0
VERTEX
  8
gg1
 10
0.530000
 20
0.350000
  0
VERTEX
  8
gg1
 10
0.570000
 20
0.350000
  0
SEQEND
  8
gg1
  0
POLYLINE
  8
gg1
 62
1
 40
0.000000
 41
0.000000
 66
  1
  0
VERTEX
  8
gg1
 10
0.550000
 20
0.330000
  0
VERTEX
  8
gg1
 10
0.550000
 20
0.370000
  0
SEQEND
  8
gg1
  0
POLYLINE
  8
gg1
 62
1
 40
0.000000
 41
0.000000
 66
  1
  0
VERTEX
  8
gg1
 10
0.530000
 20
0.450000
  0
VERTEX
  8
gg1
 10
0.570000
 20
0.450000
  0
SEQEND
  8
gg1
  0
POLYLINE
  8
gg1
 62
1
 40
0.000000
 41
0.000000
 66
  1
  0
VERTEX
  8
gg1
 10
0.550000
 20
0.430000
  0
VERTEX
  8
gg1
 10
0.550000
 20
0.470000
  0
SEQEND
  8
gg1
  0
POLYLINE
  8
gg1
 62
1
 40
0.000000
 41
0.000000
 66
  1
  0
VERTEX
  8
gg1
 10
0.246000
 20
0.107000
  0
VERTEX
  8
gg1
 10
0.261000
 20
0.107000
  0
SEQEND
  8
gg1
  0
POLYLINE
  8
gg1
 62
1
 40
0.000000
 41
0.000000
 66
  1
  0
VERTEX
  8
gg1
 10
0.253500
 20
0.099500
  0
VERTEX
  8
gg1
 10
0.253500
 20
0.114500
  0
SEQEND
  8
gg1
  0
POLYLINE
  8
gg1
 62
1
 40
0.000000
 41
0.000000
 66
  1
  0
VERTEX
  8
gg1
 10
0.223500
 20
0.533000
  0
VERTEX
  8
gg1
 10
0.238500
 20
0.533000
  0
SEQEND
  8
gg1
  0
POLYLINE
  8
gg1
 62
1
 40
0.000000
 41
0.000000
 66
  1
  0
VERTEX
  8
gg1
 10
0.231000
 20
0.525500
  0
VERTEX
  8
gg1
 10
0.231000
 20
0.540500
  0
SEQEND
  8
gg1
  0
POLYLINE
  8
gg1
 62
1
 40
0.000000
 41
0.000000
 66
  1
  0
VERTEX
  8
gg1
 10
0.461500
 20
0.195000
  0
VERTEX
  8
gg1
 10
0.476500
 20
0.195000
  0
SEQEND
  8
gg1
  0
POLYLINE
  8
gg1
 62
1
 40
0.000000
 41
0.000000
 66
  1
  0
VERTEX
  8
gg1
 10
0.469000
 20
0.187500
  0
VERTEX
  8
gg1
 10
0.469000
 20
0.202500
  0
SEQEND
  8
gg1
  0
POLYLINE
  8
gg1
 62
1
 40
0.000000
 41
0.000000
 66
  1
  0
VERTEX
  8
gg1
 10
0.290500
 20
0.065000
  0
VERTEX
  8
gg1
 10
0.305500
 20
0.065000
  0
SEQEND
  8
gg1
  0
POLYLINE
  8
gg1
 62
1
 40
0.000000
 41
0.000000
 66
  1
  0
VERTEX
  8
gg1
 10
0.298000
 20
0.057500
  0
VERTEX
  8
gg1
 10
0.298000
 20
0.072500
  0
SEQEND
  8
gg1
  0
POLYLINE
  8
gg1
 62
1
 40
0.000000
 41
0.000000
 66
  1
  0
VERTEX
  8
gg1
 10
0.290500
 20
0.095000
  0
VERTEX
  8
gg1
 10
0.305500
 20
0.095000
  0
SEQEND
  8
gg1
  0
POLYLINE
  8
gg1
 62
1
 40
0.000000
 41
0.000000
 66
  1
  0
VERTEX
  8
gg1
 10
0.298000
 20
0.087500
  0
VERTEX
  8
gg1
 10
0.298000
 20
0.102500
  0
SEQEND
  8
gg1
  0
POLYLINE
  8
gg1
 62
1
 40
0.000000
 41
0.000000
 66
  1
  0
VERTEX
  8
gg1
 10
0.147500
 20
0.375000
  0
VERTEX
  8
gg1
 10
0.162500
 20
0.375000
  0
SEQEND
  8
gg1
  0
POLYLINE
  8
gg1
 62
1
 40
0.000000
 41
0.000000
 66
  1
  0
VERTEX
  8
gg1
 10
0.155000
 20
0.367500
  0
VERTEX
  8
gg1
 10
0.155000
 20
0.382500
  0
SEQEND
  8
gg1
  0
POLYLINE
  8
gg1
 62
1
 40
0.000000
 41
0.000000
 66
  1
  0
VERTEX
  8
gg1
 10
0.177500
 20
0.375000
  0
VERTEX
  8
gg1
 10
0.192500
 20
0.375000
  0
SEQEND
  8
gg1
  0
POLYLINE
  8
gg1
 62
1
 40
0.000000
 41
0.000000
 66
  1
  0
VERTEX
  8
gg1
 10
0.185000
 20
0.367500
  0
VERTEX
  8
gg1
 10
0.185000
 20
0.382500
  0
SEQEND
  8
gg1
  0
POLYLINE
  8
gg1
 62
1
 40
0.000000
 41
0.000000
 66
  1
  0
VERTEX
  8
gg1
 10
0.117500
 20
0.375000
  0
VERTEX
  8
gg1
 10
0.132500
 20
0.375000
  0
SEQEND
  8
gg1
  0
POLYLINE
  8
gg1
 62
1
 40
0.000000
 41
0.000000
 66
  1
  0
VERTEX
  8
gg1
 10
0.125000
 20
0.367500
  0
VERTEX
  8
gg1
 10
0.125000
 20
0.382500
  0
SEQEND
  8
gg1
  0
POLYLINE
  8
gg1
 62
1
 40
0.000000
 41
0.000000
 66
  1
  0
VERTEX
  8
gg1
 10
0.309500
 20
0.530000
  0
VERTEX
  8
gg1
 10
0.324500
 20
0.530000
  0
SEQEND
  8
gg1
  0
POLYLINE
  8
gg1
 62
1
 40
0.000000
 41
0.000000
 66
  1
  0
VERTEX
  8
gg1
 10
0.317000
 20
0.522500
  0
VERTEX
  8
gg1
 10
0.317000
 20
0.537500
  0
SEQEND
  8
gg1
  0
POLYLINE
  8
gg1
 62
1
 40
0.000000
 41
0.000000
 66
  1
  0
VERTEX
  8
gg1
 10
0.342500
 20
0.532000
  0
VERTEX
  8
gg1
 10
0.357500
 20
0.532000
  0
SEQEND
  8
gg1
  0
POLYLINE
  8
gg1
 62
1
 40
0.000000
 41
0.000000
 66
  1
  0
VERTEX
  8
gg1
 10
0.350000
 20
0.524500
  0
VERTEX
  8
gg1
 10
0.350000
 20
0.539500
  0
SEQEND
  8
gg1
  0
POLYLINE
  8
gg1
 62
1
 40
0.000000
 41
0.000000
 66
  1
  0
VERTEX
  8
gg1
 10
0.366500
 20
0.513000
  0
VERTEX
  8
gg1
 10
0.381500
 20
0.513000
  0
SEQEND
  8
gg1
  0
POLYLINE
  8
gg1
 62
1
 40
0.000000
 41
0.000000
 66
  1
  0
VERTEX
  8
gg1
 10
0.374000
 20
0.505500
  0
VERTEX
  8
gg1
 10
0.374000
 20
0.520500
  0
SEQEND
  8
gg1
  0
POLYLINE
  8
gg1
 62
1
 40
0.000000
 41
0.000000
 66
  1
  0
VERTEX
  8
gg1
 10
0.166500
 20
0.475000
  0
VERTEX
  8
gg1
 10
0.181500
 20
0.475000
  0
SEQEND
  8
gg1
  0
POLYLINE
  8
gg1
 62
1
 40
0.000000
 41
0.000000
 66
  1
  0
VERTEX
  8
gg1
 10
0.174000
 20
0.467500
  0
VERTEX
  8
gg1
 10
0.174000
 20
0.482500
  0
SEQEND
  8
gg1
  0
POLYLINE
  8
gg1
 62
1
 40
0.000000
 41
0.000000
 66
  1
  0
VERTEX
  8
gg1
 10
0.202500
 20
0.490000
  0
VERTEX
  8
gg1
 10
0.217500
 20
0.490000
  0
SEQEND
  8
gg1
  0
POLYLINE
  8
gg1
 62
1
 40
0.000000
 41
0.000000
 66
  1
  0
VERTEX
  8
gg1
 10
0.210000
 20
0.482500
  0
VERTEX
  8
gg1
 10
0.210000
 20
0.497500
  0
SEQEND
  8
gg1
  0
POLYLINE
  8
gg1
 62
1
 40
0.000000
 41
0.000000
 66
  1
  0
VERTEX
  8
gg1
 10
0.339500
 20
0.154000
  0
VERTEX
  8
gg1
 10
0.354500
 20
0.154000
  0
SEQEND
  8
gg1
  0
POLYLINE
  8
gg1
 62
1
 40
0.000000
 41
0.000000
 66
  1
  0
VERTEX
  8
gg1
 10
0.347000
 20
0.146500
  0
VERTEX
  8
gg1
 10
0.347000
 20
0.161500
  0
SEQEND
  8
gg1
  0
POLYLINE
  8
gg1
 62
1
 40
0.000000
 41
0.000000
 66
  1
  0
VERTEX
  8
gg1
 10
0.316500
 20
0.181000
  0
VERTEX
  8
gg1
 10
0.331500
 20
0.181000
  0
SEQEND
  8
gg1
  0
POLYLINE
  8
gg1
 62
1
 40
0.000000
 41
0.000000
 66
  1
  0
VERTEX
  8
gg1
 10
0.324000
 20
0.173500
  0
VERTEX
  8
gg1
 10
0.324000
 20
0.188500
  0
SEQEND
  8
gg1
  0
POLYLINE
  8
gg1
 62
1
 40
0.000000
 41
0.000000
 66
  1
  0
VERTEX
  8
gg1
 10
0.338500
 20
0.202000
  0
VERTEX
  8
gg1
 10
0.353500
 20
0.202000
  0
SEQEND
  8
gg1
  0
POLYLINE
  8
gg1
 62
1
 40
0.000000
 41
0.000000
 66
  1
  0
VERTEX
  8
gg1
 10
0.346000
 20
0.194500
  0
VERTEX
  8
gg1
 10
0.346000
 20
0.209500
  0
SEQEND
  8
gg1
  0
POLYLINE
  8
gg1
 62
1
 40
0.000000
 41
0.000000
 66
  1
  0
VERTEX
  8
gg1
 10
0.319500
 20
0.227000
  0
VERTEX
  8
gg1
 10
0.334500
 20
0.227000
  0
SEQEND
  8
gg1
  0
POLYLINE
  8
gg1
 62
1
 40
0.000000
 41
0.000000
 66
  1
  0
VERTEX
  8
gg1
 10
0.327000
 20
0.219500
  0
VERTEX
  8
gg1
 10
0.327000
 20
0.234500
  0
SEQEND
  8
gg1
  0
POLYLINE
  8
gg1
 62
1
 40
0.000000
 41
0.000000
 66
  1
  0
VERTEX
  8
gg1
 10
0.336500
 20
0.502000
  0
VERTEX
  8
gg1
 10
0.351500
 20
0.502000
  0
SEQEND
  8
gg1
  0
POLYLINE
  8
gg1
 62
1
 40
0.000000
 41
0.000000
 66
  1
  0
VERTEX
  8
gg1
 10
0.344000
 20
0.494500
  0
VERTEX
  8
gg1
 10
0.344000
 20
0.509500
  0
SEQEND
  8
gg1
  0
POLYLINE
  8
gg1
 62
1
 40
0.000000
 41
0.000000
 66
  1
  0
VERTEX
  8
gg1
 10
0.369200
 20
0.338500
  0
VERTEX
  8
gg1
 10
0.384200
 20
0.338500
  0
SEQEND
  8
gg1
  0
POLYLINE
  8
gg1
 62
1
 40
0.000000
 41
0.000000
 66
  1
  0
VERTEX
  8
gg1
 10
0.376700
 20
0.331000
  0
VERTEX
  8
gg1
 10
0.376700
 20
0.346000
  0
SEQEND
  8
gg1
  0
POLYLINE
  8
gg1
 62
1
 40
0.000000
 41
0.000000
 66
  1
  0
VERTEX
  8
gg1
 10
0.304200
 20
0.338500
  0
VERTEX
  8
gg1
 10
0.319200
 20
0.338500
  0
SEQEND
  8
gg1
  0
POLYLINE
  8
gg1
 62
1
 40
0.000000
 41
0.000000
 66
  1
  0
VERTEX
  8
gg1
 10
0.311700
 20
0.331000
  0
VERTEX
  8
gg1
 10
0.311700
 20
0.346000
  0
SEQEND
  8
gg1
  0
POLYLINE
  8
gg1
 62
1
 40
0.000000
 41
0.000000
 66
  1
  0
VERTEX
  8
gg1
 10
0.304200
 20
0.403500
  0
VERTEX
  8
gg1
 10
0.319200
 20
0.403500
  0
SEQEND
  8
gg1
  0
POLYLINE
  8
gg1
 62
1
 40
0.000000
 41
0.000000
 66
  1
  0
VERTEX
  8
gg1
 10
0.311700
 20
0.396000
  0
VERTEX
  8
gg1
 10
0.311700
 20
0.411000
  0
SEQEND
  8
gg1
  0
POLYLINE
  8
gg1
 62
1
 40
0.000000
 41
0.000000
 66
  1
  0
VERTEX
  8
gg1
 10
0.369200
 20
0.403500
  0
VERTEX
  8
gg1
 10
0.384200
 20
0.403500
  0
SEQEND
  8
gg1
  0
POLYLINE
  8
gg1
 62
1
 40
0.000000
 41
0.000000
 66
  1
  0
VERTEX
  8
gg1
 10
0.376700
 20
0.396000
  0
VERTEX
  8
gg1
 10
0.376700
 20
0.411000
  0
SEQEND
  8
gg1
  0
POLYLINE
  8
gg1
 62
1
 40
0.000000
 41
0.000000
 66
  1
  0
VERTEX
  8
gg1
 10
0.336700
 20
0.371000
  0
VERTEX
  8
gg1
 10
0.351700
 20
0.371000
  0
SEQEND
  8
gg1
  0
POLYLINE
  8
gg1
 62
1
 40
0.000000
 41
0.000000
 66
  1
  0
VERTEX
  8
gg1
 10
0.344200
 20
0.363500
  0
VERTEX
  8
gg1
 10
0.344200
 20
0.378500
  0
SEQEND
  8
gg1
  0
POLYLINE
  8
gg1
 62
1
 40
0.000000
 41
0.000000
 66
  1
  0
VERTEX
  8
gg1
 10
0.336700
 20
0.338500
  0
VERTEX
  8
gg1
 10
0.351700
 20
0.338500
  0
SEQEND
  8
gg1
  0
POLYLINE
  8
gg1
 62
1
 40
0.000000
 41
0.000000
 66
  1
  0
VERTEX
  8
gg1
 10
0.344200
 20
0.331000
  0
VERTEX
  8
gg1
 10
0.344200
 20
0.346000
  0
SEQEND
  8
gg1
  0
POLYLINE
  8
gg1
 62
1
 40
0.000000
 41
0.000000
 66
  1
  0
VERTEX
  8
gg1
 10
0.369200
 20
0.371000
  0
VERTEX
  8
gg1
 10
0.384200
 20
0.371000
  0
SEQEND
  8
gg1
  0
POLYLINE
  8
gg1
 62
1
 40
0.000000
 41
0.000000
 66
  1
  0
VERTEX
  8
gg1
 10
0.376700
 20
0.363500
  0
VERTEX
  8
gg1
 10
0.376700
 20
0.378500
  0
SEQEND
  8
gg1
  0
POLYLINE
  8
gg1
 62
1
 40
0.000000
 41
0.000000
 66
  1
  0
VERTEX
  8
gg1
 10
0.336700
 20
0.403500
  0
VERTEX
  8
gg1
 10
0.351700
 20
0.403500
  0
SEQEND
  8
gg1
  0
POLYLINE
  8
gg1
 62
1
 40
0.000000
 41
0.000000
 66
  1
  0
VERTEX
  8
gg1
 10
0.344200
 20
0.396000
  0
VERTEX
  8
gg1
 10
0.344200
 20
0.411000
  0
SEQEND
  8
gg1
  0
POLYLINE
  8
gg1
 62
1
 40
0.000000
 41
0.000000
 66
  1
  0
VERTEX
  8
gg1
 10
0.304200
 20
0.371000
  0
VERTEX
  8
gg1
 10
0.319200
 20
0.371000
  0
SEQEND
  8
gg1
  0
POLYLINE
  8
gg1
 62
1
 40
0.000000
 41
0.000000
 66
  1
  0
VERTEX
  8
gg1
 10
0.311700
 20
0.363500
  0
VERTEX
  8
gg1
 10
0.311700
 20
0.378500
  0
SEQEND
  8
gg1
  0
POLYLINE
  8
gg1
 62
1
 40
0.000000
 41
0.000000
 66
  1
  0
VERTEX
  8
gg1
 10
0.169000
 20
-0.106000
  0
VERTEX
  8
gg1
 10
0.149000
 20
-0.116000
  0
VERTEX
  8
gg1
 10
0.129100
 20
-0.136000
  0
VERTEX
  8
gg1
 10
0.129100
 20
-0.156000
  0
VERTEX
  8
gg1
 10
0.139000
 20
-0.166000
  0
VERTEX
  8
gg1
 10
0.159000
 20
-0.166000
  0
VERTEX
  8
gg1
 10
0.169000
 20
-0.156000
  0
VERTEX
  8
gg1
 10
0.169000
 20
-0.146000
  0
VERTEX
  8
gg1
 10
0.159000
 20
-0.136000
  0
VERTEX
  8
gg1
 10
0.129100
 20
-0.136000
  0
SEQEND
  8
gg1
  0
POLYLINE
  8
gg1
 62
1
 40
0.000000
 41
0.000000
 66
  1
  0
VERTEX
  8
gg1
 10
0.189000
 20
-0.116000
  0
VERTEX
  8
gg1
 10
0.199000
 20
-0.106000
  0
VERTEX
  8
gg1
 10
0.219000
 20
-0.106000
  0
VERTEX
  8
gg1
 10
0.229000
 20
-0.116000
  0
VERTEX
  8
gg1
 10
0.229000
 20
-0.156000
  0
VERTEX
  8
gg1
 10
0.219000
 20
-0.166000
  0
VERTEX
  8
gg1
 10
0.199000
 20
-0.166000
  0
VERTEX
  8
gg1
 10
0.189000
 20
-0.156000
  0
VERTEX
  8
gg1
 10
0.189000
 20
-0.116000
  0
SEQEND
  8
gg1
  0
POLYLINE
  8
gg1
 62
1
 40
0.000000
 41
0.000000
 66
  1
  0
VERTEX
  8
gg1
 10
0.249000
 20
-0.116000
  0
VERTEX
  8
gg1
 10
0.259000
 20
-0.106000
  0
VERTEX
  8
gg1
 10
0.279000
 20
-0.106000
  0
VERTEX
  8
gg1
 10
0.289000
 20
-0.116000
  0
VERTEX
  8
gg1
 10
0.289000
 20
-0.156000
  0
VERTEX
  8
gg1
 10
0.279000
 20
-0.166000
  0
VERTEX
  8
gg1
 10
0.259000
 20
-0.166000
  0
VERTEX
  8
gg1
 10
0.249000
 20
-0.156000
  0
VERTEX
  8
gg1
 10
0.249000
 20
-0.116000
  0
SEQEND
  8
gg1
  0
POLYLINE
  8
gg1
 62
1
 40
0.000000
 41
0.000000
 66
  1
  0
VERTEX
  8
gg1
 10
0.309000
 20
-0.166000
  0
VERTEX
  8
gg1
 10
0.309000
 20
-0.126000
  0
VERTEX
  8
gg1
 10
0.319000
 20
-0.126000
  0
VERTEX
  8
gg1
 10
0.329000
 20
-0.136000
  0
VERTEX
  8
gg1
 10
0.329000
 20
-0.166000
  0
VERTEX
  8
gg1
 10
0.329000
 20
-0.136000
  0
VERTEX
  8
gg1
 10
0.339000
 20
-0.126000
  0
VERTEX
  8
gg1
 10
0.349000
 20
-0.136000
  0
VERTEX
  8
gg1
 10
0.349000
 20
-0.166000
  0
SEQEND
  8
gg1
  0
POLYLINE
  8
gg1
 62
1
 40
0.000000
 41
0.000000
 66
  1
  0
VERTEX
  8
gg1
 10
0.369000
 20
-0.166000
  0
VERTEX
  8
gg1
 10
0.389000
 20
-0.166000
  0
VERTEX
  8
gg1
 10
0.379000
 20
-0.166000
  0
VERTEX
  8
gg1
 10
0.379000
 20
-0.126000
  0
VERTEX
  8
gg1
 10
0.369000
 20
-0.126000
  0
SEQEND
  8
gg1
  0
POLYLINE
  8
gg1
 62
1
 40
0.000000
 41
0.000000
 66
  1
  0
VERTEX
  8
gg1
 10
0.419000
 20
-0.166000
  0
VERTEX
  8
gg1
 10
0.439000
 20
-0.166000
  0
VERTEX
  8
gg1
 10
0.429000
 20
-0.166000
  0
VERTEX
  8
gg1
 10
0.429000
 20
-0.106000
  0
VERTEX
  8
gg1
 10
0.419000
 20
-0.106000
  0
SEQEND
  8
gg1
  0
POLYLINE
  8
gg1
 62
1
 40
0.000000
 41
0.000000
 66
  1
  0
VERTEX
  8
gg1
 10
-0.174000
 20
0.169000
  0
VERTEX
  8
gg1
 10
-0.164000
 20
0.149000
  0
VERTEX
  8
gg1
 10
-0.144000
 20
0.129100
  0
VERTEX
  8
gg1
 10
-0.124000
 20
0.129100
  0
VERTEX
  8
gg1
 10
-0.114000
 20
0.139000
  0
VERTEX
  8
gg1
 10
-0.114000
 20
0.159000
  0
VERTEX
  8
gg1
 10
-0.124000
 20
0.169000
  0
VERTEX
  8
gg1
 10
-0.134000
 20
0.169000
  0
VERTEX
  8
gg1
 10
-0.144000
 20
0.159000
  0
VERTEX
  8
gg1
 10
-0.144000
 20
0.129100
  0
SEQEND
  8
gg1
  0
POLYLINE
  8
gg1
 62
1
 40
0.000000
 41
0.000000
 66
  1
  0
VERTEX
  8
gg1
 10
-0.164000
 20
0.189000
  0
VERTEX
  8
gg1
 10
-0.174000
 20
0.199000
  0
VERTEX
  8
gg1
 10
-0.174000
 20
0.219000
  0
VERTEX
  8
gg1
 10
-0.164000
 20
0.229000
  0
VERTEX
  8
gg1
 10
-0.124000
 20
0.229000
  0
VERTEX
  8
gg1
 10
-0.114000
 20
0.219000
  0
VERTEX
  8
gg1
 10
-0.114000
 20
0.199000
  0
VERTEX
  8
gg1
 10
-0.124000
 20
0.189000
  0
VERTEX
  8
gg1
 10
-0.164000
 20
0.189000
  0
SEQEND
  8
gg1
  0
POLYLINE
  8
gg1
 62
1
 40
0.000000
 41
0.000000
 66
  1
  0
VERTEX
  8
gg1
 10
-0.164000
 20
0.249000
  0
VERTEX
  8
gg1
 10
-0.174000
 20
0.259000
  0
VERTEX
  8
gg1
 10
-0.174000
 20
0.279000
  0
VERTEX
  8
gg1
 10
-0.164000
 20
0.289000
  0
VERTEX
  8
gg1
 10
-0.124000
 20
0.289000
  0
VERTEX
  8
gg1
 10
-0.114000
 20
0.279000
  0
VERTEX
  8
gg1
 10
-0.114000
 20
0.259000
  0
VERTEX
  8
gg1
 10
-0.124000
 20
0.249000
  0
VERTEX
  8
gg1
 10
-0.164000
 20
0.249000
  0
SEQEND
  8
gg1
  0
POLYLINE
  8
gg1
 62
1
 40
0.000000
 41
0.000000
 66
  1
  0
VERTEX
  8
gg1
 10
-0.114000
 20
0.309000
  0
VERTEX
  8
gg1
 10
-0.154000
 20
0.309000
  0
VERTEX
  8
gg1
 10
-0.154000
 20
0.319000
  0
VERTEX
  8
gg1
 10
-0.144000
 20
0.329000
  0
VERTEX
  8
gg1
 10
-0.114000
 20
0.329000
  0
VERTEX
  8
gg1
 10
-0.144000
 20
0.329000
  0
VERTEX
  8
gg1
 10
-0.154000
 20
0.339000
  0
VERTEX
  8
gg1
 10
-0.144000
 20
0.349000
  0
VERTEX
  8
gg1
 10
-0.114000
 20
0.349000
  0
SEQEND
  8
gg1
  0
POLYLINE
  8
gg1
 62
1
 40
0.000000
 41
0.000000
 66
  1
  0
VERTEX
  8
gg1
 10
-0.114000
 20
0.369000
  0
VERTEX
  8
gg1
 10
-0.114000
 20
0.389000
  0
VERTEX
  8
gg1
 10
-0.114000
 20
0.379000
  0
VERTEX
  8
gg1
 10
-0.154000
 20
0.379000
  0
VERTEX
  8
gg1
 10
-0.154000
 20
0.369000
  0
SEQEND
  8
gg1
  0
POLYLINE
  8
gg1
 62
1
 40
0.000000
 41
0.000000
 66
  1
  0
VERTEX
  8
gg1
 10
-0.114000
 20
0.419000
  0
VERTEX
  8
gg1
 10
-0.114000
 20
0.439000
  0
VERTEX
  8
gg1
 10
-0.114000
 20
0.429000
  0
VERTEX
  8
gg1
 10
-0.174000
 20
0.429000
  0
VERTEX
  8
gg1
 10
-0.174000
 20
0.419000
  0
SEQEND
  8
gg1
  0
ENDSEC
  0
EOF
