  0
SECTION
  2
HEADER
  9
$EXTMIN
 10
-0.542000
 20
-0.239000
  9
$EXTMAX
 10
3.705000
 20
0.765000
  9
$LIMMIN
 10
-0.542000
 20
-0.239000
  9
$LIMMAX
 10
3.705000
 20
0.765000
  9
$FILLMODE
 70
  1
  0
ENDSEC
  0
SECTION
  2
TABLES
  0
TABLE
  2
LTYPE
 70
  1
  0
LTYPE
  2
CONTINUOUS
 70
 64
  3
Solid line
 72
 65
 73
  0
 40
0.0
  0
ENDTAB
  0
TABLE
  2
LAYER
 70
 1
  0
LAYER
  2
0
 70
  0
 62
7
  6
CONTINUOUS
  0
LAYER
  2
gg1
 70
  0
 62
1
  6
CONTINUOUS
  0
ENDTAB
  0
TABLE
  2
STYLE
 70
  1
  0
STYLE
  2
STANDARD
 70
  0
 40
0.0
 41
1.0
 50
0.0
 71
  0
 42
0.2
  3
txt
  4

  0
ENDTAB
  0
ENDSEC
  0
SECTION
  2
BLOCKS
  0
BLOCK
  8
0
  2
D10
 70
64
 10
0.0
 20
0.0
  3
D10
  0
CIRCLE
  8
0
 10
0.000000
 20
0.000000
 40
0.002500
 0
ENDBLK
  8
0
  0
BLOCK
  8
0
  2
D11
 70
64
 10
0.0
 20
0.0
  3
D11
  0
CIRCLE
  8
0
 10
0.000000
 20
0.000000
 40
0.005000
 0
ENDBLK
  8
0
  0
BLOCK
  8
0
  2
D12
 70
64
 10
0.0
 20
0.0
  3
D12
  0
CIRCLE
  8
0
 10
0.000000
 20
0.000000
 40
0.003000
 0
ENDBLK
  8
0
  0
ENDSEC
  0
SECTION
  2
ENTITIES
  0
POLYLINE
  8
gg1
 62
1
 40
0.000000
 41
0.000000
 66
  1
  0
VERTEX
  8
gg1
 10
3.150000
 20
0.332000
  0
VERTEX
  8
gg1
 10
3.150000
 20
0.332000
  0
VERTEX
  8
gg1
 10
3.150000
 20
0.332000
 42
0.414214
  0
VERTEX
  8
gg1
 10
3.182000
 20
0.300000
  0
VERTEX
  8
gg1
 10
3.182000
 20
0.300000
  0
SEQEND
  8
gg1
  0
POLYLINE
  8
gg1
 62
1
 40
0.000000
 41
0.000000
 66
  1
  0
VERTEX
  8
gg1
 10
0.518000
 20
0.300000
  0
VERTEX
  8
gg1
 10
0.518000
 20
0.300000
  0
VERTEX
  8
gg1
 10
0.518000
 20
0.300000
 42
0.414214
  0
VERTEX
  8
gg1
 10
0.550000
 20
0.332000
  0
VERTEX
  8
gg1
 10
0.550000
 20
0.332000
  0
SEQEND
  8
gg1
  0
POLYLINE
  8
gg1
 62
1
 40
0.000000
 41
0.000000
 66
  1
  0
VERTEX
  8
gg1
 10
0.000000
 20
0.000000
  0
VERTEX
  8
gg1
 10
3.700000
 20
0.000000
  0
VERTEX
  8
gg1
 10
3.700000
 20
0.300000
  0
SEQEND
  8
gg1
  0
POLYLINE
  8
gg1
 62
1
 40
0.000000
 41
0.000000
 66
  1
  0
VERTEX
  8
gg1
 10
0.550000
 20
0.675000
  0
VERTEX
  8
gg1
 10
3.150000
 20
0.675000
  0
SEQEND
  8
gg1
  0
POLYLINE
  8
gg1
 62
1
 40
0.000000
 41
0.000000
 66
  1
  0
VERTEX
  8
gg1
 10
0.000000
 20
0.000000
  0
VERTEX
  8
gg1
 10
0.000000
 20
0.300000
  0
SEQEND
  8
gg1
  0
POLYLINE
  8
gg1
 62
1
 40
0.000000
 41
0.000000
 66
  1
  0
VERTEX
  8
gg1
 10
0.550000
 20
0.332000
  0
VERTEX
  8
gg1
 10
0.550000
 20
0.675000
  0
SEQEND
  8
gg1
  0
POLYLINE
  8
gg1
 62
1
 40
0.000000
 41
0.000000
 66
  1
  0
VERTEX
  8
gg1
 10
0.000000
 20
0.300000
  0
VERTEX
  8
gg1
 10
0.518000
 20
0.300000
  0
SEQEND
  8
gg1
  0
POLYLINE
  8
gg1
 62
1
 40
0.000000
 41
0.000000
 66
  1
  0
VERTEX
  8
gg1
 10
3.150000
 20
0.332000
  0
VERTEX
  8
gg1
 10
3.150000
 20
0.675000
  0
SEQEND
  8
gg1
  0
POLYLINE
  8
gg1
 62
1
 40
0.000000
 41
0.000000
 66
  1
  0
VERTEX
  8
gg1
 10
3.182000
 20
0.300000
  0
VERTEX
  8
gg1
 10
3.700000
 20
0.300000
  0
SEQEND
  8
gg1
  0
POLYLINE
  8
gg1
 62
1
 40
0.000000
 41
0.000000
 66
  1
  0
VERTEX
  8
gg1
 10
0.980000
 20
0.075000
  0
VERTEX
  8
gg1
 10
1.020000
 20
0.075000
  0
SEQEND
  8
gg1
  0
POLYLINE
  8
gg1
 62
1
 40
0.000000
 41
0.000000
 66
  1
  0
VERTEX
  8
gg1
 10
1.000000
 20
0.055000
  0
VERTEX
  8
gg1
 10
1.000000
 20
0.095000
  0
SEQEND
  8
gg1
  0
POLYLINE
  8
gg1
 62
1
 40
0.000000
 41
0.000000
 66
  1
  0
VERTEX
  8
gg1
 10
1.080000
 20
0.075000
  0
VERTEX
  8
gg1
 10
1.120000
 20
0.075000
  0
SEQEND
  8
gg1
  0
POLYLINE
  8
gg1
 62
1
 40
0.000000
 41
0.000000
 66
  1
  0
VERTEX
  8
gg1
 10
1.100000
 20
0.055000
  0
VERTEX
  8
gg1
 10
1.100000
 20
0.095000
  0
SEQEND
  8
gg1
  0
POLYLINE
  8
gg1
 62
1
 40
0.000000
 41
0.000000
 66
  1
  0
VERTEX
  8
gg1
 10
2.680000
 20
0.075000
  0
VERTEX
  8
gg1
 10
2.720000
 20
0.075000
  0
SEQEND
  8
gg1
  0
POLYLINE
  8
gg1
 62
1
 40
0.000000
 41
0.000000
 66
  1
  0
VERTEX
  8
gg1
 10
2.700000
 20
0.055000
  0
VERTEX
  8
gg1
 10
2.700000
 20
0.095000
  0
SEQEND
  8
gg1
  0
POLYLINE
  8
gg1
 62
1
 40
0.000000
 41
0.000000
 66
  1
  0
VERTEX
  8
gg1
 10
2.580000
 20
0.075000
  0
VERTEX
  8
gg1
 10
2.620000
 20
0.075000
  0
SEQEND
  8
gg1
  0
POLYLINE
  8
gg1
 62
1
 40
0.000000
 41
0.000000
 66
  1
  0
VERTEX
  8
gg1
 10
2.600000
 20
0.055000
  0
VERTEX
  8
gg1
 10
2.600000
 20
0.095000
  0
SEQEND
  8
gg1
  0
POLYLINE
  8
gg1
 62
1
 40
0.000000
 41
0.000000
 66
  1
  0
VERTEX
  8
gg1
 10
0.680000
 20
0.050000
  0
VERTEX
  8
gg1
 10
0.720000
 20
0.050000
  0
SEQEND
  8
gg1
  0
POLYLINE
  8
gg1
 62
1
 40
0.000000
 41
0.000000
 66
  1
  0
VERTEX
  8
gg1
 10
0.700000
 20
0.030000
  0
VERTEX
  8
gg1
 10
0.700000
 20
0.070000
  0
SEQEND
  8
gg1
  0
POLYLINE
  8
gg1
 62
1
 40
0.000000
 41
0.000000
 66
  1
  0
VERTEX
  8
gg1
 10
0.680000
 20
0.150000
  0
VERTEX
  8
gg1
 10
0.720000
 20
0.150000
  0
SEQEND
  8
gg1
  0
POLYLINE
  8
gg1
 62
1
 40
0.000000
 41
0.000000
 66
  1
  0
VERTEX
  8
gg1
 10
0.700000
 20
0.130000
  0
VERTEX
  8
gg1
 10
0.700000
 20
0.170000
  0
SEQEND
  8
gg1
  0
POLYLINE
  8
gg1
 62
1
 40
0.000000
 41
0.000000
 66
  1
  0
VERTEX
  8
gg1
 10
0.680000
 20
0.250000
  0
VERTEX
  8
gg1
 10
0.720000
 20
0.250000
  0
SEQEND
  8
gg1
  0
POLYLINE
  8
gg1
 62
1
 40
0.000000
 41
0.000000
 66
  1
  0
VERTEX
  8
gg1
 10
0.700000
 20
0.230000
  0
VERTEX
  8
gg1
 10
0.700000
 20
0.270000
  0
SEQEND
  8
gg1
  0
POLYLINE
  8
gg1
 62
1
 40
0.000000
 41
0.000000
 66
  1
  0
VERTEX
  8
gg1
 10
1.730000
 20
0.375000
  0
VERTEX
  8
gg1
 10
1.770000
 20
0.375000
  0
SEQEND
  8
gg1
  0
POLYLINE
  8
gg1
 62
1
 40
0.000000
 41
0.000000
 66
  1
  0
VERTEX
  8
gg1
 10
1.750000
 20
0.355000
  0
VERTEX
  8
gg1
 10
1.750000
 20
0.395000
  0
SEQEND
  8
gg1
  0
POLYLINE
  8
gg1
 62
1
 40
0.000000
 41
0.000000
 66
  1
  0
VERTEX
  8
gg1
 10
1.830000
 20
0.375000
  0
VERTEX
  8
gg1
 10
1.870000
 20
0.375000
  0
SEQEND
  8
gg1
  0
POLYLINE
  8
gg1
 62
1
 40
0.000000
 41
0.000000
 66
  1
  0
VERTEX
  8
gg1
 10
1.850000
 20
0.355000
  0
VERTEX
  8
gg1
 10
1.850000
 20
0.395000
  0
SEQEND
  8
gg1
  0
POLYLINE
  8
gg1
 62
1
 40
0.000000
 41
0.000000
 66
  1
  0
VERTEX
  8
gg1
 10
1.930000
 20
0.375000
  0
VERTEX
  8
gg1
 10
1.970000
 20
0.375000
  0
SEQEND
  8
gg1
  0
POLYLINE
  8
gg1
 62
1
 40
0.000000
 41
0.000000
 66
  1
  0
VERTEX
  8
gg1
 10
1.950000
 20
0.355000
  0
VERTEX
  8
gg1
 10
1.950000
 20
0.395000
  0
SEQEND
  8
gg1
  0
POLYLINE
  8
gg1
 62
1
 40
0.000000
 41
0.000000
 66
  1
  0
VERTEX
  8
gg1
 10
2.980000
 20
0.250000
  0
VERTEX
  8
gg1
 10
3.020000
 20
0.250000
  0
SEQEND
  8
gg1
  0
POLYLINE
  8
gg1
 62
1
 40
0.000000
 41
0.000000
 66
  1
  0
VERTEX
  8
gg1
 10
3.000000
 20
0.230000
  0
VERTEX
  8
gg1
 10
3.000000
 20
0.270000
  0
SEQEND
  8
gg1
  0
POLYLINE
  8
gg1
 62
1
 40
0.000000
 41
0.000000
 66
  1
  0
VERTEX
  8
gg1
 10
2.980000
 20
0.150000
  0
VERTEX
  8
gg1
 10
3.020000
 20
0.150000
  0
SEQEND
  8
gg1
  0
POLYLINE
  8
gg1
 62
1
 40
0.000000
 41
0.000000
 66
  1
  0
VERTEX
  8
gg1
 10
3.000000
 20
0.130000
  0
VERTEX
  8
gg1
 10
3.000000
 20
0.170000
  0
SEQEND
  8
gg1
  0
POLYLINE
  8
gg1
 62
1
 40
0.000000
 41
0.000000
 66
  1
  0
VERTEX
  8
gg1
 10
2.980000
 20
0.050000
  0
VERTEX
  8
gg1
 10
3.020000
 20
0.050000
  0
SEQEND
  8
gg1
  0
POLYLINE
  8
gg1
 62
1
 40
0.000000
 41
0.000000
 66
  1
  0
VERTEX
  8
gg1
 10
3.000000
 20
0.030000
  0
VERTEX
  8
gg1
 10
3.000000
 20
0.070000
  0
SEQEND
  8
gg1
  0
POLYLINE
  8
gg1
 62
1
 40
0.000000
 41
0.000000
 66
  1
  0
VERTEX
  8
gg1
 10
1.580000
 20
0.425000
  0
VERTEX
  8
gg1
 10
1.620000
 20
0.425000
  0
SEQEND
  8
gg1
  0
POLYLINE
  8
gg1
 62
1
 40
0.000000
 41
0.000000
 66
  1
  0
VERTEX
  8
gg1
 10
1.600000
 20
0.405000
  0
VERTEX
  8
gg1
 10
1.600000
 20
0.445000
  0
SEQEND
  8
gg1
  0
POLYLINE
  8
gg1
 62
1
 40
0.000000
 41
0.000000
 66
  1
  0
VERTEX
  8
gg1
 10
1.480000
 20
0.425000
  0
VERTEX
  8
gg1
 10
1.520000
 20
0.425000
  0
SEQEND
  8
gg1
  0
POLYLINE
  8
gg1
 62
1
 40
0.000000
 41
0.000000
 66
  1
  0
VERTEX
  8
gg1
 10
1.500000
 20
0.405000
  0
VERTEX
  8
gg1
 10
1.500000
 20
0.445000
  0
SEQEND
  8
gg1
  0
POLYLINE
  8
gg1
 62
1
 40
0.000000
 41
0.000000
 66
  1
  0
VERTEX
  8
gg1
 10
1.380000
 20
0.425000
  0
VERTEX
  8
gg1
 10
1.420000
 20
0.425000
  0
SEQEND
  8
gg1
  0
POLYLINE
  8
gg1
 62
1
 40
0.000000
 41
0.000000
 66
  1
  0
VERTEX
  8
gg1
 10
1.400000
 20
0.405000
  0
VERTEX
  8
gg1
 10
1.400000
 20
0.445000
  0
SEQEND
  8
gg1
  0
POLYLINE
  8
gg1
 62
1
 40
0.000000
 41
0.000000
 66
  1
  0
VERTEX
  8
gg1
 10
1.280000
 20
0.425000
  0
VERTEX
  8
gg1
 10
1.320000
 20
0.425000
  0
SEQEND
  8
gg1
  0
POLYLINE
  8
gg1
 62
1
 40
0.000000
 41
0.000000
 66
  1
  0
VERTEX
  8
gg1
 10
1.300000
 20
0.405000
  0
VERTEX
  8
gg1
 10
1.300000
 20
0.445000
  0
SEQEND
  8
gg1
  0
POLYLINE
  8
gg1
 62
1
 40
0.000000
 41
0.000000
 66
  1
  0
VERTEX
  8
gg1
 10
1.180000
 20
0.425000
  0
VERTEX
  8
gg1
 10
1.220000
 20
0.425000
  0
SEQEND
  8
gg1
  0
POLYLINE
  8
gg1
 62
1
 40
0.000000
 41
0.000000
 66
  1
  0
VERTEX
  8
gg1
 10
1.200000
 20
0.405000
  0
VERTEX
  8
gg1
 10
1.200000
 20
0.445000
  0
SEQEND
  8
gg1
  0
POLYLINE
  8
gg1
 62
1
 40
0.000000
 41
0.000000
 66
  1
  0
VERTEX
  8
gg1
 10
0.807000
 20
0.575000
  0
VERTEX
  8
gg1
 10
0.893000
 20
0.575000
  0
SEQEND
  8
gg1
  0
POLYLINE
  8
gg1
 62
1
 40
0.000000
 41
0.000000
 66
  1
  0
VERTEX
  8
gg1
 10
0.850000
 20
0.532000
  0
VERTEX
  8
gg1
 10
0.850000
 20
0.618000
  0
SEQEND
  8
gg1
  0
POLYLINE
  8
gg1
 62
1
 40
0.000000
 41
0.000000
 66
  1
  0
VERTEX
  8
gg1
 10
2.807000
 20
0.575000
  0
VERTEX
  8
gg1
 10
2.893000
 20
0.575000
  0
SEQEND
  8
gg1
  0
POLYLINE
  8
gg1
 62
1
 40
0.000000
 41
0.000000
 66
  1
  0
VERTEX
  8
gg1
 10
2.850000
 20
0.532000
  0
VERTEX
  8
gg1
 10
2.850000
 20
0.618000
  0
SEQEND
  8
gg1
  0
POLYLINE
  8
gg1
 62
1
 40
0.000000
 41
0.000000
 66
  1
  0
VERTEX
  8
gg1
 10
3.080000
 20
0.425000
  0
VERTEX
  8
gg1
 10
3.120000
 20
0.425000
  0
SEQEND
  8
gg1
  0
POLYLINE
  8
gg1
 62
1
 40
0.000000
 41
0.000000
 66
  1
  0
VERTEX
  8
gg1
 10
3.100000
 20
0.405000
  0
VERTEX
  8
gg1
 10
3.100000
 20
0.445000
  0
SEQEND
  8
gg1
  0
POLYLINE
  8
gg1
 62
1
 40
0.000000
 41
0.000000
 66
  1
  0
VERTEX
  8
gg1
 10
3.080000
 20
0.525000
  0
VERTEX
  8
gg1
 10
3.120000
 20
0.525000
  0
SEQEND
  8
gg1
  0
POLYLINE
  8
gg1
 62
1
 40
0.000000
 41
0.000000
 66
  1
  0
VERTEX
  8
gg1
 10
3.100000
 20
0.505000
  0
VERTEX
  8
gg1
 10
3.100000
 20
0.545000
  0
SEQEND
  8
gg1
  0
POLYLINE
  8
gg1
 62
1
 40
0.000000
 41
0.000000
 66
  1
  0
VERTEX
  8
gg1
 10
3.080000
 20
0.625000
  0
VERTEX
  8
gg1
 10
3.120000
 20
0.625000
  0
SEQEND
  8
gg1
  0
POLYLINE
  8
gg1
 62
1
 40
0.000000
 41
0.000000
 66
  1
  0
VERTEX
  8
gg1
 10
3.100000
 20
0.605000
  0
VERTEX
  8
gg1
 10
3.100000
 20
0.645000
  0
SEQEND
  8
gg1
  0
POLYLINE
  8
gg1
 62
1
 40
0.000000
 41
0.000000
 66
  1
  0
VERTEX
  8
gg1
 10
0.580000
 20
0.425000
  0
VERTEX
  8
gg1
 10
0.620000
 20
0.425000
  0
SEQEND
  8
gg1
  0
POLYLINE
  8
gg1
 62
1
 40
0.000000
 41
0.000000
 66
  1
  0
VERTEX
  8
gg1
 10
0.600000
 20
0.405000
  0
VERTEX
  8
gg1
 10
0.600000
 20
0.445000
  0
SEQEND
  8
gg1
  0
POLYLINE
  8
gg1
 62
1
 40
0.000000
 41
0.000000
 66
  1
  0
VERTEX
  8
gg1
 10
0.580000
 20
0.525000
  0
VERTEX
  8
gg1
 10
0.620000
 20
0.525000
  0
SEQEND
  8
gg1
  0
POLYLINE
  8
gg1
 62
1
 40
0.000000
 41
0.000000
 66
  1
  0
VERTEX
  8
gg1
 10
0.600000
 20
0.505000
  0
VERTEX
  8
gg1
 10
0.600000
 20
0.545000
  0
SEQEND
  8
gg1
  0
POLYLINE
  8
gg1
 62
1
 40
0.000000
 41
0.000000
 66
  1
  0
VERTEX
  8
gg1
 10
0.580000
 20
0.625000
  0
VERTEX
  8
gg1
 10
0.620000
 20
0.625000
  0
SEQEND
  8
gg1
  0
POLYLINE
  8
gg1
 62
1
 40
0.000000
 41
0.000000
 66
  1
  0
VERTEX
  8
gg1
 10
0.600000
 20
0.605000
  0
VERTEX
  8
gg1
 10
0.600000
 20
0.645000
  0
SEQEND
  8
gg1
  0
POLYLINE
  8
gg1
 62
1
 40
0.000000
 41
0.000000
 66
  1
  0
VERTEX
  8
gg1
 10
2.580000
 20
0.250000
  0
VERTEX
  8
gg1
 10
2.620000
 20
0.250000
  0
SEQEND
  8
gg1
  0
POLYLINE
  8
gg1
 62
1
 40
0.000000
 41
0.000000
 66
  1
  0
VERTEX
  8
gg1
 10
2.600000
 20
0.230000
  0
VERTEX
  8
gg1
 10
2.600000
 20
0.270000
  0
SEQEND
  8
gg1
  0
POLYLINE
  8
gg1
 62
1
 40
0.000000
 41
0.000000
 66
  1
  0
VERTEX
  8
gg1
 10
2.680000
 20
0.250000
  0
VERTEX
  8
gg1
 10
2.720000
 20
0.250000
  0
SEQEND
  8
gg1
  0
POLYLINE
  8
gg1
 62
1
 40
0.000000
 41
0.000000
 66
  1
  0
VERTEX
  8
gg1
 10
2.700000
 20
0.230000
  0
VERTEX
  8
gg1
 10
2.700000
 20
0.270000
  0
SEQEND
  8
gg1
  0
POLYLINE
  8
gg1
 62
1
 40
0.000000
 41
0.000000
 66
  1
  0
VERTEX
  8
gg1
 10
2.280000
 20
0.250000
  0
VERTEX
  8
gg1
 10
2.320000
 20
0.250000
  0
SEQEND
  8
gg1
  0
POLYLINE
  8
gg1
 62
1
 40
0.000000
 41
0.000000
 66
  1
  0
VERTEX
  8
gg1
 10
2.300000
 20
0.230000
  0
VERTEX
  8
gg1
 10
2.300000
 20
0.270000
  0
SEQEND
  8
gg1
  0
POLYLINE
  8
gg1
 62
1
 40
0.000000
 41
0.000000
 66
  1
  0
VERTEX
  8
gg1
 10
2.180000
 20
0.250000
  0
VERTEX
  8
gg1
 10
2.220000
 20
0.250000
  0
SEQEND
  8
gg1
  0
POLYLINE
  8
gg1
 62
1
 40
0.000000
 41
0.000000
 66
  1
  0
VERTEX
  8
gg1
 10
2.200000
 20
0.230000
  0
VERTEX
  8
gg1
 10
2.200000
 20
0.270000
  0
SEQEND
  8
gg1
  0
POLYLINE
  8
gg1
 62
1
 40
0.000000
 41
0.000000
 66
  1
  0
VERTEX
  8
gg1
 10
1.480000
 20
0.250000
  0
VERTEX
  8
gg1
 10
1.520000
 20
0.250000
  0
SEQEND
  8
gg1
  0
POLYLINE
  8
gg1
 62
1
 40
0.000000
 41
0.000000
 66
  1
  0
VERTEX
  8
gg1
 10
1.500000
 20
0.230000
  0
VERTEX
  8
gg1
 10
1.500000
 20
0.270000
  0
SEQEND
  8
gg1
  0
POLYLINE
  8
gg1
 62
1
 40
0.000000
 41
0.000000
 66
  1
  0
VERTEX
  8
gg1
 10
1.380000
 20
0.250000
  0
VERTEX
  8
gg1
 10
1.420000
 20
0.250000
  0
SEQEND
  8
gg1
  0
POLYLINE
  8
gg1
 62
1
 40
0.000000
 41
0.000000
 66
  1
  0
VERTEX
  8
gg1
 10
1.400000
 20
0.230000
  0
VERTEX
  8
gg1
 10
1.400000
 20
0.270000
  0
SEQEND
  8
gg1
  0
POLYLINE
  8
gg1
 62
1
 40
0.000000
 41
0.000000
 66
  1
  0
VERTEX
  8
gg1
 10
1.080000
 20
0.250000
  0
VERTEX
  8
gg1
 10
1.120000
 20
0.250000
  0
SEQEND
  8
gg1
  0
POLYLINE
  8
gg1
 62
1
 40
0.000000
 41
0.000000
 66
  1
  0
VERTEX
  8
gg1
 10
1.100000
 20
0.230000
  0
VERTEX
  8
gg1
 10
1.100000
 20
0.270000
  0
SEQEND
  8
gg1
  0
POLYLINE
  8
gg1
 62
1
 40
0.000000
 41
0.000000
 66
  1
  0
VERTEX
  8
gg1
 10
0.980000
 20
0.250000
  0
VERTEX
  8
gg1
 10
1.020000
 20
0.250000
  0
SEQEND
  8
gg1
  0
POLYLINE
  8
gg1
 62
1
 40
0.000000
 41
0.000000
 66
  1
  0
VERTEX
  8
gg1
 10
1.000000
 20
0.230000
  0
VERTEX
  8
gg1
 10
1.000000
 20
0.270000
  0
SEQEND
  8
gg1
  0
POLYLINE
  8
gg1
 62
1
 40
0.000000
 41
0.000000
 66
  1
  0
VERTEX
  8
gg1
 10
2.080000
 20
0.625000
  0
VERTEX
  8
gg1
 10
2.120000
 20
0.625000
  0
SEQEND
  8
gg1
  0
POLYLINE
  8
gg1
 62
1
 40
0.000000
 41
0.000000
 66
  1
  0
VERTEX
  8
gg1
 10
2.100000
 20
0.605000
  0
VERTEX
  8
gg1
 10
2.100000
 20
0.645000
  0
SEQEND
  8
gg1
  0
POLYLINE
  8
gg1
 62
1
 40
0.000000
 41
0.000000
 66
  1
  0
VERTEX
  8
gg1
 10
1.980000
 20
0.625000
  0
VERTEX
  8
gg1
 10
2.020000
 20
0.625000
  0
SEQEND
  8
gg1
  0
POLYLINE
  8
gg1
 62
1
 40
0.000000
 41
0.000000
 66
  1
  0
VERTEX
  8
gg1
 10
2.000000
 20
0.605000
  0
VERTEX
  8
gg1
 10
2.000000
 20
0.645000
  0
SEQEND
  8
gg1
  0
POLYLINE
  8
gg1
 62
1
 40
0.000000
 41
0.000000
 66
  1
  0
VERTEX
  8
gg1
 10
1.880000
 20
0.625000
  0
VERTEX
  8
gg1
 10
1.920000
 20
0.625000
  0
SEQEND
  8
gg1
  0
POLYLINE
  8
gg1
 62
1
 40
0.000000
 41
0.000000
 66
  1
  0
VERTEX
  8
gg1
 10
1.900000
 20
0.605000
  0
VERTEX
  8
gg1
 10
1.900000
 20
0.645000
  0
SEQEND
  8
gg1
  0
POLYLINE
  8
gg1
 62
1
 40
0.000000
 41
0.000000
 66
  1
  0
VERTEX
  8
gg1
 10
1.780000
 20
0.625000
  0
VERTEX
  8
gg1
 10
1.820000
 20
0.625000
  0
SEQEND
  8
gg1
  0
POLYLINE
  8
gg1
 62
1
 40
0.000000
 41
0.000000
 66
  1
  0
VERTEX
  8
gg1
 10
1.800000
 20
0.605000
  0
VERTEX
  8
gg1
 10
1.800000
 20
0.645000
  0
SEQEND
  8
gg1
  0
POLYLINE
  8
gg1
 62
1
 40
0.000000
 41
0.000000
 66
  1
  0
VERTEX
  8
gg1
 10
1.280000
 20
0.625000
  0
VERTEX
  8
gg1
 10
1.320000
 20
0.625000
  0
SEQEND
  8
gg1
  0
POLYLINE
  8
gg1
 62
1
 40
0.000000
 41
0.000000
 66
  1
  0
VERTEX
  8
gg1
 10
1.300000
 20
0.605000
  0
VERTEX
  8
gg1
 10
1.300000
 20
0.645000
  0
SEQEND
  8
gg1
  0
POLYLINE
  8
gg1
 62
1
 40
0.000000
 41
0.000000
 66
  1
  0
VERTEX
  8
gg1
 10
1.380000
 20
0.625000
  0
VERTEX
  8
gg1
 10
1.420000
 20
0.625000
  0
SEQEND
  8
gg1
  0
POLYLINE
  8
gg1
 62
1
 40
0.000000
 41
0.000000
 66
  1
  0
VERTEX
  8
gg1
 10
1.400000
 20
0.605000
  0
VERTEX
  8
gg1
 10
1.400000
 20
0.645000
  0
SEQEND
  8
gg1
  0
POLYLINE
  8
gg1
 62
1
 40
0.000000
 41
0.000000
 66
  1
  0
VERTEX
  8
gg1
 10
1.480000
 20
0.625000
  0
VERTEX
  8
gg1
 10
1.520000
 20
0.625000
  0
SEQEND
  8
gg1
  0
POLYLINE
  8
gg1
 62
1
 40
0.000000
 41
0.000000
 66
  1
  0
VERTEX
  8
gg1
 10
1.500000
 20
0.605000
  0
VERTEX
  8
gg1
 10
1.500000
 20
0.645000
  0
SEQEND
  8
gg1
  0
POLYLINE
  8
gg1
 62
1
 40
0.000000
 41
0.000000
 66
  1
  0
VERTEX
  8
gg1
 10
1.580000
 20
0.625000
  0
VERTEX
  8
gg1
 10
1.620000
 20
0.625000
  0
SEQEND
  8
gg1
  0
POLYLINE
  8
gg1
 62
1
 40
0.000000
 41
0.000000
 66
  1
  0
VERTEX
  8
gg1
 10
1.600000
 20
0.605000
  0
VERTEX
  8
gg1
 10
1.600000
 20
0.645000
  0
SEQEND
  8
gg1
  0
POLYLINE
  8
gg1
 62
1
 40
0.000000
 41
0.000000
 66
  1
  0
VERTEX
  8
gg1
 10
1.680000
 20
0.625000
  0
VERTEX
  8
gg1
 10
1.720000
 20
0.625000
  0
SEQEND
  8
gg1
  0
POLYLINE
  8
gg1
 62
1
 40
0.000000
 41
0.000000
 66
  1
  0
VERTEX
  8
gg1
 10
1.700000
 20
0.605000
  0
VERTEX
  8
gg1
 10
1.700000
 20
0.645000
  0
SEQEND
  8
gg1
  0
POLYLINE
  8
gg1
 62
1
 40
0.000000
 41
0.000000
 66
  1
  0
VERTEX
  8
gg1
 10
2.180000
 20
0.625000
  0
VERTEX
  8
gg1
 10
2.220000
 20
0.625000
  0
SEQEND
  8
gg1
  0
POLYLINE
  8
gg1
 62
1
 40
0.000000
 41
0.000000
 66
  1
  0
VERTEX
  8
gg1
 10
2.200000
 20
0.605000
  0
VERTEX
  8
gg1
 10
2.200000
 20
0.645000
  0
SEQEND
  8
gg1
  0
POLYLINE
  8
gg1
 62
1
 40
0.000000
 41
0.000000
 66
  1
  0
VERTEX
  8
gg1
 10
2.280000
 20
0.625000
  0
VERTEX
  8
gg1
 10
2.320000
 20
0.625000
  0
SEQEND
  8
gg1
  0
POLYLINE
  8
gg1
 62
1
 40
0.000000
 41
0.000000
 66
  1
  0
VERTEX
  8
gg1
 10
2.300000
 20
0.605000
  0
VERTEX
  8
gg1
 10
2.300000
 20
0.645000
  0
SEQEND
  8
gg1
  0
POLYLINE
  8
gg1
 62
1
 40
0.000000
 41
0.000000
 66
  1
  0
VERTEX
  8
gg1
 10
2.380000
 20
0.625000
  0
VERTEX
  8
gg1
 10
2.420000
 20
0.625000
  0
SEQEND
  8
gg1
  0
POLYLINE
  8
gg1
 62
1
 40
0.000000
 41
0.000000
 66
  1
  0
VERTEX
  8
gg1
 10
2.400000
 20
0.605000
  0
VERTEX
  8
gg1
 10
2.400000
 20
0.645000
  0
SEQEND
  8
gg1
  0
POLYLINE
  8
gg1
 62
1
 40
0.000000
 41
0.000000
 66
  1
  0
VERTEX
  8
gg1
 10
2.080000
 20
0.525000
  0
VERTEX
  8
gg1
 10
2.120000
 20
0.525000
  0
SEQEND
  8
gg1
  0
POLYLINE
  8
gg1
 62
1
 40
0.000000
 41
0.000000
 66
  1
  0
VERTEX
  8
gg1
 10
2.100000
 20
0.505000
  0
VERTEX
  8
gg1
 10
2.100000
 20
0.545000
  0
SEQEND
  8
gg1
  0
POLYLINE
  8
gg1
 62
1
 40
0.000000
 41
0.000000
 66
  1
  0
VERTEX
  8
gg1
 10
1.980000
 20
0.525000
  0
VERTEX
  8
gg1
 10
2.020000
 20
0.525000
  0
SEQEND
  8
gg1
  0
POLYLINE
  8
gg1
 62
1
 40
0.000000
 41
0.000000
 66
  1
  0
VERTEX
  8
gg1
 10
2.000000
 20
0.505000
  0
VERTEX
  8
gg1
 10
2.000000
 20
0.545000
  0
SEQEND
  8
gg1
  0
POLYLINE
  8
gg1
 62
1
 40
0.000000
 41
0.000000
 66
  1
  0
VERTEX
  8
gg1
 10
1.880000
 20
0.525000
  0
VERTEX
  8
gg1
 10
1.920000
 20
0.525000
  0
SEQEND
  8
gg1
  0
POLYLINE
  8
gg1
 62
1
 40
0.000000
 41
0.000000
 66
  1
  0
VERTEX
  8
gg1
 10
1.900000
 20
0.505000
  0
VERTEX
  8
gg1
 10
1.900000
 20
0.545000
  0
SEQEND
  8
gg1
  0
POLYLINE
  8
gg1
 62
1
 40
0.000000
 41
0.000000
 66
  1
  0
VERTEX
  8
gg1
 10
1.780000
 20
0.525000
  0
VERTEX
  8
gg1
 10
1.820000
 20
0.525000
  0
SEQEND
  8
gg1
  0
POLYLINE
  8
gg1
 62
1
 40
0.000000
 41
0.000000
 66
  1
  0
VERTEX
  8
gg1
 10
1.800000
 20
0.505000
  0
VERTEX
  8
gg1
 10
1.800000
 20
0.545000
  0
SEQEND
  8
gg1
  0
POLYLINE
  8
gg1
 62
1
 40
0.000000
 41
0.000000
 66
  1
  0
VERTEX
  8
gg1
 10
1.280000
 20
0.525000
  0
VERTEX
  8
gg1
 10
1.320000
 20
0.525000
  0
SEQEND
  8
gg1
  0
POLYLINE
  8
gg1
 62
1
 40
0.000000
 41
0.000000
 66
  1
  0
VERTEX
  8
gg1
 10
1.300000
 20
0.505000
  0
VERTEX
  8
gg1
 10
1.300000
 20
0.545000
  0
SEQEND
  8
gg1
  0
POLYLINE
  8
gg1
 62
1
 40
0.000000
 41
0.000000
 66
  1
  0
VERTEX
  8
gg1
 10
1.380000
 20
0.525000
  0
VERTEX
  8
gg1
 10
1.420000
 20
0.525000
  0
SEQEND
  8
gg1
  0
POLYLINE
  8
gg1
 62
1
 40
0.000000
 41
0.000000
 66
  1
  0
VERTEX
  8
gg1
 10
1.400000
 20
0.505000
  0
VERTEX
  8
gg1
 10
1.400000
 20
0.545000
  0
SEQEND
  8
gg1
  0
POLYLINE
  8
gg1
 62
1
 40
0.000000
 41
0.000000
 66
  1
  0
VERTEX
  8
gg1
 10
1.480000
 20
0.525000
  0
VERTEX
  8
gg1
 10
1.520000
 20
0.525000
  0
SEQEND
  8
gg1
  0
POLYLINE
  8
gg1
 62
1
 40
0.000000
 41
0.000000
 66
  1
  0
VERTEX
  8
gg1
 10
1.500000
 20
0.505000
  0
VERTEX
  8
gg1
 10
1.500000
 20
0.545000
  0
SEQEND
  8
gg1
  0
POLYLINE
  8
gg1
 62
1
 40
0.000000
 41
0.000000
 66
  1
  0
VERTEX
  8
gg1
 10
1.580000
 20
0.525000
  0
VERTEX
  8
gg1
 10
1.620000
 20
0.525000
  0
SEQEND
  8
gg1
  0
POLYLINE
  8
gg1
 62
1
 40
0.000000
 41
0.000000
 66
  1
  0
VERTEX
  8
gg1
 10
1.600000
 20
0.505000
  0
VERTEX
  8
gg1
 10
1.600000
 20
0.545000
  0
SEQEND
  8
gg1
  0
POLYLINE
  8
gg1
 62
1
 40
0.000000
 41
0.000000
 66
  1
  0
VERTEX
  8
gg1
 10
1.680000
 20
0.525000
  0
VERTEX
  8
gg1
 10
1.720000
 20
0.525000
  0
SEQEND
  8
gg1
  0
POLYLINE
  8
gg1
 62
1
 40
0.000000
 41
0.000000
 66
  1
  0
VERTEX
  8
gg1
 10
1.700000
 20
0.505000
  0
VERTEX
  8
gg1
 10
1.700000
 20
0.545000
  0
SEQEND
  8
gg1
  0
POLYLINE
  8
gg1
 62
1
 40
0.000000
 41
0.000000
 66
  1
  0
VERTEX
  8
gg1
 10
2.180000
 20
0.525000
  0
VERTEX
  8
gg1
 10
2.220000
 20
0.525000
  0
SEQEND
  8
gg1
  0
POLYLINE
  8
gg1
 62
1
 40
0.000000
 41
0.000000
 66
  1
  0
VERTEX
  8
gg1
 10
2.200000
 20
0.505000
  0
VERTEX
  8
gg1
 10
2.200000
 20
0.545000
  0
SEQEND
  8
gg1
  0
POLYLINE
  8
gg1
 62
1
 40
0.000000
 41
0.000000
 66
  1
  0
VERTEX
  8
gg1
 10
2.280000
 20
0.525000
  0
VERTEX
  8
gg1
 10
2.320000
 20
0.525000
  0
SEQEND
  8
gg1
  0
POLYLINE
  8
gg1
 62
1
 40
0.000000
 41
0.000000
 66
  1
  0
VERTEX
  8
gg1
 10
2.300000
 20
0.505000
  0
VERTEX
  8
gg1
 10
2.300000
 20
0.545000
  0
SEQEND
  8
gg1
  0
POLYLINE
  8
gg1
 62
1
 40
0.000000
 41
0.000000
 66
  1
  0
VERTEX
  8
gg1
 10
2.380000
 20
0.525000
  0
VERTEX
  8
gg1
 10
2.420000
 20
0.525000
  0
SEQEND
  8
gg1
  0
POLYLINE
  8
gg1
 62
1
 40
0.000000
 41
0.000000
 66
  1
  0
VERTEX
  8
gg1
 10
2.400000
 20
0.505000
  0
VERTEX
  8
gg1
 10
2.400000
 20
0.545000
  0
SEQEND
  8
gg1
  0
POLYLINE
  8
gg1
 62
1
 40
0.000000
 41
0.000000
 66
  1
  0
VERTEX
  8
gg1
 10
2.480000
 20
0.425000
  0
VERTEX
  8
gg1
 10
2.520000
 20
0.425000
  0
SEQEND
  8
gg1
  0
POLYLINE
  8
gg1
 62
1
 40
0.000000
 41
0.000000
 66
  1
  0
VERTEX
  8
gg1
 10
2.500000
 20
0.405000
  0
VERTEX
  8
gg1
 10
2.500000
 20
0.445000
  0
SEQEND
  8
gg1
  0
POLYLINE
  8
gg1
 62
1
 40
0.000000
 41
0.000000
 66
  1
  0
VERTEX
  8
gg1
 10
2.380000
 20
0.425000
  0
VERTEX
  8
gg1
 10
2.420000
 20
0.425000
  0
SEQEND
  8
gg1
  0
POLYLINE
  8
gg1
 62
1
 40
0.000000
 41
0.000000
 66
  1
  0
VERTEX
  8
gg1
 10
2.400000
 20
0.405000
  0
VERTEX
  8
gg1
 10
2.400000
 20
0.445000
  0
SEQEND
  8
gg1
  0
POLYLINE
  8
gg1
 62
1
 40
0.000000
 41
0.000000
 66
  1
  0
VERTEX
  8
gg1
 10
2.280000
 20
0.425000
  0
VERTEX
  8
gg1
 10
2.320000
 20
0.425000
  0
SEQEND
  8
gg1
  0
POLYLINE
  8
gg1
 62
1
 40
0.000000
 41
0.000000
 66
  1
  0
VERTEX
  8
gg1
 10
2.300000
 20
0.405000
  0
VERTEX
  8
gg1
 10
2.300000
 20
0.445000
  0
SEQEND
  8
gg1
  0
POLYLINE
  8
gg1
 62
1
 40
0.000000
 41
0.000000
 66
  1
  0
VERTEX
  8
gg1
 10
2.180000
 20
0.425000
  0
VERTEX
  8
gg1
 10
2.220000
 20
0.425000
  0
SEQEND
  8
gg1
  0
POLYLINE
  8
gg1
 62
1
 40
0.000000
 41
0.000000
 66
  1
  0
VERTEX
  8
gg1
 10
2.200000
 20
0.405000
  0
VERTEX
  8
gg1
 10
2.200000
 20
0.445000
  0
SEQEND
  8
gg1
  0
POLYLINE
  8
gg1
 62
1
 40
0.000000
 41
0.000000
 66
  1
  0
VERTEX
  8
gg1
 10
2.080000
 20
0.425000
  0
VERTEX
  8
gg1
 10
2.120000
 20
0.425000
  0
SEQEND
  8
gg1
  0
POLYLINE
  8
gg1
 62
1
 40
0.000000
 41
0.000000
 66
  1
  0
VERTEX
  8
gg1
 10
2.100000
 20
0.405000
  0
VERTEX
  8
gg1
 10
2.100000
 20
0.445000
  0
SEQEND
  8
gg1
  0
POLYLINE
  8
gg1
 62
1
 40
0.000000
 41
0.000000
 66
  1
  0
VERTEX
  8
gg1
 10
1.757500
 20
0.177000
  0
VERTEX
  8
gg1
 10
1.772500
 20
0.177000
  0
SEQEND
  8
gg1
  0
POLYLINE
  8
gg1
 62
1
 40
0.000000
 41
0.000000
 66
  1
  0
VERTEX
  8
gg1
 10
1.765000
 20
0.169500
  0
VERTEX
  8
gg1
 10
1.765000
 20
0.184500
  0
SEQEND
  8
gg1
  0
POLYLINE
  8
gg1
 62
1
 40
0.000000
 41
0.000000
 66
  1
  0
VERTEX
  8
gg1
 10
3.592500
 20
0.150000
  0
VERTEX
  8
gg1
 10
3.607500
 20
0.150000
  0
SEQEND
  8
gg1
  0
POLYLINE
  8
gg1
 62
1
 40
0.000000
 41
0.000000
 66
  1
  0
VERTEX
  8
gg1
 10
3.600000
 20
0.142500
  0
VERTEX
  8
gg1
 10
3.600000
 20
0.157500
  0
SEQEND
  8
gg1
  0
POLYLINE
  8
gg1
 62
1
 40
0.000000
 41
0.000000
 66
  1
  0
VERTEX
  8
gg1
 10
3.642500
 20
0.145000
  0
VERTEX
  8
gg1
 10
3.657500
 20
0.145000
  0
SEQEND
  8
gg1
  0
POLYLINE
  8
gg1
 62
1
 40
0.000000
 41
0.000000
 66
  1
  0
VERTEX
  8
gg1
 10
3.650000
 20
0.137500
  0
VERTEX
  8
gg1
 10
3.650000
 20
0.152500
  0
SEQEND
  8
gg1
  0
POLYLINE
  8
gg1
 62
1
 40
0.000000
 41
0.000000
 66
  1
  0
VERTEX
  8
gg1
 10
2.137500
 20
0.160000
  0
VERTEX
  8
gg1
 10
2.152500
 20
0.160000
  0
SEQEND
  8
gg1
  0
POLYLINE
  8
gg1
 62
1
 40
0.000000
 41
0.000000
 66
  1
  0
VERTEX
  8
gg1
 10
2.145000
 20
0.152500
  0
VERTEX
  8
gg1
 10
2.145000
 20
0.167500
  0
SEQEND
  8
gg1
  0
POLYLINE
  8
gg1
 62
1
 40
0.000000
 41
0.000000
 66
  1
  0
VERTEX
  8
gg1
 10
2.075000
 20
0.190000
  0
VERTEX
  8
gg1
 10
2.090000
 20
0.190000
  0
SEQEND
  8
gg1
  0
POLYLINE
  8
gg1
 62
1
 40
0.000000
 41
0.000000
 66
  1
  0
VERTEX
  8
gg1
 10
2.082500
 20
0.182500
  0
VERTEX
  8
gg1
 10
2.082500
 20
0.197500
  0
SEQEND
  8
gg1
  0
POLYLINE
  8
gg1
 62
1
 40
0.000000
 41
0.000000
 66
  1
  0
VERTEX
  8
gg1
 10
2.282500
 20
0.100000
  0
VERTEX
  8
gg1
 10
2.297500
 20
0.100000
  0
SEQEND
  8
gg1
  0
POLYLINE
  8
gg1
 62
1
 40
0.000000
 41
0.000000
 66
  1
  0
VERTEX
  8
gg1
 10
2.290000
 20
0.092500
  0
VERTEX
  8
gg1
 10
2.290000
 20
0.107500
  0
SEQEND
  8
gg1
  0
POLYLINE
  8
gg1
 62
1
 40
0.000000
 41
0.000000
 66
  1
  0
VERTEX
  8
gg1
 10
1.557500
 20
0.070000
  0
VERTEX
  8
gg1
 10
1.572500
 20
0.070000
  0
SEQEND
  8
gg1
  0
POLYLINE
  8
gg1
 62
1
 40
0.000000
 41
0.000000
 66
  1
  0
VERTEX
  8
gg1
 10
1.565000
 20
0.062500
  0
VERTEX
  8
gg1
 10
1.565000
 20
0.077500
  0
SEQEND
  8
gg1
  0
POLYLINE
  8
gg1
 62
1
 40
0.000000
 41
0.000000
 66
  1
  0
VERTEX
  8
gg1
 10
1.957300
 20
0.155700
  0
VERTEX
  8
gg1
 10
1.972300
 20
0.155700
  0
SEQEND
  8
gg1
  0
POLYLINE
  8
gg1
 62
1
 40
0.000000
 41
0.000000
 66
  1
  0
VERTEX
  8
gg1
 10
1.964800
 20
0.148200
  0
VERTEX
  8
gg1
 10
1.964800
 20
0.163200
  0
SEQEND
  8
gg1
  0
POLYLINE
  8
gg1
 62
1
 40
0.000000
 41
0.000000
 66
  1
  0
VERTEX
  8
gg1
 10
2.392500
 20
0.285000
  0
VERTEX
  8
gg1
 10
2.407500
 20
0.285000
  0
SEQEND
  8
gg1
  0
POLYLINE
  8
gg1
 62
1
 40
0.000000
 41
0.000000
 66
  1
  0
VERTEX
  8
gg1
 10
2.400000
 20
0.277500
  0
VERTEX
  8
gg1
 10
2.400000
 20
0.292500
  0
SEQEND
  8
gg1
  0
POLYLINE
  8
gg1
 62
1
 40
0.000000
 41
0.000000
 66
  1
  0
VERTEX
  8
gg1
 10
2.492500
 20
0.045000
  0
VERTEX
  8
gg1
 10
2.507500
 20
0.045000
  0
SEQEND
  8
gg1
  0
POLYLINE
  8
gg1
 62
1
 40
0.000000
 41
0.000000
 66
  1
  0
VERTEX
  8
gg1
 10
2.500000
 20
0.037500
  0
VERTEX
  8
gg1
 10
2.500000
 20
0.052500
  0
SEQEND
  8
gg1
  0
POLYLINE
  8
gg1
 62
1
 40
0.000000
 41
0.000000
 66
  1
  0
VERTEX
  8
gg1
 10
2.322500
 20
0.180000
  0
VERTEX
  8
gg1
 10
2.337500
 20
0.180000
  0
SEQEND
  8
gg1
  0
POLYLINE
  8
gg1
 62
1
 40
0.000000
 41
0.000000
 66
  1
  0
VERTEX
  8
gg1
 10
2.330000
 20
0.172500
  0
VERTEX
  8
gg1
 10
2.330000
 20
0.187500
  0
SEQEND
  8
gg1
  0
POLYLINE
  8
gg1
 62
1
 40
0.000000
 41
0.000000
 66
  1
  0
VERTEX
  8
gg1
 10
2.122500
 20
0.220000
  0
VERTEX
  8
gg1
 10
2.137500
 20
0.220000
  0
SEQEND
  8
gg1
  0
POLYLINE
  8
gg1
 62
1
 40
0.000000
 41
0.000000
 66
  1
  0
VERTEX
  8
gg1
 10
2.130000
 20
0.212500
  0
VERTEX
  8
gg1
 10
2.130000
 20
0.227500
  0
SEQEND
  8
gg1
  0
POLYLINE
  8
gg1
 62
1
 40
0.000000
 41
0.000000
 66
  1
  0
VERTEX
  8
gg1
 10
1.907500
 20
0.071800
  0
VERTEX
  8
gg1
 10
1.922500
 20
0.071800
  0
SEQEND
  8
gg1
  0
POLYLINE
  8
gg1
 62
1
 40
0.000000
 41
0.000000
 66
  1
  0
VERTEX
  8
gg1
 10
1.915000
 20
0.064300
  0
VERTEX
  8
gg1
 10
1.915000
 20
0.079300
  0
SEQEND
  8
gg1
  0
POLYLINE
  8
gg1
 62
1
 40
0.000000
 41
0.000000
 66
  1
  0
VERTEX
  8
gg1
 10
0.203500
 20
0.249000
  0
VERTEX
  8
gg1
 10
0.218500
 20
0.249000
  0
SEQEND
  8
gg1
  0
POLYLINE
  8
gg1
 62
1
 40
0.000000
 41
0.000000
 66
  1
  0
VERTEX
  8
gg1
 10
0.211000
 20
0.241500
  0
VERTEX
  8
gg1
 10
0.211000
 20
0.256500
  0
SEQEND
  8
gg1
  0
POLYLINE
  8
gg1
 62
1
 40
0.000000
 41
0.000000
 66
  1
  0
VERTEX
  8
gg1
 10
0.227500
 20
0.050000
  0
VERTEX
  8
gg1
 10
0.242500
 20
0.050000
  0
SEQEND
  8
gg1
  0
POLYLINE
  8
gg1
 62
1
 40
0.000000
 41
0.000000
 66
  1
  0
VERTEX
  8
gg1
 10
0.235000
 20
0.042500
  0
VERTEX
  8
gg1
 10
0.235000
 20
0.057500
  0
SEQEND
  8
gg1
  0
POLYLINE
  8
gg1
 62
1
 40
0.000000
 41
0.000000
 66
  1
  0
VERTEX
  8
gg1
 10
3.512500
 20
0.200000
  0
VERTEX
  8
gg1
 10
3.527500
 20
0.200000
  0
SEQEND
  8
gg1
  0
POLYLINE
  8
gg1
 62
1
 40
0.000000
 41
0.000000
 66
  1
  0
VERTEX
  8
gg1
 10
3.520000
 20
0.192500
  0
VERTEX
  8
gg1
 10
3.520000
 20
0.207500
  0
SEQEND
  8
gg1
  0
POLYLINE
  8
gg1
 62
1
 40
0.000000
 41
0.000000
 66
  1
  0
VERTEX
  8
gg1
 10
3.487500
 20
0.066700
  0
VERTEX
  8
gg1
 10
3.502500
 20
0.066700
  0
SEQEND
  8
gg1
  0
POLYLINE
  8
gg1
 62
1
 40
0.000000
 41
0.000000
 66
  1
  0
VERTEX
  8
gg1
 10
3.495000
 20
0.059200
  0
VERTEX
  8
gg1
 10
3.495000
 20
0.074200
  0
SEQEND
  8
gg1
  0
POLYLINE
  8
gg1
 62
1
 40
0.000000
 41
0.000000
 66
  1
  0
VERTEX
  8
gg1
 10
3.422500
 20
0.045000
  0
VERTEX
  8
gg1
 10
3.437500
 20
0.045000
  0
SEQEND
  8
gg1
  0
POLYLINE
  8
gg1
 62
1
 40
0.000000
 41
0.000000
 66
  1
  0
VERTEX
  8
gg1
 10
3.430000
 20
0.037500
  0
VERTEX
  8
gg1
 10
3.430000
 20
0.052500
  0
SEQEND
  8
gg1
  0
POLYLINE
  8
gg1
 62
1
 40
0.000000
 41
0.000000
 66
  1
  0
VERTEX
  8
gg1
 10
1.967500
 20
0.270000
  0
VERTEX
  8
gg1
 10
1.982500
 20
0.270000
  0
SEQEND
  8
gg1
  0
POLYLINE
  8
gg1
 62
1
 40
0.000000
 41
0.000000
 66
  1
  0
VERTEX
  8
gg1
 10
1.975000
 20
0.262500
  0
VERTEX
  8
gg1
 10
1.975000
 20
0.277500
  0
SEQEND
  8
gg1
  0
POLYLINE
  8
gg1
 62
1
 40
0.000000
 41
0.000000
 66
  1
  0
VERTEX
  8
gg1
 10
2.137500
 20
0.100000
  0
VERTEX
  8
gg1
 10
2.152500
 20
0.100000
  0
SEQEND
  8
gg1
  0
POLYLINE
  8
gg1
 62
1
 40
0.000000
 41
0.000000
 66
  1
  0
VERTEX
  8
gg1
 10
2.145000
 20
0.092500
  0
VERTEX
  8
gg1
 10
2.145000
 20
0.107500
  0
SEQEND
  8
gg1
  0
POLYLINE
  8
gg1
 62
1
 40
0.000000
 41
0.000000
 66
  1
  0
VERTEX
  8
gg1
 10
2.557500
 20
0.155000
  0
VERTEX
  8
gg1
 10
2.572500
 20
0.155000
  0
SEQEND
  8
gg1
  0
POLYLINE
  8
gg1
 62
1
 40
0.000000
 41
0.000000
 66
  1
  0
VERTEX
  8
gg1
 10
2.565000
 20
0.147500
  0
VERTEX
  8
gg1
 10
2.565000
 20
0.162500
  0
SEQEND
  8
gg1
  0
POLYLINE
  8
gg1
 62
1
 40
0.000000
 41
0.000000
 66
  1
  0
VERTEX
  8
gg1
 10
2.517500
 20
0.155000
  0
VERTEX
  8
gg1
 10
2.532500
 20
0.155000
  0
SEQEND
  8
gg1
  0
POLYLINE
  8
gg1
 62
1
 40
0.000000
 41
0.000000
 66
  1
  0
VERTEX
  8
gg1
 10
2.525000
 20
0.147500
  0
VERTEX
  8
gg1
 10
2.525000
 20
0.162500
  0
SEQEND
  8
gg1
  0
POLYLINE
  8
gg1
 62
1
 40
0.000000
 41
0.000000
 66
  1
  0
VERTEX
  8
gg1
 10
2.477500
 20
0.155000
  0
VERTEX
  8
gg1
 10
2.492500
 20
0.155000
  0
SEQEND
  8
gg1
  0
POLYLINE
  8
gg1
 62
1
 40
0.000000
 41
0.000000
 66
  1
  0
VERTEX
  8
gg1
 10
2.485000
 20
0.147500
  0
VERTEX
  8
gg1
 10
2.485000
 20
0.162500
  0
SEQEND
  8
gg1
  0
POLYLINE
  8
gg1
 62
1
 40
0.000000
 41
0.000000
 66
  1
  0
VERTEX
  8
gg1
 10
2.442500
 20
0.285000
  0
VERTEX
  8
gg1
 10
2.457500
 20
0.285000
  0
SEQEND
  8
gg1
  0
POLYLINE
  8
gg1
 62
1
 40
0.000000
 41
0.000000
 66
  1
  0
VERTEX
  8
gg1
 10
2.450000
 20
0.277500
  0
VERTEX
  8
gg1
 10
2.450000
 20
0.292500
  0
SEQEND
  8
gg1
  0
POLYLINE
  8
gg1
 62
1
 40
0.000000
 41
0.000000
 66
  1
  0
VERTEX
  8
gg1
 10
2.442500
 20
0.220000
  0
VERTEX
  8
gg1
 10
2.457500
 20
0.220000
  0
SEQEND
  8
gg1
  0
POLYLINE
  8
gg1
 62
1
 40
0.000000
 41
0.000000
 66
  1
  0
VERTEX
  8
gg1
 10
2.450000
 20
0.212500
  0
VERTEX
  8
gg1
 10
2.450000
 20
0.227500
  0
SEQEND
  8
gg1
  0
POLYLINE
  8
gg1
 62
1
 40
0.000000
 41
0.000000
 66
  1
  0
VERTEX
  8
gg1
 10
2.642500
 20
0.125000
  0
VERTEX
  8
gg1
 10
2.657500
 20
0.125000
  0
SEQEND
  8
gg1
  0
POLYLINE
  8
gg1
 62
1
 40
0.000000
 41
0.000000
 66
  1
  0
VERTEX
  8
gg1
 10
2.650000
 20
0.117500
  0
VERTEX
  8
gg1
 10
2.650000
 20
0.132500
  0
SEQEND
  8
gg1
  0
POLYLINE
  8
gg1
 62
1
 40
0.000000
 41
0.000000
 66
  1
  0
VERTEX
  8
gg1
 10
2.552500
 20
0.590000
  0
VERTEX
  8
gg1
 10
2.567500
 20
0.590000
  0
SEQEND
  8
gg1
  0
POLYLINE
  8
gg1
 62
1
 40
0.000000
 41
0.000000
 66
  1
  0
VERTEX
  8
gg1
 10
2.560000
 20
0.582500
  0
VERTEX
  8
gg1
 10
2.560000
 20
0.597500
  0
SEQEND
  8
gg1
  0
POLYLINE
  8
gg1
 62
1
 40
0.000000
 41
0.000000
 66
  1
  0
VERTEX
  8
gg1
 10
0.767500
 20
0.425000
  0
VERTEX
  8
gg1
 10
0.782500
 20
0.425000
  0
SEQEND
  8
gg1
  0
POLYLINE
  8
gg1
 62
1
 40
0.000000
 41
0.000000
 66
  1
  0
VERTEX
  8
gg1
 10
0.775000
 20
0.417500
  0
VERTEX
  8
gg1
 10
0.775000
 20
0.432500
  0
SEQEND
  8
gg1
  0
POLYLINE
  8
gg1
 62
1
 40
0.000000
 41
0.000000
 66
  1
  0
VERTEX
  8
gg1
 10
2.142500
 20
0.355000
  0
VERTEX
  8
gg1
 10
2.157500
 20
0.355000
  0
SEQEND
  8
gg1
  0
POLYLINE
  8
gg1
 62
1
 40
0.000000
 41
0.000000
 66
  1
  0
VERTEX
  8
gg1
 10
2.150000
 20
0.347500
  0
VERTEX
  8
gg1
 10
2.150000
 20
0.362500
  0
SEQEND
  8
gg1
  0
POLYLINE
  8
gg1
 62
1
 40
0.000000
 41
0.000000
 66
  1
  0
VERTEX
  8
gg1
 10
2.192500
 20
0.325000
  0
VERTEX
  8
gg1
 10
2.207500
 20
0.325000
  0
SEQEND
  8
gg1
  0
POLYLINE
  8
gg1
 62
1
 40
0.000000
 41
0.000000
 66
  1
  0
VERTEX
  8
gg1
 10
2.200000
 20
0.317500
  0
VERTEX
  8
gg1
 10
2.200000
 20
0.332500
  0
SEQEND
  8
gg1
  0
POLYLINE
  8
gg1
 62
1
 40
0.000000
 41
0.000000
 66
  1
  0
VERTEX
  8
gg1
 10
2.452500
 20
0.565000
  0
VERTEX
  8
gg1
 10
2.467500
 20
0.565000
  0
SEQEND
  8
gg1
  0
POLYLINE
  8
gg1
 62
1
 40
0.000000
 41
0.000000
 66
  1
  0
VERTEX
  8
gg1
 10
2.460000
 20
0.557500
  0
VERTEX
  8
gg1
 10
2.460000
 20
0.572500
  0
SEQEND
  8
gg1
  0
POLYLINE
  8
gg1
 62
1
 40
0.000000
 41
0.000000
 66
  1
  0
VERTEX
  8
gg1
 10
0.887500
 20
0.285000
  0
VERTEX
  8
gg1
 10
0.902500
 20
0.285000
  0
SEQEND
  8
gg1
  0
POLYLINE
  8
gg1
 62
1
 40
0.000000
 41
0.000000
 66
  1
  0
VERTEX
  8
gg1
 10
0.895000
 20
0.277500
  0
VERTEX
  8
gg1
 10
0.895000
 20
0.292500
  0
SEQEND
  8
gg1
  0
POLYLINE
  8
gg1
 62
1
 40
0.000000
 41
0.000000
 66
  1
  0
VERTEX
  8
gg1
 10
2.527500
 20
0.220000
  0
VERTEX
  8
gg1
 10
2.542500
 20
0.220000
  0
SEQEND
  8
gg1
  0
POLYLINE
  8
gg1
 62
1
 40
0.000000
 41
0.000000
 66
  1
  0
VERTEX
  8
gg1
 10
2.535000
 20
0.212500
  0
VERTEX
  8
gg1
 10
2.535000
 20
0.227500
  0
SEQEND
  8
gg1
  0
POLYLINE
  8
gg1
 62
1
 40
0.000000
 41
0.000000
 66
  1
  0
VERTEX
  8
gg1
 10
2.527500
 20
0.285000
  0
VERTEX
  8
gg1
 10
2.542500
 20
0.285000
  0
SEQEND
  8
gg1
  0
POLYLINE
  8
gg1
 62
1
 40
0.000000
 41
0.000000
 66
  1
  0
VERTEX
  8
gg1
 10
2.535000
 20
0.277500
  0
VERTEX
  8
gg1
 10
2.535000
 20
0.292500
  0
SEQEND
  8
gg1
  0
POLYLINE
  8
gg1
 62
1
 40
0.000000
 41
0.000000
 66
  1
  0
VERTEX
  8
gg1
 10
2.877500
 20
0.300000
  0
VERTEX
  8
gg1
 10
2.892500
 20
0.300000
  0
SEQEND
  8
gg1
  0
POLYLINE
  8
gg1
 62
1
 40
0.000000
 41
0.000000
 66
  1
  0
VERTEX
  8
gg1
 10
2.885000
 20
0.292500
  0
VERTEX
  8
gg1
 10
2.885000
 20
0.307500
  0
SEQEND
  8
gg1
  0
POLYLINE
  8
gg1
 62
1
 40
0.000000
 41
0.000000
 66
  1
  0
VERTEX
  8
gg1
 10
0.442500
 20
0.225000
  0
VERTEX
  8
gg1
 10
0.457500
 20
0.225000
  0
SEQEND
  8
gg1
  0
POLYLINE
  8
gg1
 62
1
 40
0.000000
 41
0.000000
 66
  1
  0
VERTEX
  8
gg1
 10
0.450000
 20
0.217500
  0
VERTEX
  8
gg1
 10
0.450000
 20
0.232500
  0
SEQEND
  8
gg1
  0
POLYLINE
  8
gg1
 62
1
 40
0.000000
 41
0.000000
 66
  1
  0
VERTEX
  8
gg1
 10
0.442500
 20
0.075000
  0
VERTEX
  8
gg1
 10
0.457500
 20
0.075000
  0
SEQEND
  8
gg1
  0
POLYLINE
  8
gg1
 62
1
 40
0.000000
 41
0.000000
 66
  1
  0
VERTEX
  8
gg1
 10
0.450000
 20
0.067500
  0
VERTEX
  8
gg1
 10
0.450000
 20
0.082500
  0
SEQEND
  8
gg1
  0
POLYLINE
  8
gg1
 62
1
 40
0.000000
 41
0.000000
 66
  1
  0
VERTEX
  8
gg1
 10
2.452500
 20
0.370000
  0
VERTEX
  8
gg1
 10
2.467500
 20
0.370000
  0
SEQEND
  8
gg1
  0
POLYLINE
  8
gg1
 62
1
 40
0.000000
 41
0.000000
 66
  1
  0
VERTEX
  8
gg1
 10
2.460000
 20
0.362500
  0
VERTEX
  8
gg1
 10
2.460000
 20
0.377500
  0
SEQEND
  8
gg1
  0
POLYLINE
  8
gg1
 62
1
 40
0.000000
 41
0.000000
 66
  1
  0
VERTEX
  8
gg1
 10
0.602500
 20
0.325000
  0
VERTEX
  8
gg1
 10
0.617500
 20
0.325000
  0
SEQEND
  8
gg1
  0
POLYLINE
  8
gg1
 62
1
 40
0.000000
 41
0.000000
 66
  1
  0
VERTEX
  8
gg1
 10
0.610000
 20
0.317500
  0
VERTEX
  8
gg1
 10
0.610000
 20
0.332500
  0
SEQEND
  8
gg1
  0
POLYLINE
  8
gg1
 62
1
 40
0.000000
 41
0.000000
 66
  1
  0
VERTEX
  8
gg1
 10
2.752700
 20
0.500000
  0
VERTEX
  8
gg1
 10
2.767700
 20
0.500000
  0
SEQEND
  8
gg1
  0
POLYLINE
  8
gg1
 62
1
 40
0.000000
 41
0.000000
 66
  1
  0
VERTEX
  8
gg1
 10
2.760200
 20
0.492500
  0
VERTEX
  8
gg1
 10
2.760200
 20
0.507500
  0
SEQEND
  8
gg1
  0
POLYLINE
  8
gg1
 62
1
 40
0.000000
 41
0.000000
 66
  1
  0
VERTEX
  8
gg1
 10
2.517500
 20
0.365000
  0
VERTEX
  8
gg1
 10
2.532500
 20
0.365000
  0
SEQEND
  8
gg1
  0
POLYLINE
  8
gg1
 62
1
 40
0.000000
 41
0.000000
 66
  1
  0
VERTEX
  8
gg1
 10
2.525000
 20
0.357500
  0
VERTEX
  8
gg1
 10
2.525000
 20
0.372500
  0
SEQEND
  8
gg1
  0
POLYLINE
  8
gg1
 62
1
 40
0.000000
 41
0.000000
 66
  1
  0
VERTEX
  8
gg1
 10
2.632500
 20
0.360000
  0
VERTEX
  8
gg1
 10
2.647500
 20
0.360000
  0
SEQEND
  8
gg1
  0
POLYLINE
  8
gg1
 62
1
 40
0.000000
 41
0.000000
 66
  1
  0
VERTEX
  8
gg1
 10
2.640000
 20
0.352500
  0
VERTEX
  8
gg1
 10
2.640000
 20
0.367500
  0
SEQEND
  8
gg1
  0
POLYLINE
  8
gg1
 62
1
 40
0.000000
 41
0.000000
 66
  1
  0
VERTEX
  8
gg1
 10
2.767500
 20
0.195000
  0
VERTEX
  8
gg1
 10
2.782500
 20
0.195000
  0
SEQEND
  8
gg1
  0
POLYLINE
  8
gg1
 62
1
 40
0.000000
 41
0.000000
 66
  1
  0
VERTEX
  8
gg1
 10
2.775000
 20
0.187500
  0
VERTEX
  8
gg1
 10
2.775000
 20
0.202500
  0
SEQEND
  8
gg1
  0
POLYLINE
  8
gg1
 62
1
 40
0.000000
 41
0.000000
 66
  1
  0
VERTEX
  8
gg1
 10
1.542500
 20
0.310000
  0
VERTEX
  8
gg1
 10
1.557500
 20
0.310000
  0
SEQEND
  8
gg1
  0
POLYLINE
  8
gg1
 62
1
 40
0.000000
 41
0.000000
 66
  1
  0
VERTEX
  8
gg1
 10
1.550000
 20
0.302500
  0
VERTEX
  8
gg1
 10
1.550000
 20
0.317500
  0
SEQEND
  8
gg1
  0
POLYLINE
  8
gg1
 62
1
 40
0.000000
 41
0.000000
 66
  1
  0
VERTEX
  8
gg1
 10
2.657500
 20
0.445000
  0
VERTEX
  8
gg1
 10
2.672500
 20
0.445000
  0
SEQEND
  8
gg1
  0
POLYLINE
  8
gg1
 62
1
 40
0.000000
 41
0.000000
 66
  1
  0
VERTEX
  8
gg1
 10
2.665000
 20
0.437500
  0
VERTEX
  8
gg1
 10
2.665000
 20
0.452500
  0
SEQEND
  8
gg1
  0
POLYLINE
  8
gg1
 62
1
 40
0.000000
 41
0.000000
 66
  1
  0
VERTEX
  8
gg1
 10
2.657500
 20
0.580000
  0
VERTEX
  8
gg1
 10
2.672500
 20
0.580000
  0
SEQEND
  8
gg1
  0
POLYLINE
  8
gg1
 62
1
 40
0.000000
 41
0.000000
 66
  1
  0
VERTEX
  8
gg1
 10
2.665000
 20
0.572500
  0
VERTEX
  8
gg1
 10
2.665000
 20
0.587500
  0
SEQEND
  8
gg1
  0
POLYLINE
  8
gg1
 62
1
 40
0.000000
 41
0.000000
 66
  1
  0
VERTEX
  8
gg1
 10
0.447500
 20
0.150000
  0
VERTEX
  8
gg1
 10
0.462500
 20
0.150000
  0
SEQEND
  8
gg1
  0
POLYLINE
  8
gg1
 62
1
 40
0.000000
 41
0.000000
 66
  1
  0
VERTEX
  8
gg1
 10
0.455000
 20
0.142500
  0
VERTEX
  8
gg1
 10
0.455000
 20
0.157500
  0
SEQEND
  8
gg1
  0
POLYLINE
  8
gg1
 62
1
 40
0.000000
 41
0.000000
 66
  1
  0
VERTEX
  8
gg1
 10
0.392500
 20
0.150000
  0
VERTEX
  8
gg1
 10
0.407500
 20
0.150000
  0
SEQEND
  8
gg1
  0
POLYLINE
  8
gg1
 62
1
 40
0.000000
 41
0.000000
 66
  1
  0
VERTEX
  8
gg1
 10
0.400000
 20
0.142500
  0
VERTEX
  8
gg1
 10
0.400000
 20
0.157500
  0
SEQEND
  8
gg1
  0
POLYLINE
  8
gg1
 62
1
 40
0.000000
 41
0.000000
 66
  1
  0
VERTEX
  8
gg1
 10
3.262500
 20
0.225000
  0
VERTEX
  8
gg1
 10
3.277500
 20
0.225000
  0
SEQEND
  8
gg1
  0
POLYLINE
  8
gg1
 62
1
 40
0.000000
 41
0.000000
 66
  1
  0
VERTEX
  8
gg1
 10
3.270000
 20
0.217500
  0
VERTEX
  8
gg1
 10
3.270000
 20
0.232500
  0
SEQEND
  8
gg1
  0
POLYLINE
  8
gg1
 62
1
 40
0.000000
 41
0.000000
 66
  1
  0
VERTEX
  8
gg1
 10
3.242500
 20
0.080000
  0
VERTEX
  8
gg1
 10
3.257500
 20
0.080000
  0
SEQEND
  8
gg1
  0
POLYLINE
  8
gg1
 62
1
 40
0.000000
 41
0.000000
 66
  1
  0
VERTEX
  8
gg1
 10
3.250000
 20
0.072500
  0
VERTEX
  8
gg1
 10
3.250000
 20
0.087500
  0
SEQEND
  8
gg1
  0
POLYLINE
  8
gg1
 62
1
 40
0.000000
 41
0.000000
 66
  1
  0
VERTEX
  8
gg1
 10
3.292500
 20
0.065000
  0
VERTEX
  8
gg1
 10
3.307500
 20
0.065000
  0
SEQEND
  8
gg1
  0
POLYLINE
  8
gg1
 62
1
 40
0.000000
 41
0.000000
 66
  1
  0
VERTEX
  8
gg1
 10
3.300000
 20
0.057500
  0
VERTEX
  8
gg1
 10
3.300000
 20
0.072500
  0
SEQEND
  8
gg1
  0
POLYLINE
  8
gg1
 62
1
 40
0.000000
 41
0.000000
 66
  1
  0
VERTEX
  8
gg1
 10
3.292500
 20
0.150000
  0
VERTEX
  8
gg1
 10
3.307500
 20
0.150000
  0
SEQEND
  8
gg1
  0
POLYLINE
  8
gg1
 62
1
 40
0.000000
 41
0.000000
 66
  1
  0
VERTEX
  8
gg1
 10
3.300000
 20
0.142500
  0
VERTEX
  8
gg1
 10
3.300000
 20
0.157500
  0
SEQEND
  8
gg1
  0
POLYLINE
  8
gg1
 62
1
 40
0.000000
 41
0.000000
 66
  1
  0
VERTEX
  8
gg1
 10
3.417500
 20
0.150000
  0
VERTEX
  8
gg1
 10
3.432500
 20
0.150000
  0
SEQEND
  8
gg1
  0
POLYLINE
  8
gg1
 62
1
 40
0.000000
 41
0.000000
 66
  1
  0
VERTEX
  8
gg1
 10
3.425000
 20
0.142500
  0
VERTEX
  8
gg1
 10
3.425000
 20
0.157500
  0
SEQEND
  8
gg1
  0
POLYLINE
  8
gg1
 62
1
 40
0.000000
 41
0.000000
 66
  1
  0
VERTEX
  8
gg1
 10
2.632500
 20
0.320000
  0
VERTEX
  8
gg1
 10
2.647500
 20
0.320000
  0
SEQEND
  8
gg1
  0
POLYLINE
  8
gg1
 62
1
 40
0.000000
 41
0.000000
 66
  1
  0
VERTEX
  8
gg1
 10
2.640000
 20
0.312500
  0
VERTEX
  8
gg1
 10
2.640000
 20
0.327500
  0
SEQEND
  8
gg1
  0
POLYLINE
  8
gg1
 62
1
 40
0.000000
 41
0.000000
 66
  1
  0
VERTEX
  8
gg1
 10
3.237500
 20
0.150000
  0
VERTEX
  8
gg1
 10
3.252500
 20
0.150000
  0
SEQEND
  8
gg1
  0
POLYLINE
  8
gg1
 62
1
 40
0.000000
 41
0.000000
 66
  1
  0
VERTEX
  8
gg1
 10
3.245000
 20
0.142500
  0
VERTEX
  8
gg1
 10
3.245000
 20
0.157500
  0
SEQEND
  8
gg1
  0
POLYLINE
  8
gg1
 62
1
 40
0.000000
 41
0.000000
 66
  1
  0
VERTEX
  8
gg1
 10
3.092500
 20
0.340000
  0
VERTEX
  8
gg1
 10
3.107500
 20
0.340000
  0
SEQEND
  8
gg1
  0
POLYLINE
  8
gg1
 62
1
 40
0.000000
 41
0.000000
 66
  1
  0
VERTEX
  8
gg1
 10
3.100000
 20
0.332500
  0
VERTEX
  8
gg1
 10
3.100000
 20
0.347500
  0
SEQEND
  8
gg1
  0
POLYLINE
  8
gg1
 62
1
 40
0.000000
 41
0.000000
 66
  1
  0
VERTEX
  8
gg1
 10
1.732500
 20
0.251000
  0
VERTEX
  8
gg1
 10
1.747500
 20
0.251000
  0
SEQEND
  8
gg1
  0
POLYLINE
  8
gg1
 62
1
 40
0.000000
 41
0.000000
 66
  1
  0
VERTEX
  8
gg1
 10
1.740000
 20
0.243500
  0
VERTEX
  8
gg1
 10
1.740000
 20
0.258500
  0
SEQEND
  8
gg1
  0
POLYLINE
  8
gg1
 62
1
 40
0.000000
 41
0.000000
 66
  1
  0
VERTEX
  8
gg1
 10
1.702500
 20
0.210000
  0
VERTEX
  8
gg1
 10
1.717500
 20
0.210000
  0
SEQEND
  8
gg1
  0
POLYLINE
  8
gg1
 62
1
 40
0.000000
 41
0.000000
 66
  1
  0
VERTEX
  8
gg1
 10
1.710000
 20
0.202500
  0
VERTEX
  8
gg1
 10
1.710000
 20
0.217500
  0
SEQEND
  8
gg1
  0
POLYLINE
  8
gg1
 62
1
 40
0.000000
 41
0.000000
 66
  1
  0
VERTEX
  8
gg1
 10
1.542500
 20
0.355000
  0
VERTEX
  8
gg1
 10
1.557500
 20
0.355000
  0
SEQEND
  8
gg1
  0
POLYLINE
  8
gg1
 62
1
 40
0.000000
 41
0.000000
 66
  1
  0
VERTEX
  8
gg1
 10
1.550000
 20
0.347500
  0
VERTEX
  8
gg1
 10
1.550000
 20
0.362500
  0
SEQEND
  8
gg1
  0
POLYLINE
  8
gg1
 62
1
 40
0.000000
 41
0.000000
 66
  1
  0
VERTEX
  8
gg1
 10
0.797500
 20
0.375000
  0
VERTEX
  8
gg1
 10
0.812500
 20
0.375000
  0
SEQEND
  8
gg1
  0
POLYLINE
  8
gg1
 62
1
 40
0.000000
 41
0.000000
 66
  1
  0
VERTEX
  8
gg1
 10
0.805000
 20
0.367500
  0
VERTEX
  8
gg1
 10
0.805000
 20
0.382500
  0
SEQEND
  8
gg1
  0
POLYLINE
  8
gg1
 62
1
 40
0.000000
 41
0.000000
 66
  1
  0
VERTEX
  8
gg1
 10
1.642500
 20
0.475000
  0
VERTEX
  8
gg1
 10
1.657500
 20
0.475000
  0
SEQEND
  8
gg1
  0
POLYLINE
  8
gg1
 62
1
 40
0.000000
 41
0.000000
 66
  1
  0
VERTEX
  8
gg1
 10
1.650000
 20
0.467500
  0
VERTEX
  8
gg1
 10
1.650000
 20
0.482500
  0
SEQEND
  8
gg1
  0
POLYLINE
  8
gg1
 62
1
 40
0.000000
 41
0.000000
 66
  1
  0
VERTEX
  8
gg1
 10
1.052500
 20
0.410000
  0
VERTEX
  8
gg1
 10
1.067500
 20
0.410000
  0
SEQEND
  8
gg1
  0
POLYLINE
  8
gg1
 62
1
 40
0.000000
 41
0.000000
 66
  1
  0
VERTEX
  8
gg1
 10
1.060000
 20
0.402500
  0
VERTEX
  8
gg1
 10
1.060000
 20
0.417500
  0
SEQEND
  8
gg1
  0
POLYLINE
  8
gg1
 62
1
 40
0.000000
 41
0.000000
 66
  1
  0
VERTEX
  8
gg1
 10
1.147500
 20
0.525000
  0
VERTEX
  8
gg1
 10
1.162500
 20
0.525000
  0
SEQEND
  8
gg1
  0
POLYLINE
  8
gg1
 62
1
 40
0.000000
 41
0.000000
 66
  1
  0
VERTEX
  8
gg1
 10
1.155000
 20
0.517500
  0
VERTEX
  8
gg1
 10
1.155000
 20
0.532500
  0
SEQEND
  8
gg1
  0
POLYLINE
  8
gg1
 62
1
 40
0.000000
 41
0.000000
 66
  1
  0
VERTEX
  8
gg1
 10
1.147500
 20
0.610000
  0
VERTEX
  8
gg1
 10
1.162500
 20
0.610000
  0
SEQEND
  8
gg1
  0
POLYLINE
  8
gg1
 62
1
 40
0.000000
 41
0.000000
 66
  1
  0
VERTEX
  8
gg1
 10
1.155000
 20
0.602500
  0
VERTEX
  8
gg1
 10
1.155000
 20
0.617500
  0
SEQEND
  8
gg1
  0
POLYLINE
  8
gg1
 62
1
 40
0.000000
 41
0.000000
 66
  1
  0
VERTEX
  8
gg1
 10
1.532500
 20
0.110000
  0
VERTEX
  8
gg1
 10
1.547500
 20
0.110000
  0
SEQEND
  8
gg1
  0
POLYLINE
  8
gg1
 62
1
 40
0.000000
 41
0.000000
 66
  1
  0
VERTEX
  8
gg1
 10
1.540000
 20
0.102500
  0
VERTEX
  8
gg1
 10
1.540000
 20
0.117500
  0
SEQEND
  8
gg1
  0
POLYLINE
  8
gg1
 62
1
 40
0.000000
 41
0.000000
 66
  1
  0
VERTEX
  8
gg1
 10
1.842500
 20
0.230000
  0
VERTEX
  8
gg1
 10
1.857500
 20
0.230000
  0
SEQEND
  8
gg1
  0
POLYLINE
  8
gg1
 62
1
 40
0.000000
 41
0.000000
 66
  1
  0
VERTEX
  8
gg1
 10
1.850000
 20
0.222500
  0
VERTEX
  8
gg1
 10
1.850000
 20
0.237500
  0
SEQEND
  8
gg1
  0
POLYLINE
  8
gg1
 62
1
 40
0.000000
 41
0.000000
 66
  1
  0
VERTEX
  8
gg1
 10
2.012500
 20
0.465000
  0
VERTEX
  8
gg1
 10
2.027500
 20
0.465000
  0
SEQEND
  8
gg1
  0
POLYLINE
  8
gg1
 62
1
 40
0.000000
 41
0.000000
 66
  1
  0
VERTEX
  8
gg1
 10
2.020000
 20
0.457500
  0
VERTEX
  8
gg1
 10
2.020000
 20
0.472500
  0
SEQEND
  8
gg1
  0
POLYLINE
  8
gg1
 62
1
 40
0.000000
 41
0.000000
 66
  1
  0
VERTEX
  8
gg1
 10
0.932500
 20
0.410000
  0
VERTEX
  8
gg1
 10
0.947500
 20
0.410000
  0
SEQEND
  8
gg1
  0
POLYLINE
  8
gg1
 62
1
 40
0.000000
 41
0.000000
 66
  1
  0
VERTEX
  8
gg1
 10
0.940000
 20
0.402500
  0
VERTEX
  8
gg1
 10
0.940000
 20
0.417500
  0
SEQEND
  8
gg1
  0
POLYLINE
  8
gg1
 62
1
 40
0.000000
 41
0.000000
 66
  1
  0
VERTEX
  8
gg1
 10
0.692500
 20
0.525000
  0
VERTEX
  8
gg1
 10
0.707500
 20
0.525000
  0
SEQEND
  8
gg1
  0
POLYLINE
  8
gg1
 62
1
 40
0.000000
 41
0.000000
 66
  1
  0
VERTEX
  8
gg1
 10
0.700000
 20
0.517500
  0
VERTEX
  8
gg1
 10
0.700000
 20
0.532500
  0
SEQEND
  8
gg1
  0
POLYLINE
  8
gg1
 62
1
 40
0.000000
 41
0.000000
 66
  1
  0
VERTEX
  8
gg1
 10
1.297500
 20
0.300000
  0
VERTEX
  8
gg1
 10
1.312500
 20
0.300000
  0
SEQEND
  8
gg1
  0
POLYLINE
  8
gg1
 62
1
 40
0.000000
 41
0.000000
 66
  1
  0
VERTEX
  8
gg1
 10
1.305000
 20
0.292500
  0
VERTEX
  8
gg1
 10
1.305000
 20
0.307500
  0
SEQEND
  8
gg1
  0
POLYLINE
  8
gg1
 62
1
 40
0.000000
 41
0.000000
 66
  1
  0
VERTEX
  8
gg1
 10
0.772500
 20
0.240000
  0
VERTEX
  8
gg1
 10
0.787500
 20
0.240000
  0
SEQEND
  8
gg1
  0
POLYLINE
  8
gg1
 62
1
 40
0.000000
 41
0.000000
 66
  1
  0
VERTEX
  8
gg1
 10
0.780000
 20
0.232500
  0
VERTEX
  8
gg1
 10
0.780000
 20
0.247500
  0
SEQEND
  8
gg1
  0
POLYLINE
  8
gg1
 62
1
 40
0.000000
 41
0.000000
 66
  1
  0
VERTEX
  8
gg1
 10
1.267500
 20
0.190000
  0
VERTEX
  8
gg1
 10
1.282500
 20
0.190000
  0
SEQEND
  8
gg1
  0
POLYLINE
  8
gg1
 62
1
 40
0.000000
 41
0.000000
 66
  1
  0
VERTEX
  8
gg1
 10
1.275000
 20
0.182500
  0
VERTEX
  8
gg1
 10
1.275000
 20
0.197500
  0
SEQEND
  8
gg1
  0
POLYLINE
  8
gg1
 62
1
 40
0.000000
 41
0.000000
 66
  1
  0
VERTEX
  8
gg1
 10
1.227500
 20
0.190000
  0
VERTEX
  8
gg1
 10
1.242500
 20
0.190000
  0
SEQEND
  8
gg1
  0
POLYLINE
  8
gg1
 62
1
 40
0.000000
 41
0.000000
 66
  1
  0
VERTEX
  8
gg1
 10
1.235000
 20
0.182500
  0
VERTEX
  8
gg1
 10
1.235000
 20
0.197500
  0
SEQEND
  8
gg1
  0
POLYLINE
  8
gg1
 62
1
 40
0.000000
 41
0.000000
 66
  1
  0
VERTEX
  8
gg1
 10
1.812500
 20
0.465000
  0
VERTEX
  8
gg1
 10
1.827500
 20
0.465000
  0
SEQEND
  8
gg1
  0
POLYLINE
  8
gg1
 62
1
 40
0.000000
 41
0.000000
 66
  1
  0
VERTEX
  8
gg1
 10
1.820000
 20
0.457500
  0
VERTEX
  8
gg1
 10
1.820000
 20
0.472500
  0
SEQEND
  8
gg1
  0
POLYLINE
  8
gg1
 62
1
 40
0.000000
 41
0.000000
 66
  1
  0
VERTEX
  8
gg1
 10
2.817500
 20
0.195000
  0
VERTEX
  8
gg1
 10
2.832500
 20
0.195000
  0
SEQEND
  8
gg1
  0
POLYLINE
  8
gg1
 62
1
 40
0.000000
 41
0.000000
 66
  1
  0
VERTEX
  8
gg1
 10
2.825000
 20
0.187500
  0
VERTEX
  8
gg1
 10
2.825000
 20
0.202500
  0
SEQEND
  8
gg1
  0
POLYLINE
  8
gg1
 62
1
 40
0.000000
 41
0.000000
 66
  1
  0
VERTEX
  8
gg1
 10
2.367500
 20
0.180000
  0
VERTEX
  8
gg1
 10
2.382500
 20
0.180000
  0
SEQEND
  8
gg1
  0
POLYLINE
  8
gg1
 62
1
 40
0.000000
 41
0.000000
 66
  1
  0
VERTEX
  8
gg1
 10
2.375000
 20
0.172500
  0
VERTEX
  8
gg1
 10
2.375000
 20
0.187500
  0
SEQEND
  8
gg1
  0
POLYLINE
  8
gg1
 62
1
 40
0.000000
 41
0.000000
 66
  1
  0
VERTEX
  8
gg1
 10
2.937500
 20
0.390000
  0
VERTEX
  8
gg1
 10
2.952500
 20
0.390000
  0
SEQEND
  8
gg1
  0
POLYLINE
  8
gg1
 62
1
 40
0.000000
 41
0.000000
 66
  1
  0
VERTEX
  8
gg1
 10
2.945000
 20
0.382500
  0
VERTEX
  8
gg1
 10
2.945000
 20
0.397500
  0
SEQEND
  8
gg1
  0
POLYLINE
  8
gg1
 62
1
 40
0.000000
 41
0.000000
 66
  1
  0
VERTEX
  8
gg1
 10
2.912500
 20
0.425000
  0
VERTEX
  8
gg1
 10
2.927500
 20
0.425000
  0
SEQEND
  8
gg1
  0
POLYLINE
  8
gg1
 62
1
 40
0.000000
 41
0.000000
 66
  1
  0
VERTEX
  8
gg1
 10
2.920000
 20
0.417500
  0
VERTEX
  8
gg1
 10
2.920000
 20
0.432500
  0
SEQEND
  8
gg1
  0
POLYLINE
  8
gg1
 62
1
 40
0.000000
 41
0.000000
 66
  1
  0
VERTEX
  8
gg1
 10
1.663500
 20
0.221000
  0
VERTEX
  8
gg1
 10
1.678500
 20
0.221000
  0
SEQEND
  8
gg1
  0
POLYLINE
  8
gg1
 62
1
 40
0.000000
 41
0.000000
 66
  1
  0
VERTEX
  8
gg1
 10
1.671000
 20
0.213500
  0
VERTEX
  8
gg1
 10
1.671000
 20
0.228500
  0
SEQEND
  8
gg1
  0
POLYLINE
  8
gg1
 62
1
 40
0.000000
 41
0.000000
 66
  1
  0
VERTEX
  8
gg1
 10
2.932500
 20
0.235000
  0
VERTEX
  8
gg1
 10
2.947500
 20
0.235000
  0
SEQEND
  8
gg1
  0
POLYLINE
  8
gg1
 62
1
 40
0.000000
 41
0.000000
 66
  1
  0
VERTEX
  8
gg1
 10
2.940000
 20
0.227500
  0
VERTEX
  8
gg1
 10
2.940000
 20
0.242500
  0
SEQEND
  8
gg1
  0
POLYLINE
  8
gg1
 62
1
 40
0.000000
 41
0.000000
 66
  1
  0
VERTEX
  8
gg1
 10
2.932500
 20
0.170000
  0
VERTEX
  8
gg1
 10
2.947500
 20
0.170000
  0
SEQEND
  8
gg1
  0
POLYLINE
  8
gg1
 62
1
 40
0.000000
 41
0.000000
 66
  1
  0
VERTEX
  8
gg1
 10
2.940000
 20
0.162500
  0
VERTEX
  8
gg1
 10
2.940000
 20
0.177500
  0
SEQEND
  8
gg1
  0
POLYLINE
  8
gg1
 62
1
 40
0.000000
 41
0.000000
 66
  1
  0
VERTEX
  8
gg1
 10
2.912500
 20
0.070000
  0
VERTEX
  8
gg1
 10
2.927500
 20
0.070000
  0
SEQEND
  8
gg1
  0
POLYLINE
  8
gg1
 62
1
 40
0.000000
 41
0.000000
 66
  1
  0
VERTEX
  8
gg1
 10
2.920000
 20
0.062500
  0
VERTEX
  8
gg1
 10
2.920000
 20
0.077500
  0
SEQEND
  8
gg1
  0
POLYLINE
  8
gg1
 62
1
 40
0.000000
 41
0.000000
 66
  1
  0
VERTEX
  8
gg1
 10
2.782500
 20
0.120000
  0
VERTEX
  8
gg1
 10
2.797500
 20
0.120000
  0
SEQEND
  8
gg1
  0
POLYLINE
  8
gg1
 62
1
 40
0.000000
 41
0.000000
 66
  1
  0
VERTEX
  8
gg1
 10
2.790000
 20
0.112500
  0
VERTEX
  8
gg1
 10
2.790000
 20
0.127500
  0
SEQEND
  8
gg1
  0
POLYLINE
  8
gg1
 62
1
 40
0.000000
 41
0.000000
 66
  1
  0
VERTEX
  8
gg1
 10
2.855500
 20
0.150000
  0
VERTEX
  8
gg1
 10
2.870500
 20
0.150000
  0
SEQEND
  8
gg1
  0
POLYLINE
  8
gg1
 62
1
 40
0.000000
 41
0.000000
 66
  1
  0
VERTEX
  8
gg1
 10
2.863000
 20
0.142500
  0
VERTEX
  8
gg1
 10
2.863000
 20
0.157500
  0
SEQEND
  8
gg1
  0
POLYLINE
  8
gg1
 62
1
 40
0.000000
 41
0.000000
 66
  1
  0
VERTEX
  8
gg1
 10
0.550000
 20
0.687500
  0
VERTEX
  8
gg1
 10
0.550000
 20
0.750000
  0
SEQEND
  8
gg1
  0
POLYLINE
  8
gg1
 62
1
 40
0.000000
 41
0.000000
 66
  1
  0
VERTEX
  8
gg1
 10
0.000000
 20
0.312500
  0
VERTEX
  8
gg1
 10
0.000000
 20
0.750000
  0
SEQEND
  8
gg1
  0
POLYLINE
  8
gg1
 62
1
 40
0.000000
 41
0.000000
 66
  1
  0
VERTEX
  8
gg1
 10
0.378300
 20
0.740000
  0
VERTEX
  8
gg1
 10
0.550000
 20
0.740000
  0
SEQEND
  8
gg1
  0
POLYLINE
  8
gg1
 62
1
 40
0.000000
 41
0.000000
 66
  1
  0
VERTEX
  8
gg1
 10
0.000000
 20
0.740000
  0
VERTEX
  8
gg1
 10
0.139700
 20
0.740000
  0
SEQEND
  8
gg1
  0
POLYLINE
  8
gg1
 62
1
 40
0.000000
 41
0.000000
 66
  1
  0
VERTEX
  8
gg1
 10
0.490000
 20
0.760000
  0
VERTEX
  8
gg1
 10
0.550000
 20
0.740000
  0
SEQEND
  8
gg1
  0
POLYLINE
  8
gg1
 62
1
 40
0.000000
 41
0.000000
 66
  1
  0
VERTEX
  8
gg1
 10
0.490000
 20
0.720000
  0
VERTEX
  8
gg1
 10
0.550000
 20
0.740000
  0
SEQEND
  8
gg1
  0
POLYLINE
  8
gg1
 62
1
 40
0.000000
 41
0.000000
 66
  1
  0
VERTEX
  8
gg1
 10
0.000000
 20
0.740000
  0
VERTEX
  8
gg1
 10
0.060000
 20
0.720000
  0
SEQEND
  8
gg1
  0
POLYLINE
  8
gg1
 62
1
 40
0.000000
 41
0.000000
 66
  1
  0
VERTEX
  8
gg1
 10
0.000000
 20
0.740000
  0
VERTEX
  8
gg1
 10
0.060000
 20
0.760000
  0
SEQEND
  8
gg1
  0
POLYLINE
  8
gg1
 62
1
 40
0.000000
 41
0.000000
 66
  1
  0
VERTEX
  8
gg1
 10
-0.340000
 20
0.675000
  0
VERTEX
  8
gg1
 10
0.537500
 20
0.675000
  0
SEQEND
  8
gg1
  0
POLYLINE
  8
gg1
 62
1
 40
0.000000
 41
0.000000
 66
  1
  0
VERTEX
  8
gg1
 10
-0.340000
 20
0.300000
  0
VERTEX
  8
gg1
 10
-0.012500
 20
0.300000
  0
SEQEND
  8
gg1
  0
POLYLINE
  8
gg1
 62
1
 40
0.000000
 41
0.000000
 66
  1
  0
VERTEX
  8
gg1
 10
-0.330000
 20
0.487500
  0
VERTEX
  8
gg1
 10
-0.330000
 20
0.675000
  0
SEQEND
  8
gg1
  0
POLYLINE
  8
gg1
 62
1
 40
0.000000
 41
0.000000
 66
  1
  0
VERTEX
  8
gg1
 10
-0.330000
 20
0.300000
  0
VERTEX
  8
gg1
 10
-0.330000
 20
0.487500
  0
SEQEND
  8
gg1
  0
POLYLINE
  8
gg1
 62
1
 40
0.000000
 41
0.000000
 66
  1
  0
VERTEX
  8
gg1
 10
-0.350000
 20
0.615000
  0
VERTEX
  8
gg1
 10
-0.330000
 20
0.675000
  0
VERTEX
  8
gg1
 10
-0.310000
 20
0.615000
  0
SEQEND
  8
gg1
  0
POLYLINE
  8
gg1
 62
1
 40
0.000000
 41
0.000000
 66
  1
  0
VERTEX
  8
gg1
 10
-0.330000
 20
0.300000
  0
VERTEX
  8
gg1
 10
-0.310000
 20
0.360000
  0
SEQEND
  8
gg1
  0
POLYLINE
  8
gg1
 62
1
 40
0.000000
 41
0.000000
 66
  1
  0
VERTEX
  8
gg1
 10
-0.350000
 20
0.360000
  0
VERTEX
  8
gg1
 10
-0.330000
 20
0.300000
  0
SEQEND
  8
gg1
  0
POLYLINE
  8
gg1
 62
1
 40
0.000000
 41
0.000000
 66
  1
  0
VERTEX
  8
gg1
 10
-0.340000
 20
0.300000
  0
VERTEX
  8
gg1
 10
-0.012500
 20
0.300000
  0
SEQEND
  8
gg1
  0
POLYLINE
  8
gg1
 62
1
 40
0.000000
 41
0.000000
 66
  1
  0
VERTEX
  8
gg1
 10
-0.340000
 20
0.000000
  0
VERTEX
  8
gg1
 10
-0.012500
 20
0.000000
  0
SEQEND
  8
gg1
  0
POLYLINE
  8
gg1
 62
1
 40
0.000000
 41
0.000000
 66
  1
  0
VERTEX
  8
gg1
 10
-0.330000
 20
0.150000
  0
VERTEX
  8
gg1
 10
-0.330000
 20
0.300000
  0
SEQEND
  8
gg1
  0
POLYLINE
  8
gg1
 62
1
 40
0.000000
 41
0.000000
 66
  1
  0
VERTEX
  8
gg1
 10
-0.330000
 20
0.000000
  0
VERTEX
  8
gg1
 10
-0.330000
 20
0.150000
  0
SEQEND
  8
gg1
  0
POLYLINE
  8
gg1
 62
1
 40
0.000000
 41
0.000000
 66
  1
  0
VERTEX
  8
gg1
 10
-0.350000
 20
0.240000
  0
VERTEX
  8
gg1
 10
-0.330000
 20
0.300000
  0
VERTEX
  8
gg1
 10
-0.310000
 20
0.240000
  0
SEQEND
  8
gg1
  0
POLYLINE
  8
gg1
 62
1
 40
0.000000
 41
0.000000
 66
  1
  0
VERTEX
  8
gg1
 10
-0.330000
 20
0.000000
  0
VERTEX
  8
gg1
 10
-0.310000
 20
0.060000
  0
SEQEND
  8
gg1
  0
POLYLINE
  8
gg1
 62
1
 40
0.000000
 41
0.000000
 66
  1
  0
VERTEX
  8
gg1
 10
-0.350000
 20
0.060000
  0
VERTEX
  8
gg1
 10
-0.330000
 20
0.000000
  0
SEQEND
  8
gg1
  0
POLYLINE
  8
gg1
 62
1
 40
0.000000
 41
0.000000
 66
  1
  0
VERTEX
  8
gg1
 10
-0.525000
 20
0.675000
  0
VERTEX
  8
gg1
 10
0.537500
 20
0.675000
  0
SEQEND
  8
gg1
  0
POLYLINE
  8
gg1
 62
1
 40
0.000000
 41
0.000000
 66
  1
  0
VERTEX
  8
gg1
 10
-0.525000
 20
0.000000
  0
VERTEX
  8
gg1
 10
-0.012500
 20
0.000000
  0
SEQEND
  8
gg1
  0
POLYLINE
  8
gg1
 62
1
 40
0.000000
 41
0.000000
 66
  1
  0
VERTEX
  8
gg1
 10
-0.515000
 20
0.492400
  0
VERTEX
  8
gg1
 10
-0.515000
 20
0.675000
  0
SEQEND
  8
gg1
  0
POLYLINE
  8
gg1
 62
1
 40
0.000000
 41
0.000000
 66
  1
  0
VERTEX
  8
gg1
 10
-0.515000
 20
0.000000
  0
VERTEX
  8
gg1
 10
-0.515000
 20
0.150500
  0
SEQEND
  8
gg1
  0
POLYLINE
  8
gg1
 62
1
 40
0.000000
 41
0.000000
 66
  1
  0
VERTEX
  8
gg1
 10
-0.535000
 20
0.615000
  0
VERTEX
  8
gg1
 10
-0.515000
 20
0.675000
  0
VERTEX
  8
gg1
 10
-0.495000
 20
0.615000
  0
SEQEND
  8
gg1
  0
POLYLINE
  8
gg1
 62
1
 40
0.000000
 41
0.000000
 66
  1
  0
VERTEX
  8
gg1
 10
-0.515000
 20
0.000000
  0
VERTEX
  8
gg1
 10
-0.495000
 20
0.060000
  0
SEQEND
  8
gg1
  0
POLYLINE
  8
gg1
 62
1
 40
0.000000
 41
0.000000
 66
  1
  0
VERTEX
  8
gg1
 10
-0.535000
 20
0.060000
  0
VERTEX
  8
gg1
 10
-0.515000
 20
0.000000
  0
SEQEND
  8
gg1
  0
POLYLINE
  8
gg1
 62
1
 40
0.000000
 41
0.000000
 66
  1
  0
VERTEX
  8
gg1
 10
3.700000
 20
-0.210000
  0
VERTEX
  8
gg1
 10
3.700000
 20
-0.012500
  0
SEQEND
  8
gg1
  0
POLYLINE
  8
gg1
 62
1
 40
0.000000
 41
0.000000
 66
  1
  0
VERTEX
  8
gg1
 10
0.000000
 20
-0.210000
  0
VERTEX
  8
gg1
 10
0.000000
 20
-0.012500
  0
SEQEND
  8
gg1
  0
POLYLINE
  8
gg1
 62
1
 40
0.000000
 41
0.000000
 66
  1
  0
VERTEX
  8
gg1
 10
2.034900
 20
-0.200000
  0
VERTEX
  8
gg1
 10
3.700000
 20
-0.200000
  0
SEQEND
  8
gg1
  0
POLYLINE
  8
gg1
 62
1
 40
0.000000
 41
0.000000
 66
  1
  0
VERTEX
  8
gg1
 10
0.000000
 20
-0.200000
  0
VERTEX
  8
gg1
 10
1.633100
 20
-0.200000
  0
SEQEND
  8
gg1
  0
POLYLINE
  8
gg1
 62
1
 40
0.000000
 41
0.000000
 66
  1
  0
VERTEX
  8
gg1
 10
3.640000
 20
-0.180000
  0
VERTEX
  8
gg1
 10
3.700000
 20
-0.200000
  0
SEQEND
  8
gg1
  0
POLYLINE
  8
gg1
 62
1
 40
0.000000
 41
0.000000
 66
  1
  0
VERTEX
  8
gg1
 10
3.640000
 20
-0.220000
  0
VERTEX
  8
gg1
 10
3.700000
 20
-0.200000
  0
SEQEND
  8
gg1
  0
POLYLINE
  8
gg1
 62
1
 40
0.000000
 41
0.000000
 66
  1
  0
VERTEX
  8
gg1
 10
0.000000
 20
-0.200000
  0
VERTEX
  8
gg1
 10
0.060000
 20
-0.220000
  0
SEQEND
  8
gg1
  0
POLYLINE
  8
gg1
 62
1
 40
0.000000
 41
0.000000
 66
  1
  0
VERTEX
  8
gg1
 10
0.000000
 20
-0.200000
  0
VERTEX
  8
gg1
 10
0.060000
 20
-0.180000
  0
SEQEND
  8
gg1
  0
POLYLINE
  8
gg1
 62
1
 40
0.000000
 41
0.000000
 66
  1
  0
VERTEX
  8
gg1
 10
0.182400
 20
0.754000
  0
VERTEX
  8
gg1
 10
0.155700
 20
0.754000
  0
VERTEX
  8
gg1
 10
0.155700
 20
0.734000
  0
VERTEX
  8
gg1
 10
0.169000
 20
0.740700
  0
VERTEX
  8
gg1
 10
0.175700
 20
0.740700
  0
VERTEX
  8
gg1
 10
0.182400
 20
0.734000
  0
VERTEX
  8
gg1
 10
0.182400
 20
0.720700
  0
VERTEX
  8
gg1
 10
0.175700
 20
0.714000
  0
VERTEX
  8
gg1
 10
0.162400
 20
0.714000
  0
VERTEX
  8
gg1
 10
0.155700
 20
0.720700
  0
SEQEND
  8
gg1
  0
POLYLINE
  8
gg1
 62
1
 40
0.000000
 41
0.000000
 66
  1
  0
VERTEX
  8
gg1
 10
0.222300
 20
0.754000
  0
VERTEX
  8
gg1
 10
0.195700
 20
0.754000
  0
VERTEX
  8
gg1
 10
0.195700
 20
0.734000
  0
VERTEX
  8
gg1
 10
0.209000
 20
0.740700
  0
VERTEX
  8
gg1
 10
0.215700
 20
0.740700
  0
VERTEX
  8
gg1
 10
0.222300
 20
0.734000
  0
VERTEX
  8
gg1
 10
0.222300
 20
0.720700
  0
VERTEX
  8
gg1
 10
0.215700
 20
0.714000
  0
VERTEX
  8
gg1
 10
0.202400
 20
0.714000
  0
VERTEX
  8
gg1
 10
0.195700
 20
0.720700
  0
SEQEND
  8
gg1
  0
POLYLINE
  8
gg1
 62
1
 40
0.000000
 41
0.000000
 66
  1
  0
VERTEX
  8
gg1
 10
0.235700
 20
0.747300
  0
VERTEX
  8
gg1
 10
0.242300
 20
0.754000
  0
VERTEX
  8
gg1
 10
0.255700
 20
0.754000
  0
VERTEX
  8
gg1
 10
0.262300
 20
0.747300
  0
VERTEX
  8
gg1
 10
0.262300
 20
0.720700
  0
VERTEX
  8
gg1
 10
0.255700
 20
0.714000
  0
VERTEX
  8
gg1
 10
0.242300
 20
0.714000
  0
VERTEX
  8
gg1
 10
0.235700
 20
0.720700
  0
VERTEX
  8
gg1
 10
0.235700
 20
0.747300
  0
SEQEND
  8
gg1
  0
POLYLINE
  8
gg1
 62
1
 40
0.000000
 41
0.000000
 66
  1
  0
VERTEX
  8
gg1
 10
0.275700
 20
0.714000
  0
VERTEX
  8
gg1
 10
0.275700
 20
0.740700
  0
VERTEX
  8
gg1
 10
0.282300
 20
0.740700
  0
VERTEX
  8
gg1
 10
0.289000
 20
0.734000
  0
VERTEX
  8
gg1
 10
0.289000
 20
0.714000
  0
VERTEX
  8
gg1
 10
0.289000
 20
0.734000
  0
VERTEX
  8
gg1
 10
0.295700
 20
0.740700
  0
VERTEX
  8
gg1
 10
0.302300
 20
0.734000
  0
VERTEX
  8
gg1
 10
0.302300
 20
0.714000
  0
SEQEND
  8
gg1
  0
POLYLINE
  8
gg1
 62
1
 40
0.000000
 41
0.000000
 66
  1
  0
VERTEX
  8
gg1
 10
0.315600
 20
0.714000
  0
VERTEX
  8
gg1
 10
0.329000
 20
0.714000
  0
VERTEX
  8
gg1
 10
0.322300
 20
0.714000
  0
VERTEX
  8
gg1
 10
0.322300
 20
0.740700
  0
VERTEX
  8
gg1
 10
0.315600
 20
0.740700
  0
SEQEND
  8
gg1
  0
POLYLINE
  8
gg1
 62
1
 40
0.000000
 41
0.000000
 66
  1
  0
VERTEX
  8
gg1
 10
0.349000
 20
0.714000
  0
VERTEX
  8
gg1
 10
0.362300
 20
0.714000
  0
VERTEX
  8
gg1
 10
0.355600
 20
0.714000
  0
VERTEX
  8
gg1
 10
0.355600
 20
0.754000
  0
VERTEX
  8
gg1
 10
0.349000
 20
0.754000
  0
SEQEND
  8
gg1
  0
POLYLINE
  8
gg1
 62
1
 40
0.000000
 41
0.000000
 66
  1
  0
VERTEX
  8
gg1
 10
-0.415300
 20
0.368200
  0
VERTEX
  8
gg1
 10
-0.422000
 20
0.374900
  0
VERTEX
  8
gg1
 10
-0.422000
 20
0.388200
  0
VERTEX
  8
gg1
 10
-0.415300
 20
0.394900
  0
VERTEX
  8
gg1
 10
-0.408600
 20
0.394900
  0
VERTEX
  8
gg1
 10
-0.402000
 20
0.388200
  0
VERTEX
  8
gg1
 10
-0.402000
 20
0.381500
  0
VERTEX
  8
gg1
 10
-0.402000
 20
0.388200
  0
VERTEX
  8
gg1
 10
-0.395300
 20
0.394900
  0
VERTEX
  8
gg1
 10
-0.388700
 20
0.394900
  0
VERTEX
  8
gg1
 10
-0.382000
 20
0.388200
  0
VERTEX
  8
gg1
 10
-0.382000
 20
0.374900
  0
VERTEX
  8
gg1
 10
-0.388700
 20
0.368200
  0
SEQEND
  8
gg1
  0
POLYLINE
  8
gg1
 62
1
 40
0.000000
 41
0.000000
 66
  1
  0
VERTEX
  8
gg1
 10
-0.422000
 20
0.408200
  0
VERTEX
  8
gg1
 10
-0.422000
 20
0.434800
  0
VERTEX
  8
gg1
 10
-0.415300
 20
0.434800
  0
VERTEX
  8
gg1
 10
-0.388700
 20
0.408200
  0
VERTEX
  8
gg1
 10
-0.382000
 20
0.408200
  0
SEQEND
  8
gg1
  0
POLYLINE
  8
gg1
 62
1
 40
0.000000
 41
0.000000
 66
  1
  0
VERTEX
  8
gg1
 10
-0.422000
 20
0.474800
  0
VERTEX
  8
gg1
 10
-0.422000
 20
0.448200
  0
VERTEX
  8
gg1
 10
-0.402000
 20
0.448200
  0
VERTEX
  8
gg1
 10
-0.408600
 20
0.461500
  0
VERTEX
  8
gg1
 10
-0.408600
 20
0.468200
  0
VERTEX
  8
gg1
 10
-0.402000
 20
0.474800
  0
VERTEX
  8
gg1
 10
-0.388700
 20
0.474800
  0
VERTEX
  8
gg1
 10
-0.382000
 20
0.468200
  0
VERTEX
  8
gg1
 10
-0.382000
 20
0.454800
  0
VERTEX
  8
gg1
 10
-0.388700
 20
0.448200
  0
SEQEND
  8
gg1
  0
POLYLINE
  8
gg1
 62
1
 40
0.000000
 41
0.000000
 66
  1
  0
VERTEX
  8
gg1
 10
-0.382000
 20
0.488200
  0
VERTEX
  8
gg1
 10
-0.408600
 20
0.488200
  0
VERTEX
  8
gg1
 10
-0.408600
 20
0.494800
  0
VERTEX
  8
gg1
 10
-0.402000
 20
0.501500
  0
VERTEX
  8
gg1
 10
-0.382000
 20
0.501500
  0
VERTEX
  8
gg1
 10
-0.402000
 20
0.501500
  0
VERTEX
  8
gg1
 10
-0.408600
 20
0.508200
  0
VERTEX
  8
gg1
 10
-0.402000
 20
0.514800
  0
VERTEX
  8
gg1
 10
-0.382000
 20
0.514800
  0
SEQEND
  8
gg1
  0
POLYLINE
  8
gg1
 62
1
 40
0.000000
 41
0.000000
 66
  1
  0
VERTEX
  8
gg1
 10
-0.382000
 20
0.528100
  0
VERTEX
  8
gg1
 10
-0.382000
 20
0.541500
  0
VERTEX
  8
gg1
 10
-0.382000
 20
0.534800
  0
VERTEX
  8
gg1
 10
-0.408600
 20
0.534800
  0
VERTEX
  8
gg1
 10
-0.408600
 20
0.528100
  0
SEQEND
  8
gg1
  0
POLYLINE
  8
gg1
 62
1
 40
0.000000
 41
0.000000
 66
  1
  0
VERTEX
  8
gg1
 10
-0.382000
 20
0.561500
  0
VERTEX
  8
gg1
 10
-0.382000
 20
0.574800
  0
VERTEX
  8
gg1
 10
-0.382000
 20
0.568100
  0
VERTEX
  8
gg1
 10
-0.422000
 20
0.568100
  0
VERTEX
  8
gg1
 10
-0.422000
 20
0.561500
  0
SEQEND
  8
gg1
  0
POLYLINE
  8
gg1
 62
1
 40
0.000000
 41
0.000000
 66
  1
  0
VERTEX
  8
gg1
 10
-0.415300
 20
0.030700
  0
VERTEX
  8
gg1
 10
-0.422000
 20
0.037400
  0
VERTEX
  8
gg1
 10
-0.422000
 20
0.050700
  0
VERTEX
  8
gg1
 10
-0.415300
 20
0.057400
  0
VERTEX
  8
gg1
 10
-0.408600
 20
0.057400
  0
VERTEX
  8
gg1
 10
-0.402000
 20
0.050700
  0
VERTEX
  8
gg1
 10
-0.402000
 20
0.044000
  0
VERTEX
  8
gg1
 10
-0.402000
 20
0.050700
  0
VERTEX
  8
gg1
 10
-0.395300
 20
0.057400
  0
VERTEX
  8
gg1
 10
-0.388700
 20
0.057400
  0
VERTEX
  8
gg1
 10
-0.382000
 20
0.050700
  0
VERTEX
  8
gg1
 10
-0.382000
 20
0.037400
  0
VERTEX
  8
gg1
 10
-0.388700
 20
0.030700
  0
SEQEND
  8
gg1
  0
POLYLINE
  8
gg1
 62
1
 40
0.000000
 41
0.000000
 66
  1
  0
VERTEX
  8
gg1
 10
-0.415300
 20
0.070700
  0
VERTEX
  8
gg1
 10
-0.422000
 20
0.077400
  0
VERTEX
  8
gg1
 10
-0.422000
 20
0.090700
  0
VERTEX
  8
gg1
 10
-0.415300
 20
0.097300
  0
VERTEX
  8
gg1
 10
-0.388700
 20
0.097300
  0
VERTEX
  8
gg1
 10
-0.382000
 20
0.090700
  0
VERTEX
  8
gg1
 10
-0.382000
 20
0.077400
  0
VERTEX
  8
gg1
 10
-0.388700
 20
0.070700
  0
VERTEX
  8
gg1
 10
-0.415300
 20
0.070700
  0
SEQEND
  8
gg1
  0
POLYLINE
  8
gg1
 62
1
 40
0.000000
 41
0.000000
 66
  1
  0
VERTEX
  8
gg1
 10
-0.415300
 20
0.110700
  0
VERTEX
  8
gg1
 10
-0.422000
 20
0.117300
  0
VERTEX
  8
gg1
 10
-0.422000
 20
0.130700
  0
VERTEX
  8
gg1
 10
-0.415300
 20
0.137300
  0
VERTEX
  8
gg1
 10
-0.388700
 20
0.137300
  0
VERTEX
  8
gg1
 10
-0.382000
 20
0.130700
  0
VERTEX
  8
gg1
 10
-0.382000
 20
0.117300
  0
VERTEX
  8
gg1
 10
-0.388700
 20
0.110700
  0
VERTEX
  8
gg1
 10
-0.415300
 20
0.110700
  0
SEQEND
  8
gg1
  0
POLYLINE
  8
gg1
 62
1
 40
0.000000
 41
0.000000
 66
  1
  0
VERTEX
  8
gg1
 10
-0.382000
 20
0.150700
  0
VERTEX
  8
gg1
 10
-0.408600
 20
0.150700
  0
VERTEX
  8
gg1
 10
-0.408600
 20
0.157300
  0
VERTEX
  8
gg1
 10
-0.402000
 20
0.164000
  0
VERTEX
  8
gg1
 10
-0.382000
 20
0.164000
  0
VERTEX
  8
gg1
 10
-0.402000
 20
0.164000
  0
VERTEX
  8
gg1
 10
-0.408600
 20
0.170700
  0
VERTEX
  8
gg1
 10
-0.402000
 20
0.177300
  0
VERTEX
  8
gg1
 10
-0.382000
 20
0.177300
  0
SEQEND
  8
gg1
  0
POLYLINE
  8
gg1
 62
1
 40
0.000000
 41
0.000000
 66
  1
  0
VERTEX
  8
gg1
 10
-0.382000
 20
0.190600
  0
VERTEX
  8
gg1
 10
-0.382000
 20
0.204000
  0
VERTEX
  8
gg1
 10
-0.382000
 20
0.197300
  0
VERTEX
  8
gg1
 10
-0.408600
 20
0.197300
  0
VERTEX
  8
gg1
 10
-0.408600
 20
0.190600
  0
SEQEND
  8
gg1
  0
POLYLINE
  8
gg1
 62
1
 40
0.000000
 41
0.000000
 66
  1
  0
VERTEX
  8
gg1
 10
-0.382000
 20
0.224000
  0
VERTEX
  8
gg1
 10
-0.382000
 20
0.237300
  0
VERTEX
  8
gg1
 10
-0.382000
 20
0.230600
  0
VERTEX
  8
gg1
 10
-0.422000
 20
0.230600
  0
VERTEX
  8
gg1
 10
-0.422000
 20
0.224000
  0
SEQEND
  8
gg1
  0
POLYLINE
  8
gg1
 62
1
 40
0.000000
 41
0.000000
 66
  1
  0
VERTEX
  8
gg1
 10
-0.539000
 20
0.206500
  0
VERTEX
  8
gg1
 10
-0.529000
 20
0.186500
  0
VERTEX
  8
gg1
 10
-0.509000
 20
0.166500
  0
VERTEX
  8
gg1
 10
-0.489000
 20
0.166500
  0
VERTEX
  8
gg1
 10
-0.479000
 20
0.176500
  0
VERTEX
  8
gg1
 10
-0.479000
 20
0.196500
  0
VERTEX
  8
gg1
 10
-0.489000
 20
0.206500
  0
VERTEX
  8
gg1
 10
-0.499000
 20
0.206500
  0
VERTEX
  8
gg1
 10
-0.509000
 20
0.196500
  0
VERTEX
  8
gg1
 10
-0.509000
 20
0.166500
  0
SEQEND
  8
gg1
  0
POLYLINE
  8
gg1
 62
1
 40
0.000000
 41
0.000000
 66
  1
  0
VERTEX
  8
gg1
 10
-0.539000
 20
0.226500
  0
VERTEX
  8
gg1
 10
-0.539000
 20
0.266500
  0
VERTEX
  8
gg1
 10
-0.529000
 20
0.266500
  0
VERTEX
  8
gg1
 10
-0.489000
 20
0.226500
  0
VERTEX
  8
gg1
 10
-0.479000
 20
0.226500
  0
SEQEND
  8
gg1
  0
POLYLINE
  8
gg1
 62
1
 40
0.000000
 41
0.000000
 66
  1
  0
VERTEX
  8
gg1
 10
-0.539000
 20
0.326500
  0
VERTEX
  8
gg1
 10
-0.539000
 20
0.286500
  0
VERTEX
  8
gg1
 10
-0.509000
 20
0.286500
  0
VERTEX
  8
gg1
 10
-0.519000
 20
0.306500
  0
VERTEX
  8
gg1
 10
-0.519000
 20
0.316500
  0
VERTEX
  8
gg1
 10
-0.509000
 20
0.326500
  0
VERTEX
  8
gg1
 10
-0.489000
 20
0.326500
  0
VERTEX
  8
gg1
 10
-0.479000
 20
0.316500
  0
VERTEX
  8
gg1
 10
-0.479000
 20
0.296500
  0
VERTEX
  8
gg1
 10
-0.489000
 20
0.286500
  0
SEQEND
  8
gg1
  0
POLYLINE
  8
gg1
 62
1
 40
0.000000
 41
0.000000
 66
  1
  0
VERTEX
  8
gg1
 10
-0.479000
 20
0.346500
  0
VERTEX
  8
gg1
 10
-0.519000
 20
0.346500
  0
VERTEX
  8
gg1
 10
-0.519000
 20
0.356500
  0
VERTEX
  8
gg1
 10
-0.509000
 20
0.366500
  0
VERTEX
  8
gg1
 10
-0.479000
 20
0.366500
  0
VERTEX
  8
gg1
 10
-0.509000
 20
0.366500
  0
VERTEX
  8
gg1
 10
-0.519000
 20
0.376500
  0
VERTEX
  8
gg1
 10
-0.509000
 20
0.386500
  0
VERTEX
  8
gg1
 10
-0.479000
 20
0.386500
  0
SEQEND
  8
gg1
  0
POLYLINE
  8
gg1
 62
1
 40
0.000000
 41
0.000000
 66
  1
  0
VERTEX
  8
gg1
 10
-0.479000
 20
0.406500
  0
VERTEX
  8
gg1
 10
-0.479000
 20
0.426500
  0
VERTEX
  8
gg1
 10
-0.479000
 20
0.416500
  0
VERTEX
  8
gg1
 10
-0.519000
 20
0.416500
  0
VERTEX
  8
gg1
 10
-0.519000
 20
0.406500
  0
SEQEND
  8
gg1
  0
POLYLINE
  8
gg1
 62
1
 40
0.000000
 41
0.000000
 66
  1
  0
VERTEX
  8
gg1
 10
-0.479000
 20
0.456500
  0
VERTEX
  8
gg1
 10
-0.479000
 20
0.476400
  0
VERTEX
  8
gg1
 10
-0.479000
 20
0.466500
  0
VERTEX
  8
gg1
 10
-0.539000
 20
0.466500
  0
VERTEX
  8
gg1
 10
-0.539000
 20
0.456500
  0
SEQEND
  8
gg1
  0
POLYLINE
  8
gg1
 62
1
 40
0.000000
 41
0.000000
 66
  1
  0
VERTEX
  8
gg1
 10
1.649100
 20
-0.186000
  0
VERTEX
  8
gg1
 10
1.659100
 20
-0.176000
  0
VERTEX
  8
gg1
 10
1.679000
 20
-0.176000
  0
VERTEX
  8
gg1
 10
1.689000
 20
-0.186000
  0
VERTEX
  8
gg1
 10
1.689000
 20
-0.196000
  0
VERTEX
  8
gg1
 10
1.679000
 20
-0.206000
  0
VERTEX
  8
gg1
 10
1.669100
 20
-0.206000
  0
VERTEX
  8
gg1
 10
1.679000
 20
-0.206000
  0
VERTEX
  8
gg1
 10
1.689000
 20
-0.216000
  0
VERTEX
  8
gg1
 10
1.689000
 20
-0.226000
  0
VERTEX
  8
gg1
 10
1.679000
 20
-0.236000
  0
VERTEX
  8
gg1
 10
1.659100
 20
-0.236000
  0
VERTEX
  8
gg1
 10
1.649100
 20
-0.226000
  0
SEQEND
  8
gg1
  0
POLYLINE
  8
gg1
 62
1
 40
0.000000
 41
0.000000
 66
  1
  0
VERTEX
  8
gg1
 10
1.709000
 20
-0.176000
  0
VERTEX
  8
gg1
 10
1.749000
 20
-0.176000
  0
VERTEX
  8
gg1
 10
1.749000
 20
-0.186000
  0
VERTEX
  8
gg1
 10
1.709000
 20
-0.226000
  0
VERTEX
  8
gg1
 10
1.709000
 20
-0.236000
  0
SEQEND
  8
gg1
  0
POLYLINE
  8
gg1
 62
1
 40
0.000000
 41
0.000000
 66
  1
  0
VERTEX
  8
gg1
 10
1.769000
 20
-0.186000
  0
VERTEX
  8
gg1
 10
1.779000
 20
-0.176000
  0
VERTEX
  8
gg1
 10
1.799000
 20
-0.176000
  0
VERTEX
  8
gg1
 10
1.809000
 20
-0.186000
  0
VERTEX
  8
gg1
 10
1.809000
 20
-0.226000
  0
VERTEX
  8
gg1
 10
1.799000
 20
-0.236000
  0
VERTEX
  8
gg1
 10
1.779000
 20
-0.236000
  0
VERTEX
  8
gg1
 10
1.769000
 20
-0.226000
  0
VERTEX
  8
gg1
 10
1.769000
 20
-0.186000
  0
SEQEND
  8
gg1
  0
POLYLINE
  8
gg1
 62
1
 40
0.000000
 41
0.000000
 66
  1
  0
VERTEX
  8
gg1
 10
1.829000
 20
-0.186000
  0
VERTEX
  8
gg1
 10
1.839000
 20
-0.176000
  0
VERTEX
  8
gg1
 10
1.859000
 20
-0.176000
  0
VERTEX
  8
gg1
 10
1.869000
 20
-0.186000
  0
VERTEX
  8
gg1
 10
1.869000
 20
-0.226000
  0
VERTEX
  8
gg1
 10
1.859000
 20
-0.236000
  0
VERTEX
  8
gg1
 10
1.839000
 20
-0.236000
  0
VERTEX
  8
gg1
 10
1.829000
 20
-0.226000
  0
VERTEX
  8
gg1
 10
1.829000
 20
-0.186000
  0
SEQEND
  8
gg1
  0
POLYLINE
  8
gg1
 62
1
 40
0.000000
 41
0.000000
 66
  1
  0
VERTEX
  8
gg1
 10
1.889000
 20
-0.236000
  0
VERTEX
  8
gg1
 10
1.889000
 20
-0.196000
  0
VERTEX
  8
gg1
 10
1.899000
 20
-0.196000
  0
VERTEX
  8
gg1
 10
1.909000
 20
-0.206000
  0
VERTEX
  8
gg1
 10
1.909000
 20
-0.236000
  0
VERTEX
  8
gg1
 10
1.909000
 20
-0.206000
  0
VERTEX
  8
gg1
 10
1.919000
 20
-0.196000
  0
VERTEX
  8
gg1
 10
1.929000
 20
-0.206000
  0
VERTEX
  8
gg1
 10
1.929000
 20
-0.236000
  0
SEQEND
  8
gg1
  0
POLYLINE
  8
gg1
 62
1
 40
0.000000
 41
0.000000
 66
  1
  0
VERTEX
  8
gg1
 10
1.949000
 20
-0.236000
  0
VERTEX
  8
gg1
 10
1.969000
 20
-0.236000
  0
VERTEX
  8
gg1
 10
1.959000
 20
-0.236000
  0
VERTEX
  8
gg1
 10
1.959000
 20
-0.196000
  0
VERTEX
  8
gg1
 10
1.949000
 20
-0.196000
  0
SEQEND
  8
gg1
  0
POLYLINE
  8
gg1
 62
1
 40
0.000000
 41
0.000000
 66
  1
  0
VERTEX
  8
gg1
 10
1.998900
 20
-0.236000
  0
VERTEX
  8
gg1
 10
2.018900
 20
-0.236000
  0
VERTEX
  8
gg1
 10
2.008900
 20
-0.236000
  0
VERTEX
  8
gg1
 10
2.008900
 20
-0.176000
  0
VERTEX
  8
gg1
 10
1.998900
 20
-0.176000
  0
SEQEND
  8
gg1
  0
ENDSEC
  0
EOF
