  0
SECTION
  2
HEADER
  9
$EXTMIN
 10
-0.467000
 20
-0.234000
  9
$EXTMAX
 10
0.505000
 20
0.705000
  9
$LIMMIN
 10
-0.467000
 20
-0.234000
  9
$LIMMAX
 10
0.505000
 20
0.705000
  9
$FILLMODE
 70
  1
  0
ENDSEC
  0
SECTION
  2
TABLES
  0
TABLE
  2
LTYPE
 70
  1
  0
LTYPE
  2
CONTINUOUS
 70
 64
  3
Solid line
 72
 65
 73
  0
 40
0.0
  0
ENDTAB
  0
TABLE
  2
LAYER
 70
 1
  0
LAYER
  2
0
 70
  0
 62
7
  6
CONTINUOUS
  0
LAYER
  2
gg1
 70
  0
 62
1
  6
CONTINUOUS
  0
ENDTAB
  0
TABLE
  2
STYLE
 70
  1
  0
STYLE
  2
STANDARD
 70
  0
 40
0.0
 41
1.0
 50
0.0
 71
  0
 42
0.2
  3
txt
  4

  0
ENDTAB
  0
ENDSEC
  0
SECTION
  2
BLOCKS
  0
BLOCK
  8
0
  2
D10
 70
64
 10
0.0
 20
0.0
  3
D10
  0
CIRCLE
  8
0
 10
0.000000
 20
0.000000
 40
0.005000
 0
ENDBLK
  8
0
  0
BLOCK
  8
0
  2
D11
 70
64
 10
0.0
 20
0.0
  3
D11
  0
CIRCLE
  8
0
 10
0.000000
 20
0.000000
 40
0.002500
 0
ENDBLK
  8
0
  0
BLOCK
  8
0
  2
D12
 70
64
 10
0.0
 20
0.0
  3
D12
  0
CIRCLE
  8
0
 10
0.000000
 20
0.000000
 40
0.003000
 0
ENDBLK
  8
0
  0
ENDSEC
  0
SECTION
  2
ENTITIES
  0
POLYLINE
  8
gg1
 62
1
 40
0.000000
 41
0.000000
 66
  1
  0
VERTEX
  8
gg1
 10
0.000000
 20
-0.205000
  0
VERTEX
  8
gg1
 10
0.000000
 20
-0.010000
  0
SEQEND
  8
gg1
  0
POLYLINE
  8
gg1
 62
1
 40
0.000000
 41
0.000000
 66
  1
  0
VERTEX
  8
gg1
 10
0.500000
 20
-0.205000
  0
VERTEX
  8
gg1
 10
0.500000
 20
-0.010000
  0
SEQEND
  8
gg1
  0
POLYLINE
  8
gg1
 62
1
 40
0.000000
 41
0.000000
 66
  1
  0
VERTEX
  8
gg1
 10
0.000000
 20
-0.195000
  0
VERTEX
  8
gg1
 10
0.063100
 20
-0.195000
  0
SEQEND
  8
gg1
  0
POLYLINE
  8
gg1
 62
1
 40
0.000000
 41
0.000000
 66
  1
  0
VERTEX
  8
gg1
 10
0.404900
 20
-0.195000
  0
VERTEX
  8
gg1
 10
0.500000
 20
-0.195000
  0
SEQEND
  8
gg1
  0
POLYLINE
  8
gg1
 62
1
 40
0.000000
 41
0.000000
 66
  1
  0
VERTEX
  8
gg1
 10
0.000000
 20
-0.195000
  0
VERTEX
  8
gg1
 10
0.060000
 20
-0.215000
  0
SEQEND
  8
gg1
  0
POLYLINE
  8
gg1
 62
1
 40
0.000000
 41
0.000000
 66
  1
  0
VERTEX
  8
gg1
 10
0.000000
 20
-0.195000
  0
VERTEX
  8
gg1
 10
0.060000
 20
-0.175000
  0
SEQEND
  8
gg1
  0
POLYLINE
  8
gg1
 62
1
 40
0.000000
 41
0.000000
 66
  1
  0
VERTEX
  8
gg1
 10
0.440000
 20
-0.175000
  0
VERTEX
  8
gg1
 10
0.500000
 20
-0.195000
  0
SEQEND
  8
gg1
  0
POLYLINE
  8
gg1
 62
1
 40
0.000000
 41
0.000000
 66
  1
  0
VERTEX
  8
gg1
 10
0.440000
 20
-0.215000
  0
VERTEX
  8
gg1
 10
0.500000
 20
-0.195000
  0
SEQEND
  8
gg1
  0
POLYLINE
  8
gg1
 62
1
 40
0.000000
 41
0.000000
 66
  1
  0
VERTEX
  8
gg1
 10
-0.450000
 20
0.000000
  0
VERTEX
  8
gg1
 10
-0.010000
 20
0.000000
  0
SEQEND
  8
gg1
  0
POLYLINE
  8
gg1
 62
1
 40
0.000000
 41
0.000000
 66
  1
  0
VERTEX
  8
gg1
 10
-0.450000
 20
0.700000
  0
VERTEX
  8
gg1
 10
-0.010000
 20
0.700000
  0
SEQEND
  8
gg1
  0
POLYLINE
  8
gg1
 62
1
 40
0.000000
 41
0.000000
 66
  1
  0
VERTEX
  8
gg1
 10
-0.440000
 20
0.000000
  0
VERTEX
  8
gg1
 10
-0.440000
 20
0.163000
  0
SEQEND
  8
gg1
  0
POLYLINE
  8
gg1
 62
1
 40
0.000000
 41
0.000000
 66
  1
  0
VERTEX
  8
gg1
 10
-0.440000
 20
0.504900
  0
VERTEX
  8
gg1
 10
-0.440000
 20
0.700000
  0
SEQEND
  8
gg1
  0
POLYLINE
  8
gg1
 62
1
 40
0.000000
 41
0.000000
 66
  1
  0
VERTEX
  8
gg1
 10
-0.440000
 20
0.000000
  0
VERTEX
  8
gg1
 10
-0.420000
 20
0.060000
  0
SEQEND
  8
gg1
  0
POLYLINE
  8
gg1
 62
1
 40
0.000000
 41
0.000000
 66
  1
  0
VERTEX
  8
gg1
 10
-0.460000
 20
0.060000
  0
VERTEX
  8
gg1
 10
-0.440000
 20
0.000000
  0
SEQEND
  8
gg1
  0
POLYLINE
  8
gg1
 62
1
 40
0.000000
 41
0.000000
 66
  1
  0
VERTEX
  8
gg1
 10
-0.460000
 20
0.640000
  0
VERTEX
  8
gg1
 10
-0.440000
 20
0.700000
  0
VERTEX
  8
gg1
 10
-0.420000
 20
0.640000
  0
SEQEND
  8
gg1
  0
POLYLINE
  8
gg1
 62
1
 40
0.000000
 41
0.000000
 66
  1
  0
VERTEX
  8
gg1
 10
0.000000
 20
0.000000
  0
VERTEX
  8
gg1
 10
0.000000
 20
0.700000
  0
SEQEND
  8
gg1
  0
POLYLINE
  8
gg1
 62
1
 40
0.000000
 41
0.000000
 66
  1
  0
VERTEX
  8
gg1
 10
0.000000
 20
0.000000
  0
VERTEX
  8
gg1
 10
0.500000
 20
0.000000
  0
SEQEND
  8
gg1
  0
POLYLINE
  8
gg1
 62
1
 40
0.000000
 41
0.000000
 66
  1
  0
VERTEX
  8
gg1
 10
0.500000
 20
0.000000
  0
VERTEX
  8
gg1
 10
0.500000
 20
0.700000
  0
SEQEND
  8
gg1
  0
POLYLINE
  8
gg1
 62
1
 40
0.000000
 41
0.000000
 66
  1
  0
VERTEX
  8
gg1
 10
0.000000
 20
0.700000
  0
VERTEX
  8
gg1
 10
0.500000
 20
0.700000
  0
SEQEND
  8
gg1
  0
POLYLINE
  8
gg1
 62
1
 40
0.000000
 41
0.000000
 66
  1
  0
VERTEX
  8
gg1
 10
0.430000
 20
0.050000
  0
VERTEX
  8
gg1
 10
0.470000
 20
0.050000
  0
SEQEND
  8
gg1
  0
POLYLINE
  8
gg1
 62
1
 40
0.000000
 41
0.000000
 66
  1
  0
VERTEX
  8
gg1
 10
0.450000
 20
0.030000
  0
VERTEX
  8
gg1
 10
0.450000
 20
0.070000
  0
SEQEND
  8
gg1
  0
POLYLINE
  8
gg1
 62
1
 40
0.000000
 41
0.000000
 66
  1
  0
VERTEX
  8
gg1
 10
0.330000
 20
0.050000
  0
VERTEX
  8
gg1
 10
0.370000
 20
0.050000
  0
SEQEND
  8
gg1
  0
POLYLINE
  8
gg1
 62
1
 40
0.000000
 41
0.000000
 66
  1
  0
VERTEX
  8
gg1
 10
0.350000
 20
0.030000
  0
VERTEX
  8
gg1
 10
0.350000
 20
0.070000
  0
SEQEND
  8
gg1
  0
POLYLINE
  8
gg1
 62
1
 40
0.000000
 41
0.000000
 66
  1
  0
VERTEX
  8
gg1
 10
0.230000
 20
0.050000
  0
VERTEX
  8
gg1
 10
0.270000
 20
0.050000
  0
SEQEND
  8
gg1
  0
POLYLINE
  8
gg1
 62
1
 40
0.000000
 41
0.000000
 66
  1
  0
VERTEX
  8
gg1
 10
0.250000
 20
0.030000
  0
VERTEX
  8
gg1
 10
0.250000
 20
0.070000
  0
SEQEND
  8
gg1
  0
POLYLINE
  8
gg1
 62
1
 40
0.000000
 41
0.000000
 66
  1
  0
VERTEX
  8
gg1
 10
0.130000
 20
0.050000
  0
VERTEX
  8
gg1
 10
0.170000
 20
0.050000
  0
SEQEND
  8
gg1
  0
POLYLINE
  8
gg1
 62
1
 40
0.000000
 41
0.000000
 66
  1
  0
VERTEX
  8
gg1
 10
0.150000
 20
0.030000
  0
VERTEX
  8
gg1
 10
0.150000
 20
0.070000
  0
SEQEND
  8
gg1
  0
POLYLINE
  8
gg1
 62
1
 40
0.000000
 41
0.000000
 66
  1
  0
VERTEX
  8
gg1
 10
0.030000
 20
0.050000
  0
VERTEX
  8
gg1
 10
0.070000
 20
0.050000
  0
SEQEND
  8
gg1
  0
POLYLINE
  8
gg1
 62
1
 40
0.000000
 41
0.000000
 66
  1
  0
VERTEX
  8
gg1
 10
0.050000
 20
0.030000
  0
VERTEX
  8
gg1
 10
0.050000
 20
0.070000
  0
SEQEND
  8
gg1
  0
POLYLINE
  8
gg1
 62
1
 40
0.000000
 41
0.000000
 66
  1
  0
VERTEX
  8
gg1
 10
0.194500
 20
0.530000
  0
VERTEX
  8
gg1
 10
0.209500
 20
0.530000
  0
SEQEND
  8
gg1
  0
POLYLINE
  8
gg1
 62
1
 40
0.000000
 41
0.000000
 66
  1
  0
VERTEX
  8
gg1
 10
0.202000
 20
0.522500
  0
VERTEX
  8
gg1
 10
0.202000
 20
0.537500
  0
SEQEND
  8
gg1
  0
POLYLINE
  8
gg1
 62
1
 40
0.000000
 41
0.000000
 66
  1
  0
VERTEX
  8
gg1
 10
0.452500
 20
0.544000
  0
VERTEX
  8
gg1
 10
0.467500
 20
0.544000
  0
SEQEND
  8
gg1
  0
POLYLINE
  8
gg1
 62
1
 40
0.000000
 41
0.000000
 66
  1
  0
VERTEX
  8
gg1
 10
0.460000
 20
0.536500
  0
VERTEX
  8
gg1
 10
0.460000
 20
0.551500
  0
SEQEND
  8
gg1
  0
POLYLINE
  8
gg1
 62
1
 40
0.000000
 41
0.000000
 66
  1
  0
VERTEX
  8
gg1
 10
0.452500
 20
0.483000
  0
VERTEX
  8
gg1
 10
0.467500
 20
0.483000
  0
SEQEND
  8
gg1
  0
POLYLINE
  8
gg1
 62
1
 40
0.000000
 41
0.000000
 66
  1
  0
VERTEX
  8
gg1
 10
0.460000
 20
0.475500
  0
VERTEX
  8
gg1
 10
0.460000
 20
0.490500
  0
SEQEND
  8
gg1
  0
POLYLINE
  8
gg1
 62
1
 40
0.000000
 41
0.000000
 66
  1
  0
VERTEX
  8
gg1
 10
0.068500
 20
0.640000
  0
VERTEX
  8
gg1
 10
0.083500
 20
0.640000
  0
SEQEND
  8
gg1
  0
POLYLINE
  8
gg1
 62
1
 40
0.000000
 41
0.000000
 66
  1
  0
VERTEX
  8
gg1
 10
0.076000
 20
0.632500
  0
VERTEX
  8
gg1
 10
0.076000
 20
0.647500
  0
SEQEND
  8
gg1
  0
POLYLINE
  8
gg1
 62
1
 40
0.000000
 41
0.000000
 66
  1
  0
VERTEX
  8
gg1
 10
0.068500
 20
0.610000
  0
VERTEX
  8
gg1
 10
0.083500
 20
0.610000
  0
SEQEND
  8
gg1
  0
POLYLINE
  8
gg1
 62
1
 40
0.000000
 41
0.000000
 66
  1
  0
VERTEX
  8
gg1
 10
0.076000
 20
0.602500
  0
VERTEX
  8
gg1
 10
0.076000
 20
0.617500
  0
SEQEND
  8
gg1
  0
POLYLINE
  8
gg1
 62
1
 40
0.000000
 41
0.000000
 66
  1
  0
VERTEX
  8
gg1
 10
0.052500
 20
0.525000
  0
VERTEX
  8
gg1
 10
0.067500
 20
0.525000
  0
SEQEND
  8
gg1
  0
POLYLINE
  8
gg1
 62
1
 40
0.000000
 41
0.000000
 66
  1
  0
VERTEX
  8
gg1
 10
0.060000
 20
0.517500
  0
VERTEX
  8
gg1
 10
0.060000
 20
0.532500
  0
SEQEND
  8
gg1
  0
POLYLINE
  8
gg1
 62
1
 40
0.000000
 41
0.000000
 66
  1
  0
VERTEX
  8
gg1
 10
0.204500
 20
0.392000
  0
VERTEX
  8
gg1
 10
0.219500
 20
0.392000
  0
SEQEND
  8
gg1
  0
POLYLINE
  8
gg1
 62
1
 40
0.000000
 41
0.000000
 66
  1
  0
VERTEX
  8
gg1
 10
0.212000
 20
0.384500
  0
VERTEX
  8
gg1
 10
0.212000
 20
0.399500
  0
SEQEND
  8
gg1
  0
POLYLINE
  8
gg1
 62
1
 40
0.000000
 41
0.000000
 66
  1
  0
VERTEX
  8
gg1
 10
0.086500
 20
0.181000
  0
VERTEX
  8
gg1
 10
0.101500
 20
0.181000
  0
SEQEND
  8
gg1
  0
POLYLINE
  8
gg1
 62
1
 40
0.000000
 41
0.000000
 66
  1
  0
VERTEX
  8
gg1
 10
0.094000
 20
0.173500
  0
VERTEX
  8
gg1
 10
0.094000
 20
0.188500
  0
SEQEND
  8
gg1
  0
POLYLINE
  8
gg1
 62
1
 40
0.000000
 41
0.000000
 66
  1
  0
VERTEX
  8
gg1
 10
0.086500
 20
0.151000
  0
VERTEX
  8
gg1
 10
0.101500
 20
0.151000
  0
SEQEND
  8
gg1
  0
POLYLINE
  8
gg1
 62
1
 40
0.000000
 41
0.000000
 66
  1
  0
VERTEX
  8
gg1
 10
0.094000
 20
0.143500
  0
VERTEX
  8
gg1
 10
0.094000
 20
0.158500
  0
SEQEND
  8
gg1
  0
POLYLINE
  8
gg1
 62
1
 40
0.000000
 41
0.000000
 66
  1
  0
VERTEX
  8
gg1
 10
0.347500
 20
0.655000
  0
VERTEX
  8
gg1
 10
0.362500
 20
0.655000
  0
SEQEND
  8
gg1
  0
POLYLINE
  8
gg1
 62
1
 40
0.000000
 41
0.000000
 66
  1
  0
VERTEX
  8
gg1
 10
0.355000
 20
0.647500
  0
VERTEX
  8
gg1
 10
0.355000
 20
0.662500
  0
SEQEND
  8
gg1
  0
POLYLINE
  8
gg1
 62
1
 40
0.000000
 41
0.000000
 66
  1
  0
VERTEX
  8
gg1
 10
0.377500
 20
0.655000
  0
VERTEX
  8
gg1
 10
0.392500
 20
0.655000
  0
SEQEND
  8
gg1
  0
POLYLINE
  8
gg1
 62
1
 40
0.000000
 41
0.000000
 66
  1
  0
VERTEX
  8
gg1
 10
0.385000
 20
0.647500
  0
VERTEX
  8
gg1
 10
0.385000
 20
0.662500
  0
SEQEND
  8
gg1
  0
POLYLINE
  8
gg1
 62
1
 40
0.000000
 41
0.000000
 66
  1
  0
VERTEX
  8
gg1
 10
0.377500
 20
0.625000
  0
VERTEX
  8
gg1
 10
0.392500
 20
0.625000
  0
SEQEND
  8
gg1
  0
POLYLINE
  8
gg1
 62
1
 40
0.000000
 41
0.000000
 66
  1
  0
VERTEX
  8
gg1
 10
0.385000
 20
0.617500
  0
VERTEX
  8
gg1
 10
0.385000
 20
0.632500
  0
SEQEND
  8
gg1
  0
POLYLINE
  8
gg1
 62
1
 40
0.000000
 41
0.000000
 66
  1
  0
VERTEX
  8
gg1
 10
0.086500
 20
0.121000
  0
VERTEX
  8
gg1
 10
0.101500
 20
0.121000
  0
SEQEND
  8
gg1
  0
POLYLINE
  8
gg1
 62
1
 40
0.000000
 41
0.000000
 66
  1
  0
VERTEX
  8
gg1
 10
0.094000
 20
0.113500
  0
VERTEX
  8
gg1
 10
0.094000
 20
0.128500
  0
SEQEND
  8
gg1
  0
POLYLINE
  8
gg1
 62
1
 40
0.000000
 41
0.000000
 66
  1
  0
VERTEX
  8
gg1
 10
0.073600
 20
0.427200
  0
VERTEX
  8
gg1
 10
0.088600
 20
0.427200
  0
SEQEND
  8
gg1
  0
POLYLINE
  8
gg1
 62
1
 40
0.000000
 41
0.000000
 66
  1
  0
VERTEX
  8
gg1
 10
0.081100
 20
0.419700
  0
VERTEX
  8
gg1
 10
0.081100
 20
0.434700
  0
SEQEND
  8
gg1
  0
POLYLINE
  8
gg1
 62
1
 40
0.000000
 41
0.000000
 66
  1
  0
VERTEX
  8
gg1
 10
0.174000
 20
0.427200
  0
VERTEX
  8
gg1
 10
0.189000
 20
0.427200
  0
SEQEND
  8
gg1
  0
POLYLINE
  8
gg1
 62
1
 40
0.000000
 41
0.000000
 66
  1
  0
VERTEX
  8
gg1
 10
0.181500
 20
0.419700
  0
VERTEX
  8
gg1
 10
0.181500
 20
0.434700
  0
SEQEND
  8
gg1
  0
POLYLINE
  8
gg1
 62
1
 40
0.000000
 41
0.000000
 66
  1
  0
VERTEX
  8
gg1
 10
0.123800
 20
0.427200
  0
VERTEX
  8
gg1
 10
0.138800
 20
0.427200
  0
SEQEND
  8
gg1
  0
POLYLINE
  8
gg1
 62
1
 40
0.000000
 41
0.000000
 66
  1
  0
VERTEX
  8
gg1
 10
0.131300
 20
0.419700
  0
VERTEX
  8
gg1
 10
0.131300
 20
0.434700
  0
SEQEND
  8
gg1
  0
POLYLINE
  8
gg1
 62
1
 40
0.000000
 41
0.000000
 66
  1
  0
VERTEX
  8
gg1
 10
0.123800
 20
0.464600
  0
VERTEX
  8
gg1
 10
0.138800
 20
0.464600
  0
SEQEND
  8
gg1
  0
POLYLINE
  8
gg1
 62
1
 40
0.000000
 41
0.000000
 66
  1
  0
VERTEX
  8
gg1
 10
0.131300
 20
0.457100
  0
VERTEX
  8
gg1
 10
0.131300
 20
0.472100
  0
SEQEND
  8
gg1
  0
POLYLINE
  8
gg1
 62
1
 40
0.000000
 41
0.000000
 66
  1
  0
VERTEX
  8
gg1
 10
0.174000
 20
0.464600
  0
VERTEX
  8
gg1
 10
0.189000
 20
0.464600
  0
SEQEND
  8
gg1
  0
POLYLINE
  8
gg1
 62
1
 40
0.000000
 41
0.000000
 66
  1
  0
VERTEX
  8
gg1
 10
0.181500
 20
0.457100
  0
VERTEX
  8
gg1
 10
0.181500
 20
0.472100
  0
SEQEND
  8
gg1
  0
POLYLINE
  8
gg1
 62
1
 40
0.000000
 41
0.000000
 66
  1
  0
VERTEX
  8
gg1
 10
0.347500
 20
0.625000
  0
VERTEX
  8
gg1
 10
0.362500
 20
0.625000
  0
SEQEND
  8
gg1
  0
POLYLINE
  8
gg1
 62
1
 40
0.000000
 41
0.000000
 66
  1
  0
VERTEX
  8
gg1
 10
0.355000
 20
0.617500
  0
VERTEX
  8
gg1
 10
0.355000
 20
0.632500
  0
SEQEND
  8
gg1
  0
POLYLINE
  8
gg1
 62
1
 40
0.000000
 41
0.000000
 66
  1
  0
VERTEX
  8
gg1
 10
0.073600
 20
0.464600
  0
VERTEX
  8
gg1
 10
0.088600
 20
0.464600
  0
SEQEND
  8
gg1
  0
POLYLINE
  8
gg1
 62
1
 40
0.000000
 41
0.000000
 66
  1
  0
VERTEX
  8
gg1
 10
0.081100
 20
0.457100
  0
VERTEX
  8
gg1
 10
0.081100
 20
0.472100
  0
SEQEND
  8
gg1
  0
POLYLINE
  8
gg1
 62
1
 40
0.000000
 41
0.000000
 66
  1
  0
VERTEX
  8
gg1
 10
0.082500
 20
0.270000
  0
VERTEX
  8
gg1
 10
0.097500
 20
0.270000
  0
SEQEND
  8
gg1
  0
POLYLINE
  8
gg1
 62
1
 40
0.000000
 41
0.000000
 66
  1
  0
VERTEX
  8
gg1
 10
0.090000
 20
0.262500
  0
VERTEX
  8
gg1
 10
0.090000
 20
0.277500
  0
SEQEND
  8
gg1
  0
POLYLINE
  8
gg1
 62
1
 40
0.000000
 41
0.000000
 66
  1
  0
VERTEX
  8
gg1
 10
0.052500
 20
0.225000
  0
VERTEX
  8
gg1
 10
0.067500
 20
0.225000
  0
SEQEND
  8
gg1
  0
POLYLINE
  8
gg1
 62
1
 40
0.000000
 41
0.000000
 66
  1
  0
VERTEX
  8
gg1
 10
0.060000
 20
0.217500
  0
VERTEX
  8
gg1
 10
0.060000
 20
0.232500
  0
SEQEND
  8
gg1
  0
POLYLINE
  8
gg1
 62
1
 40
0.000000
 41
0.000000
 66
  1
  0
VERTEX
  8
gg1
 10
0.382500
 20
0.200000
  0
VERTEX
  8
gg1
 10
0.397500
 20
0.200000
  0
SEQEND
  8
gg1
  0
POLYLINE
  8
gg1
 62
1
 40
0.000000
 41
0.000000
 66
  1
  0
VERTEX
  8
gg1
 10
0.390000
 20
0.192500
  0
VERTEX
  8
gg1
 10
0.390000
 20
0.207500
  0
SEQEND
  8
gg1
  0
POLYLINE
  8
gg1
 62
1
 40
0.000000
 41
0.000000
 66
  1
  0
VERTEX
  8
gg1
 10
0.382500
 20
0.270000
  0
VERTEX
  8
gg1
 10
0.397500
 20
0.270000
  0
SEQEND
  8
gg1
  0
POLYLINE
  8
gg1
 62
1
 40
0.000000
 41
0.000000
 66
  1
  0
VERTEX
  8
gg1
 10
0.390000
 20
0.262500
  0
VERTEX
  8
gg1
 10
0.390000
 20
0.277500
  0
SEQEND
  8
gg1
  0
POLYLINE
  8
gg1
 62
1
 40
0.000000
 41
0.000000
 66
  1
  0
VERTEX
  8
gg1
 10
0.382500
 20
0.235000
  0
VERTEX
  8
gg1
 10
0.397500
 20
0.235000
  0
SEQEND
  8
gg1
  0
POLYLINE
  8
gg1
 62
1
 40
0.000000
 41
0.000000
 66
  1
  0
VERTEX
  8
gg1
 10
0.390000
 20
0.227500
  0
VERTEX
  8
gg1
 10
0.390000
 20
0.242500
  0
SEQEND
  8
gg1
  0
POLYLINE
  8
gg1
 62
1
 40
0.000000
 41
0.000000
 66
  1
  0
VERTEX
  8
gg1
 10
0.382500
 20
0.165000
  0
VERTEX
  8
gg1
 10
0.397500
 20
0.165000
  0
SEQEND
  8
gg1
  0
POLYLINE
  8
gg1
 62
1
 40
0.000000
 41
0.000000
 66
  1
  0
VERTEX
  8
gg1
 10
0.390000
 20
0.157500
  0
VERTEX
  8
gg1
 10
0.390000
 20
0.172500
  0
SEQEND
  8
gg1
  0
POLYLINE
  8
gg1
 62
1
 40
0.000000
 41
0.000000
 66
  1
  0
VERTEX
  8
gg1
 10
0.077700
 20
0.309800
  0
VERTEX
  8
gg1
 10
0.092700
 20
0.309800
  0
SEQEND
  8
gg1
  0
POLYLINE
  8
gg1
 62
1
 40
0.000000
 41
0.000000
 66
  1
  0
VERTEX
  8
gg1
 10
0.085200
 20
0.302300
  0
VERTEX
  8
gg1
 10
0.085200
 20
0.317300
  0
SEQEND
  8
gg1
  0
POLYLINE
  8
gg1
 62
1
 40
0.000000
 41
0.000000
 66
  1
  0
VERTEX
  8
gg1
 10
0.192500
 20
0.570000
  0
VERTEX
  8
gg1
 10
0.207500
 20
0.570000
  0
SEQEND
  8
gg1
  0
POLYLINE
  8
gg1
 62
1
 40
0.000000
 41
0.000000
 66
  1
  0
VERTEX
  8
gg1
 10
0.200000
 20
0.562500
  0
VERTEX
  8
gg1
 10
0.200000
 20
0.577500
  0
SEQEND
  8
gg1
  0
POLYLINE
  8
gg1
 62
1
 40
0.000000
 41
0.000000
 66
  1
  0
VERTEX
  8
gg1
 10
0.146500
 20
0.565000
  0
VERTEX
  8
gg1
 10
0.161500
 20
0.565000
  0
SEQEND
  8
gg1
  0
POLYLINE
  8
gg1
 62
1
 40
0.000000
 41
0.000000
 66
  1
  0
VERTEX
  8
gg1
 10
0.154000
 20
0.557500
  0
VERTEX
  8
gg1
 10
0.154000
 20
0.572500
  0
SEQEND
  8
gg1
  0
POLYLINE
  8
gg1
 62
1
 40
0.000000
 41
0.000000
 66
  1
  0
VERTEX
  8
gg1
 10
0.119000
 20
-0.171000
  0
VERTEX
  8
gg1
 10
0.079000
 20
-0.171000
  0
VERTEX
  8
gg1
 10
0.079000
 20
-0.201000
  0
VERTEX
  8
gg1
 10
0.099000
 20
-0.191000
  0
VERTEX
  8
gg1
 10
0.109000
 20
-0.191000
  0
VERTEX
  8
gg1
 10
0.119000
 20
-0.201000
  0
VERTEX
  8
gg1
 10
0.119000
 20
-0.221000
  0
VERTEX
  8
gg1
 10
0.109000
 20
-0.231000
  0
VERTEX
  8
gg1
 10
0.089000
 20
-0.231000
  0
VERTEX
  8
gg1
 10
0.079000
 20
-0.221000
  0
SEQEND
  8
gg1
  0
POLYLINE
  8
gg1
 62
1
 40
0.000000
 41
0.000000
 66
  1
  0
VERTEX
  8
gg1
 10
0.139000
 20
-0.181000
  0
VERTEX
  8
gg1
 10
0.149000
 20
-0.171000
  0
VERTEX
  8
gg1
 10
0.169000
 20
-0.171000
  0
VERTEX
  8
gg1
 10
0.179000
 20
-0.181000
  0
VERTEX
  8
gg1
 10
0.179000
 20
-0.221000
  0
VERTEX
  8
gg1
 10
0.169000
 20
-0.231000
  0
VERTEX
  8
gg1
 10
0.149000
 20
-0.231000
  0
VERTEX
  8
gg1
 10
0.139000
 20
-0.221000
  0
VERTEX
  8
gg1
 10
0.139000
 20
-0.181000
  0
SEQEND
  8
gg1
  0
POLYLINE
  8
gg1
 62
1
 40
0.000000
 41
0.000000
 66
  1
  0
VERTEX
  8
gg1
 10
0.199000
 20
-0.181000
  0
VERTEX
  8
gg1
 10
0.209000
 20
-0.171000
  0
VERTEX
  8
gg1
 10
0.229000
 20
-0.171000
  0
VERTEX
  8
gg1
 10
0.239000
 20
-0.181000
  0
VERTEX
  8
gg1
 10
0.239000
 20
-0.221000
  0
VERTEX
  8
gg1
 10
0.229000
 20
-0.231000
  0
VERTEX
  8
gg1
 10
0.209000
 20
-0.231000
  0
VERTEX
  8
gg1
 10
0.199000
 20
-0.221000
  0
VERTEX
  8
gg1
 10
0.199000
 20
-0.181000
  0
SEQEND
  8
gg1
  0
POLYLINE
  8
gg1
 62
1
 40
0.000000
 41
0.000000
 66
  1
  0
VERTEX
  8
gg1
 10
0.259000
 20
-0.231000
  0
VERTEX
  8
gg1
 10
0.259000
 20
-0.191000
  0
VERTEX
  8
gg1
 10
0.269000
 20
-0.191000
  0
VERTEX
  8
gg1
 10
0.279000
 20
-0.201000
  0
VERTEX
  8
gg1
 10
0.279000
 20
-0.231000
  0
VERTEX
  8
gg1
 10
0.279000
 20
-0.201000
  0
VERTEX
  8
gg1
 10
0.289000
 20
-0.191000
  0
VERTEX
  8
gg1
 10
0.299000
 20
-0.201000
  0
VERTEX
  8
gg1
 10
0.299000
 20
-0.231000
  0
SEQEND
  8
gg1
  0
POLYLINE
  8
gg1
 62
1
 40
0.000000
 41
0.000000
 66
  1
  0
VERTEX
  8
gg1
 10
0.319000
 20
-0.231000
  0
VERTEX
  8
gg1
 10
0.339000
 20
-0.231000
  0
VERTEX
  8
gg1
 10
0.329000
 20
-0.231000
  0
VERTEX
  8
gg1
 10
0.329000
 20
-0.191000
  0
VERTEX
  8
gg1
 10
0.319000
 20
-0.191000
  0
SEQEND
  8
gg1
  0
POLYLINE
  8
gg1
 62
1
 40
0.000000
 41
0.000000
 66
  1
  0
VERTEX
  8
gg1
 10
0.369000
 20
-0.231000
  0
VERTEX
  8
gg1
 10
0.388900
 20
-0.231000
  0
VERTEX
  8
gg1
 10
0.379000
 20
-0.231000
  0
VERTEX
  8
gg1
 10
0.379000
 20
-0.171000
  0
VERTEX
  8
gg1
 10
0.369000
 20
-0.171000
  0
SEQEND
  8
gg1
  0
POLYLINE
  8
gg1
 62
1
 40
0.000000
 41
0.000000
 66
  1
  0
VERTEX
  8
gg1
 10
-0.464000
 20
0.179000
  0
VERTEX
  8
gg1
 10
-0.464000
 20
0.219000
  0
VERTEX
  8
gg1
 10
-0.454000
 20
0.219000
  0
VERTEX
  8
gg1
 10
-0.414000
 20
0.179000
  0
VERTEX
  8
gg1
 10
-0.404000
 20
0.179000
  0
SEQEND
  8
gg1
  0
POLYLINE
  8
gg1
 62
1
 40
0.000000
 41
0.000000
 66
  1
  0
VERTEX
  8
gg1
 10
-0.454000
 20
0.239000
  0
VERTEX
  8
gg1
 10
-0.464000
 20
0.249000
  0
VERTEX
  8
gg1
 10
-0.464000
 20
0.269000
  0
VERTEX
  8
gg1
 10
-0.454000
 20
0.279000
  0
VERTEX
  8
gg1
 10
-0.414000
 20
0.279000
  0
VERTEX
  8
gg1
 10
-0.404000
 20
0.269000
  0
VERTEX
  8
gg1
 10
-0.404000
 20
0.249000
  0
VERTEX
  8
gg1
 10
-0.414000
 20
0.239000
  0
VERTEX
  8
gg1
 10
-0.454000
 20
0.239000
  0
SEQEND
  8
gg1
  0
POLYLINE
  8
gg1
 62
1
 40
0.000000
 41
0.000000
 66
  1
  0
VERTEX
  8
gg1
 10
-0.454000
 20
0.299000
  0
VERTEX
  8
gg1
 10
-0.464000
 20
0.309000
  0
VERTEX
  8
gg1
 10
-0.464000
 20
0.329000
  0
VERTEX
  8
gg1
 10
-0.454000
 20
0.339000
  0
VERTEX
  8
gg1
 10
-0.414000
 20
0.339000
  0
VERTEX
  8
gg1
 10
-0.404000
 20
0.329000
  0
VERTEX
  8
gg1
 10
-0.404000
 20
0.309000
  0
VERTEX
  8
gg1
 10
-0.414000
 20
0.299000
  0
VERTEX
  8
gg1
 10
-0.454000
 20
0.299000
  0
SEQEND
  8
gg1
  0
POLYLINE
  8
gg1
 62
1
 40
0.000000
 41
0.000000
 66
  1
  0
VERTEX
  8
gg1
 10
-0.404000
 20
0.359000
  0
VERTEX
  8
gg1
 10
-0.444000
 20
0.359000
  0
VERTEX
  8
gg1
 10
-0.444000
 20
0.369000
  0
VERTEX
  8
gg1
 10
-0.434000
 20
0.379000
  0
VERTEX
  8
gg1
 10
-0.404000
 20
0.379000
  0
VERTEX
  8
gg1
 10
-0.434000
 20
0.379000
  0
VERTEX
  8
gg1
 10
-0.444000
 20
0.389000
  0
VERTEX
  8
gg1
 10
-0.434000
 20
0.399000
  0
VERTEX
  8
gg1
 10
-0.404000
 20
0.399000
  0
SEQEND
  8
gg1
  0
POLYLINE
  8
gg1
 62
1
 40
0.000000
 41
0.000000
 66
  1
  0
VERTEX
  8
gg1
 10
-0.404000
 20
0.419000
  0
VERTEX
  8
gg1
 10
-0.404000
 20
0.439000
  0
VERTEX
  8
gg1
 10
-0.404000
 20
0.429000
  0
VERTEX
  8
gg1
 10
-0.444000
 20
0.429000
  0
VERTEX
  8
gg1
 10
-0.444000
 20
0.419000
  0
SEQEND
  8
gg1
  0
POLYLINE
  8
gg1
 62
1
 40
0.000000
 41
0.000000
 66
  1
  0
VERTEX
  8
gg1
 10
-0.404000
 20
0.469000
  0
VERTEX
  8
gg1
 10
-0.404000
 20
0.489000
  0
VERTEX
  8
gg1
 10
-0.404000
 20
0.479000
  0
VERTEX
  8
gg1
 10
-0.464000
 20
0.479000
  0
VERTEX
  8
gg1
 10
-0.464000
 20
0.469000
  0
SEQEND
  8
gg1
  0
ENDSEC
  0
EOF
