  0
SECTION
  2
HEADER
  9
$EXTMIN
 10
0.453000
 20
0.116000
  9
$EXTMAX
 10
1.495000
 20
0.805000
  9
$LIMMIN
 10
0.453000
 20
0.116000
  9
$LIMMAX
 10
1.495000
 20
0.805000
  9
$FILLMODE
 70
  1
  0
ENDSEC
  0
SECTION
  2
TABLES
  0
TABLE
  2
LTYPE
 70
  1
  0
LTYPE
  2
CONTINUOUS
 70
 64
  3
Solid line
 72
 65
 73
  0
 40
0.0
  0
ENDTAB
  0
TABLE
  2
LAYER
 70
 1
  0
LAYER
  2
0
 70
  0
 62
7
  6
CONTINUOUS
  0
LAYER
  2
gg1
 70
  0
 62
1
  6
CONTINUOUS
  0
ENDTAB
  0
TABLE
  2
STYLE
 70
  1
  0
STYLE
  2
STANDARD
 70
  0
 40
0.0
 41
1.0
 50
0.0
 71
  0
 42
0.2
  3
txt
  4

  0
ENDTAB
  0
ENDSEC
  0
SECTION
  2
BLOCKS
  0
BLOCK
  8
0
  2
D10
 70
64
 10
0.0
 20
0.0
  3
D10
  0
CIRCLE
  8
0
 10
0.000000
 20
0.000000
 40
0.002500
 0
ENDBLK
  8
0
  0
BLOCK
  8
0
  2
D11
 70
64
 10
0.0
 20
0.0
  3
D11
  0
CIRCLE
  8
0
 10
0.000000
 20
0.000000
 40
0.005000
 0
ENDBLK
  8
0
  0
BLOCK
  8
0
  2
D12
 70
64
 10
0.0
 20
0.0
  3
D12
  0
CIRCLE
  8
0
 10
0.000000
 20
0.000000
 40
0.003000
 0
ENDBLK
  8
0
  0
BLOCK
  8
0
  2
D13
 70
64
 10
0.0
 20
0.0
  3
D13
  0
CIRCLE
  8
0
 10
0.000000
 20
0.000000
 40
0.001000
 0
ENDBLK
  8
0
  0
ENDSEC
  0
SECTION
  2
ENTITIES
  0
POLYLINE
  8
gg1
 62
1
 40
0.000000
 41
0.000000
 66
  1
  0
VERTEX
  8
gg1
 10
0.640000
 20
0.280000
  0
VERTEX
  8
gg1
 10
0.640000
 20
0.800000
  0
VERTEX
  8
gg1
 10
1.490000
 20
0.800000
  0
SEQEND
  8
gg1
  0
POLYLINE
  8
gg1
 62
1
 40
0.000000
 41
0.000000
 66
  1
  0
VERTEX
  8
gg1
 10
1.490000
 20
0.280000
  0
VERTEX
  8
gg1
 10
1.490000
 20
0.800000
  0
SEQEND
  8
gg1
  0
POLYLINE
  8
gg1
 62
1
 40
0.000000
 41
0.000000
 66
  1
  0
VERTEX
  8
gg1
 10
0.640000
 20
0.280000
  0
VERTEX
  8
gg1
 10
1.490000
 20
0.280000
  0
SEQEND
  8
gg1
  0
POLYLINE
  8
gg1
 62
1
 40
0.000000
 41
0.000000
 66
  1
  0
VERTEX
  8
gg1
 10
0.480000
 20
0.800000
  0
VERTEX
  8
gg1
 10
0.500000
 20
0.740000
  0
SEQEND
  8
gg1
  0
POLYLINE
  8
gg1
 62
1
 40
0.000000
 41
0.000000
 66
  1
  0
VERTEX
  8
gg1
 10
0.460000
 20
0.740000
  0
VERTEX
  8
gg1
 10
0.480000
 20
0.800000
  0
SEQEND
  8
gg1
  0
POLYLINE
  8
gg1
 62
1
 40
0.000000
 41
0.000000
 66
  1
  0
VERTEX
  8
gg1
 10
0.460000
 20
0.340000
  0
VERTEX
  8
gg1
 10
0.480000
 20
0.280000
  0
VERTEX
  8
gg1
 10
0.500000
 20
0.340000
  0
SEQEND
  8
gg1
  0
POLYLINE
  8
gg1
 62
1
 40
0.000000
 41
0.000000
 66
  1
  0
VERTEX
  8
gg1
 10
0.480000
 20
0.694900
  0
VERTEX
  8
gg1
 10
0.480000
 20
0.800000
  0
SEQEND
  8
gg1
  0
POLYLINE
  8
gg1
 62
1
 40
0.000000
 41
0.000000
 66
  1
  0
VERTEX
  8
gg1
 10
0.480000
 20
0.280000
  0
VERTEX
  8
gg1
 10
0.480000
 20
0.353000
  0
SEQEND
  8
gg1
  0
POLYLINE
  8
gg1
 62
1
 40
0.000000
 41
0.000000
 66
  1
  0
VERTEX
  8
gg1
 10
0.470000
 20
0.800000
  0
VERTEX
  8
gg1
 10
0.627500
 20
0.800000
  0
SEQEND
  8
gg1
  0
POLYLINE
  8
gg1
 62
1
 40
0.000000
 41
0.000000
 66
  1
  0
VERTEX
  8
gg1
 10
0.470000
 20
0.280000
  0
VERTEX
  8
gg1
 10
0.627500
 20
0.280000
  0
SEQEND
  8
gg1
  0
POLYLINE
  8
gg1
 62
1
 40
0.000000
 41
0.000000
 66
  1
  0
VERTEX
  8
gg1
 10
0.640000
 20
0.155000
  0
VERTEX
  8
gg1
 10
0.700000
 20
0.175000
  0
SEQEND
  8
gg1
  0
POLYLINE
  8
gg1
 62
1
 40
0.000000
 41
0.000000
 66
  1
  0
VERTEX
  8
gg1
 10
0.640000
 20
0.155000
  0
VERTEX
  8
gg1
 10
0.700000
 20
0.135000
  0
SEQEND
  8
gg1
  0
POLYLINE
  8
gg1
 62
1
 40
0.000000
 41
0.000000
 66
  1
  0
VERTEX
  8
gg1
 10
1.430000
 20
0.135000
  0
VERTEX
  8
gg1
 10
1.490000
 20
0.155000
  0
SEQEND
  8
gg1
  0
POLYLINE
  8
gg1
 62
1
 40
0.000000
 41
0.000000
 66
  1
  0
VERTEX
  8
gg1
 10
1.430000
 20
0.175000
  0
VERTEX
  8
gg1
 10
1.490000
 20
0.155000
  0
SEQEND
  8
gg1
  0
POLYLINE
  8
gg1
 62
1
 40
0.000000
 41
0.000000
 66
  1
  0
VERTEX
  8
gg1
 10
0.640000
 20
0.155000
  0
VERTEX
  8
gg1
 10
0.878100
 20
0.155000
  0
SEQEND
  8
gg1
  0
POLYLINE
  8
gg1
 62
1
 40
0.000000
 41
0.000000
 66
  1
  0
VERTEX
  8
gg1
 10
1.219900
 20
0.155000
  0
VERTEX
  8
gg1
 10
1.490000
 20
0.155000
  0
SEQEND
  8
gg1
  0
POLYLINE
  8
gg1
 62
1
 40
0.000000
 41
0.000000
 66
  1
  0
VERTEX
  8
gg1
 10
0.640000
 20
0.145000
  0
VERTEX
  8
gg1
 10
0.640000
 20
0.267500
  0
SEQEND
  8
gg1
  0
POLYLINE
  8
gg1
 62
1
 40
0.000000
 41
0.000000
 66
  1
  0
VERTEX
  8
gg1
 10
1.490000
 20
0.145000
  0
VERTEX
  8
gg1
 10
1.490000
 20
0.267500
  0
SEQEND
  8
gg1
  0
POLYLINE
  8
gg1
 62
1
 40
0.000000
 41
0.000000
 66
  1
  0
VERTEX
  8
gg1
 10
0.456000
 20
0.409000
  0
VERTEX
  8
gg1
 10
0.456000
 20
0.369000
  0
VERTEX
  8
gg1
 10
0.486000
 20
0.369000
  0
VERTEX
  8
gg1
 10
0.476000
 20
0.389000
  0
VERTEX
  8
gg1
 10
0.476000
 20
0.399000
  0
VERTEX
  8
gg1
 10
0.486000
 20
0.409000
  0
VERTEX
  8
gg1
 10
0.506000
 20
0.409000
  0
VERTEX
  8
gg1
 10
0.516000
 20
0.399000
  0
VERTEX
  8
gg1
 10
0.516000
 20
0.379000
  0
VERTEX
  8
gg1
 10
0.506000
 20
0.369000
  0
SEQEND
  8
gg1
  0
POLYLINE
  8
gg1
 62
1
 40
0.000000
 41
0.000000
 66
  1
  0
VERTEX
  8
gg1
 10
0.516000
 20
0.469000
  0
VERTEX
  8
gg1
 10
0.516000
 20
0.429000
  0
VERTEX
  8
gg1
 10
0.476000
 20
0.469000
  0
VERTEX
  8
gg1
 10
0.466000
 20
0.469000
  0
VERTEX
  8
gg1
 10
0.456000
 20
0.459000
  0
VERTEX
  8
gg1
 10
0.456000
 20
0.439000
  0
VERTEX
  8
gg1
 10
0.466000
 20
0.429000
  0
SEQEND
  8
gg1
  0
POLYLINE
  8
gg1
 62
1
 40
0.000000
 41
0.000000
 66
  1
  0
VERTEX
  8
gg1
 10
0.466000
 20
0.489000
  0
VERTEX
  8
gg1
 10
0.456000
 20
0.499000
  0
VERTEX
  8
gg1
 10
0.456000
 20
0.519000
  0
VERTEX
  8
gg1
 10
0.466000
 20
0.529000
  0
VERTEX
  8
gg1
 10
0.506000
 20
0.529000
  0
VERTEX
  8
gg1
 10
0.516000
 20
0.519000
  0
VERTEX
  8
gg1
 10
0.516000
 20
0.499000
  0
VERTEX
  8
gg1
 10
0.506000
 20
0.489000
  0
VERTEX
  8
gg1
 10
0.466000
 20
0.489000
  0
SEQEND
  8
gg1
  0
POLYLINE
  8
gg1
 62
1
 40
0.000000
 41
0.000000
 66
  1
  0
VERTEX
  8
gg1
 10
0.516000
 20
0.549000
  0
VERTEX
  8
gg1
 10
0.476000
 20
0.549000
  0
VERTEX
  8
gg1
 10
0.476000
 20
0.559000
  0
VERTEX
  8
gg1
 10
0.486000
 20
0.569000
  0
VERTEX
  8
gg1
 10
0.516000
 20
0.569000
  0
VERTEX
  8
gg1
 10
0.486000
 20
0.569000
  0
VERTEX
  8
gg1
 10
0.476000
 20
0.579000
  0
VERTEX
  8
gg1
 10
0.486000
 20
0.589000
  0
VERTEX
  8
gg1
 10
0.516000
 20
0.589000
  0
SEQEND
  8
gg1
  0
POLYLINE
  8
gg1
 62
1
 40
0.000000
 41
0.000000
 66
  1
  0
VERTEX
  8
gg1
 10
0.516000
 20
0.609000
  0
VERTEX
  8
gg1
 10
0.516000
 20
0.629000
  0
VERTEX
  8
gg1
 10
0.516000
 20
0.619000
  0
VERTEX
  8
gg1
 10
0.476000
 20
0.619000
  0
VERTEX
  8
gg1
 10
0.476000
 20
0.609000
  0
SEQEND
  8
gg1
  0
POLYLINE
  8
gg1
 62
1
 40
0.000000
 41
0.000000
 66
  1
  0
VERTEX
  8
gg1
 10
0.516000
 20
0.659000
  0
VERTEX
  8
gg1
 10
0.516000
 20
0.679000
  0
VERTEX
  8
gg1
 10
0.516000
 20
0.669000
  0
VERTEX
  8
gg1
 10
0.456000
 20
0.669000
  0
VERTEX
  8
gg1
 10
0.456000
 20
0.659000
  0
SEQEND
  8
gg1
  0
POLYLINE
  8
gg1
 62
1
 40
0.000000
 41
0.000000
 66
  1
  0
VERTEX
  8
gg1
 10
0.894100
 20
0.169000
  0
VERTEX
  8
gg1
 10
0.904000
 20
0.179000
  0
VERTEX
  8
gg1
 10
0.924000
 20
0.179000
  0
VERTEX
  8
gg1
 10
0.934000
 20
0.169000
  0
VERTEX
  8
gg1
 10
0.934000
 20
0.159000
  0
VERTEX
  8
gg1
 10
0.924000
 20
0.149000
  0
VERTEX
  8
gg1
 10
0.934000
 20
0.139000
  0
VERTEX
  8
gg1
 10
0.934000
 20
0.129000
  0
VERTEX
  8
gg1
 10
0.924000
 20
0.119000
  0
VERTEX
  8
gg1
 10
0.904000
 20
0.119000
  0
VERTEX
  8
gg1
 10
0.894100
 20
0.129000
  0
VERTEX
  8
gg1
 10
0.894100
 20
0.139000
  0
VERTEX
  8
gg1
 10
0.904000
 20
0.149000
  0
VERTEX
  8
gg1
 10
0.894100
 20
0.159000
  0
VERTEX
  8
gg1
 10
0.894100
 20
0.169000
  0
SEQEND
  8
gg1
  0
POLYLINE
  8
gg1
 62
1
 40
0.000000
 41
0.000000
 66
  1
  0
VERTEX
  8
gg1
 10
0.904000
 20
0.149000
  0
VERTEX
  8
gg1
 10
0.924000
 20
0.149000
  0
SEQEND
  8
gg1
  0
POLYLINE
  8
gg1
 62
1
 40
0.000000
 41
0.000000
 66
  1
  0
VERTEX
  8
gg1
 10
0.994000
 20
0.179000
  0
VERTEX
  8
gg1
 10
0.954000
 20
0.179000
  0
VERTEX
  8
gg1
 10
0.954000
 20
0.149000
  0
VERTEX
  8
gg1
 10
0.974000
 20
0.159000
  0
VERTEX
  8
gg1
 10
0.984000
 20
0.159000
  0
VERTEX
  8
gg1
 10
0.994000
 20
0.149000
  0
VERTEX
  8
gg1
 10
0.994000
 20
0.129000
  0
VERTEX
  8
gg1
 10
0.984000
 20
0.119000
  0
VERTEX
  8
gg1
 10
0.964000
 20
0.119000
  0
VERTEX
  8
gg1
 10
0.954000
 20
0.129000
  0
SEQEND
  8
gg1
  0
POLYLINE
  8
gg1
 62
1
 40
0.000000
 41
0.000000
 66
  1
  0
VERTEX
  8
gg1
 10
1.014000
 20
0.169000
  0
VERTEX
  8
gg1
 10
1.024000
 20
0.179000
  0
VERTEX
  8
gg1
 10
1.044000
 20
0.179000
  0
VERTEX
  8
gg1
 10
1.054000
 20
0.169000
  0
VERTEX
  8
gg1
 10
1.054000
 20
0.129000
  0
VERTEX
  8
gg1
 10
1.044000
 20
0.119000
  0
VERTEX
  8
gg1
 10
1.024000
 20
0.119000
  0
VERTEX
  8
gg1
 10
1.014000
 20
0.129000
  0
VERTEX
  8
gg1
 10
1.014000
 20
0.169000
  0
SEQEND
  8
gg1
  0
POLYLINE
  8
gg1
 62
1
 40
0.000000
 41
0.000000
 66
  1
  0
VERTEX
  8
gg1
 10
1.074000
 20
0.119000
  0
VERTEX
  8
gg1
 10
1.074000
 20
0.159000
  0
VERTEX
  8
gg1
 10
1.084000
 20
0.159000
  0
VERTEX
  8
gg1
 10
1.094000
 20
0.149000
  0
VERTEX
  8
gg1
 10
1.094000
 20
0.119000
  0
VERTEX
  8
gg1
 10
1.094000
 20
0.149000
  0
VERTEX
  8
gg1
 10
1.104000
 20
0.159000
  0
VERTEX
  8
gg1
 10
1.114000
 20
0.149000
  0
VERTEX
  8
gg1
 10
1.114000
 20
0.119000
  0
SEQEND
  8
gg1
  0
POLYLINE
  8
gg1
 62
1
 40
0.000000
 41
0.000000
 66
  1
  0
VERTEX
  8
gg1
 10
1.134000
 20
0.119000
  0
VERTEX
  8
gg1
 10
1.154000
 20
0.119000
  0
VERTEX
  8
gg1
 10
1.144000
 20
0.119000
  0
VERTEX
  8
gg1
 10
1.144000
 20
0.159000
  0
VERTEX
  8
gg1
 10
1.134000
 20
0.159000
  0
SEQEND
  8
gg1
  0
POLYLINE
  8
gg1
 62
1
 40
0.000000
 41
0.000000
 66
  1
  0
VERTEX
  8
gg1
 10
1.184000
 20
0.119000
  0
VERTEX
  8
gg1
 10
1.204000
 20
0.119000
  0
VERTEX
  8
gg1
 10
1.194000
 20
0.119000
  0
VERTEX
  8
gg1
 10
1.194000
 20
0.179000
  0
VERTEX
  8
gg1
 10
1.184000
 20
0.179000
  0
SEQEND
  8
gg1
  0
POLYLINE
  8
gg1
 62
1
 40
0.000000
 41
0.000000
 66
  1
  0
VERTEX
  8
gg1
 10
1.245000
 20
0.340000
  0
VERTEX
  8
gg1
 10
1.285000
 20
0.340000
  0
SEQEND
  8
gg1
  0
POLYLINE
  8
gg1
 62
1
 40
0.000000
 41
0.000000
 66
  1
  0
VERTEX
  8
gg1
 10
1.265000
 20
0.320000
  0
VERTEX
  8
gg1
 10
1.265000
 20
0.360000
  0
SEQEND
  8
gg1
  0
POLYLINE
  8
gg1
 62
1
 40
0.000000
 41
0.000000
 66
  1
  0
VERTEX
  8
gg1
 10
1.145000
 20
0.340000
  0
VERTEX
  8
gg1
 10
1.185000
 20
0.340000
  0
SEQEND
  8
gg1
  0
POLYLINE
  8
gg1
 62
1
 40
0.000000
 41
0.000000
 66
  1
  0
VERTEX
  8
gg1
 10
1.165000
 20
0.320000
  0
VERTEX
  8
gg1
 10
1.165000
 20
0.360000
  0
SEQEND
  8
gg1
  0
POLYLINE
  8
gg1
 62
1
 40
0.000000
 41
0.000000
 66
  1
  0
VERTEX
  8
gg1
 10
1.045000
 20
0.340000
  0
VERTEX
  8
gg1
 10
1.085000
 20
0.340000
  0
SEQEND
  8
gg1
  0
POLYLINE
  8
gg1
 62
1
 40
0.000000
 41
0.000000
 66
  1
  0
VERTEX
  8
gg1
 10
1.065000
 20
0.320000
  0
VERTEX
  8
gg1
 10
1.065000
 20
0.360000
  0
SEQEND
  8
gg1
  0
POLYLINE
  8
gg1
 62
1
 40
0.000000
 41
0.000000
 66
  1
  0
VERTEX
  8
gg1
 10
0.945000
 20
0.340000
  0
VERTEX
  8
gg1
 10
0.985000
 20
0.340000
  0
SEQEND
  8
gg1
  0
POLYLINE
  8
gg1
 62
1
 40
0.000000
 41
0.000000
 66
  1
  0
VERTEX
  8
gg1
 10
0.965000
 20
0.320000
  0
VERTEX
  8
gg1
 10
0.965000
 20
0.360000
  0
SEQEND
  8
gg1
  0
POLYLINE
  8
gg1
 62
1
 40
0.000000
 41
0.000000
 66
  1
  0
VERTEX
  8
gg1
 10
0.845000
 20
0.340000
  0
VERTEX
  8
gg1
 10
0.885000
 20
0.340000
  0
SEQEND
  8
gg1
  0
POLYLINE
  8
gg1
 62
1
 40
0.000000
 41
0.000000
 66
  1
  0
VERTEX
  8
gg1
 10
0.865000
 20
0.320000
  0
VERTEX
  8
gg1
 10
0.865000
 20
0.360000
  0
SEQEND
  8
gg1
  0
POLYLINE
  8
gg1
 62
1
 40
0.000000
 41
0.000000
 66
  1
  0
VERTEX
  8
gg1
 10
1.372000
 20
0.365000
  0
VERTEX
  8
gg1
 10
1.458000
 20
0.365000
  0
SEQEND
  8
gg1
  0
POLYLINE
  8
gg1
 62
1
 40
0.000000
 41
0.000000
 66
  1
  0
VERTEX
  8
gg1
 10
1.415000
 20
0.322000
  0
VERTEX
  8
gg1
 10
1.415000
 20
0.408000
  0
SEQEND
  8
gg1
  0
POLYLINE
  8
gg1
 62
1
 40
0.000000
 41
0.000000
 66
  1
  0
VERTEX
  8
gg1
 10
1.372000
 20
0.715000
  0
VERTEX
  8
gg1
 10
1.458000
 20
0.715000
  0
SEQEND
  8
gg1
  0
POLYLINE
  8
gg1
 62
1
 40
0.000000
 41
0.000000
 66
  1
  0
VERTEX
  8
gg1
 10
1.415000
 20
0.672000
  0
VERTEX
  8
gg1
 10
1.415000
 20
0.758000
  0
SEQEND
  8
gg1
  0
POLYLINE
  8
gg1
 62
1
 40
0.000000
 41
0.000000
 66
  1
  0
VERTEX
  8
gg1
 10
0.672000
 20
0.715000
  0
VERTEX
  8
gg1
 10
0.758000
 20
0.715000
  0
SEQEND
  8
gg1
  0
POLYLINE
  8
gg1
 62
1
 40
0.000000
 41
0.000000
 66
  1
  0
VERTEX
  8
gg1
 10
0.715000
 20
0.672000
  0
VERTEX
  8
gg1
 10
0.715000
 20
0.758000
  0
SEQEND
  8
gg1
  0
POLYLINE
  8
gg1
 62
1
 40
0.000000
 41
0.000000
 66
  1
  0
VERTEX
  8
gg1
 10
0.672000
 20
0.365000
  0
VERTEX
  8
gg1
 10
0.758000
 20
0.365000
  0
SEQEND
  8
gg1
  0
POLYLINE
  8
gg1
 62
1
 40
0.000000
 41
0.000000
 66
  1
  0
VERTEX
  8
gg1
 10
0.715000
 20
0.322000
  0
VERTEX
  8
gg1
 10
0.715000
 20
0.408000
  0
SEQEND
  8
gg1
  0
POLYLINE
  8
gg1
 62
1
 40
0.000000
 41
0.000000
 66
  1
  0
VERTEX
  8
gg1
 10
1.131600
 20
0.606500
  0
VERTEX
  8
gg1
 10
1.171600
 20
0.606500
  0
SEQEND
  8
gg1
  0
POLYLINE
  8
gg1
 62
1
 40
0.000000
 41
0.000000
 66
  1
  0
VERTEX
  8
gg1
 10
1.151600
 20
0.586500
  0
VERTEX
  8
gg1
 10
1.151600
 20
0.626500
  0
SEQEND
  8
gg1
  0
POLYLINE
  8
gg1
 62
1
 40
0.000000
 41
0.000000
 66
  1
  0
VERTEX
  8
gg1
 10
0.958400
 20
0.606500
  0
VERTEX
  8
gg1
 10
0.998400
 20
0.606500
  0
SEQEND
  8
gg1
  0
POLYLINE
  8
gg1
 62
1
 40
0.000000
 41
0.000000
 66
  1
  0
VERTEX
  8
gg1
 10
0.978400
 20
0.586500
  0
VERTEX
  8
gg1
 10
0.978400
 20
0.626500
  0
SEQEND
  8
gg1
  0
ENDSEC
  0
EOF
