  0
SECTION
  2
HEADER
  9
$EXTMIN
 10
7.373000
 20
14.861000
  9
$EXTMAX
 10
8.475000
 20
15.975000
  9
$LIMMIN
 10
7.373000
 20
14.861000
  9
$LIMMAX
 10
8.475000
 20
15.975000
  9
$FILLMODE
 70
  1
  0
ENDSEC
  0
SECTION
  2
TABLES
  0
TABLE
  2
LTYPE
 70
  1
  0
LTYPE
  2
CONTINUOUS
 70
 64
  3
Solid line
 72
 65
 73
  0
 40
0.0
  0
ENDTAB
  0
TABLE
  2
LAYER
 70
 1
  0
LAYER
  2
0
 70
  0
 62
7
  6
CONTINUOUS
  0
LAYER
  2
gg1
 70
  0
 62
1
  6
CONTINUOUS
  0
LAYER
  2
gm
 70
  0
 62
1
  6
CONTINUOUS
  0
ENDTAB
  0
TABLE
  2
STYLE
 70
  1
  0
STYLE
  2
STANDARD
 70
  0
 40
0.0
 41
1.0
 50
0.0
 71
  0
 42
0.2
  3
txt
  4

  0
ENDTAB
  0
ENDSEC
  0
SECTION
  2
BLOCKS
  0
BLOCK
  8
0
  2
D10
 70
64
 10
0.0
 20
0.0
  3
D10
  0
CIRCLE
  8
0
 10
0.000000
 20
0.000000
 40
0.002500
 0
ENDBLK
  8
0
  0
BLOCK
  8
0
  2
D11
 70
64
 10
0.0
 20
0.0
  3
D11
  0
CIRCLE
  8
0
 10
0.000000
 20
0.000000
 40
0.005000
 0
ENDBLK
  8
0
  0
BLOCK
  8
0
  2
D12
 70
64
 10
0.0
 20
0.0
  3
D12
  0
CIRCLE
  8
0
 10
0.000000
 20
0.000000
 40
0.003000
 0
ENDBLK
  8
0
  0
BLOCK
  8
0
  2
D13
 70
64
 10
0.0
 20
0.0
  3
D13
  0
CIRCLE
  8
0
 10
0.000000
 20
0.000000
 40
0.000500
 0
ENDBLK
  8
0
  0
ENDSEC
  0
SECTION
  2
ENTITIES
  0
POLYLINE
  8
gg1
 62
1
 40
0.000000
 41
0.000000
 66
  1
  0
VERTEX
  8
gg1
 10
7.500000
 20
15.000000
  0
VERTEX
  8
gg1
 10
8.470000
 20
15.000000
  0
VERTEX
  8
gg1
 10
8.470000
 20
15.970000
  0
SEQEND
  8
gg1
  0
POLYLINE
  8
gg1
 62
1
 40
0.000000
 41
0.000000
 66
  1
  0
VERTEX
  8
gg1
 10
7.500000
 20
15.970000
  0
VERTEX
  8
gg1
 10
8.470000
 20
15.970000
  0
SEQEND
  8
gg1
  0
POLYLINE
  8
gg1
 62
1
 40
0.000000
 41
0.000000
 66
  1
  0
VERTEX
  8
gg1
 10
7.500000
 20
15.000000
  0
VERTEX
  8
gg1
 10
7.500000
 20
15.970000
  0
SEQEND
  8
gg1
  0
POLYLINE
  8
gg1
 62
1
 40
0.000000
 41
0.000000
 66
  1
  0
VERTEX
  8
gg1
 10
8.317000
 20
15.860000
  0
VERTEX
  8
gg1
 10
8.403000
 20
15.860000
  0
SEQEND
  8
gg1
  0
POLYLINE
  8
gg1
 62
1
 40
0.000000
 41
0.000000
 66
  1
  0
VERTEX
  8
gg1
 10
8.360000
 20
15.817000
  0
VERTEX
  8
gg1
 10
8.360000
 20
15.903000
  0
SEQEND
  8
gg1
  0
POLYLINE
  8
gg1
 62
1
 40
0.000000
 41
0.000000
 66
  1
  0
VERTEX
  8
gg1
 10
8.317000
 20
15.110000
  0
VERTEX
  8
gg1
 10
8.403000
 20
15.110000
  0
SEQEND
  8
gg1
  0
POLYLINE
  8
gg1
 62
1
 40
0.000000
 41
0.000000
 66
  1
  0
VERTEX
  8
gg1
 10
8.360000
 20
15.067000
  0
VERTEX
  8
gg1
 10
8.360000
 20
15.153000
  0
SEQEND
  8
gg1
  0
POLYLINE
  8
gg1
 62
1
 40
0.000000
 41
0.000000
 66
  1
  0
VERTEX
  8
gg1
 10
7.540000
 20
15.060000
  0
VERTEX
  8
gg1
 10
7.580000
 20
15.060000
  0
SEQEND
  8
gg1
  0
POLYLINE
  8
gg1
 62
1
 40
0.000000
 41
0.000000
 66
  1
  0
VERTEX
  8
gg1
 10
7.560000
 20
15.040000
  0
VERTEX
  8
gg1
 10
7.560000
 20
15.080000
  0
SEQEND
  8
gg1
  0
POLYLINE
  8
gg1
 62
1
 40
0.000000
 41
0.000000
 66
  1
  0
VERTEX
  8
gg1
 10
7.640000
 20
15.060000
  0
VERTEX
  8
gg1
 10
7.680000
 20
15.060000
  0
SEQEND
  8
gg1
  0
POLYLINE
  8
gg1
 62
1
 40
0.000000
 41
0.000000
 66
  1
  0
VERTEX
  8
gg1
 10
7.660000
 20
15.040000
  0
VERTEX
  8
gg1
 10
7.660000
 20
15.080000
  0
SEQEND
  8
gg1
  0
POLYLINE
  8
gg1
 62
1
 40
0.000000
 41
0.000000
 66
  1
  0
VERTEX
  8
gg1
 10
7.740000
 20
15.060000
  0
VERTEX
  8
gg1
 10
7.780000
 20
15.060000
  0
SEQEND
  8
gg1
  0
POLYLINE
  8
gg1
 62
1
 40
0.000000
 41
0.000000
 66
  1
  0
VERTEX
  8
gg1
 10
7.760000
 20
15.040000
  0
VERTEX
  8
gg1
 10
7.760000
 20
15.080000
  0
SEQEND
  8
gg1
  0
POLYLINE
  8
gg1
 62
1
 40
0.000000
 41
0.000000
 66
  1
  0
VERTEX
  8
gg1
 10
7.540000
 20
15.160000
  0
VERTEX
  8
gg1
 10
7.580000
 20
15.160000
  0
SEQEND
  8
gg1
  0
POLYLINE
  8
gg1
 62
1
 40
0.000000
 41
0.000000
 66
  1
  0
VERTEX
  8
gg1
 10
7.560000
 20
15.140000
  0
VERTEX
  8
gg1
 10
7.560000
 20
15.180000
  0
SEQEND
  8
gg1
  0
POLYLINE
  8
gg1
 62
1
 40
0.000000
 41
0.000000
 66
  1
  0
VERTEX
  8
gg1
 10
7.640000
 20
15.160000
  0
VERTEX
  8
gg1
 10
7.680000
 20
15.160000
  0
SEQEND
  8
gg1
  0
POLYLINE
  8
gg1
 62
1
 40
0.000000
 41
0.000000
 66
  1
  0
VERTEX
  8
gg1
 10
7.660000
 20
15.140000
  0
VERTEX
  8
gg1
 10
7.660000
 20
15.180000
  0
SEQEND
  8
gg1
  0
POLYLINE
  8
gg1
 62
1
 40
0.000000
 41
0.000000
 66
  1
  0
VERTEX
  8
gg1
 10
7.740000
 20
15.160000
  0
VERTEX
  8
gg1
 10
7.780000
 20
15.160000
  0
SEQEND
  8
gg1
  0
POLYLINE
  8
gg1
 62
1
 40
0.000000
 41
0.000000
 66
  1
  0
VERTEX
  8
gg1
 10
7.760000
 20
15.140000
  0
VERTEX
  8
gg1
 10
7.760000
 20
15.180000
  0
SEQEND
  8
gg1
  0
POLYLINE
  8
gg1
 62
1
 40
0.000000
 41
0.000000
 66
  1
  0
VERTEX
  8
gg1
 10
7.540000
 20
15.260000
  0
VERTEX
  8
gg1
 10
7.580000
 20
15.260000
  0
SEQEND
  8
gg1
  0
POLYLINE
  8
gg1
 62
1
 40
0.000000
 41
0.000000
 66
  1
  0
VERTEX
  8
gg1
 10
7.560000
 20
15.240000
  0
VERTEX
  8
gg1
 10
7.560000
 20
15.280000
  0
SEQEND
  8
gg1
  0
POLYLINE
  8
gg1
 62
1
 40
0.000000
 41
0.000000
 66
  1
  0
VERTEX
  8
gg1
 10
7.640000
 20
15.260000
  0
VERTEX
  8
gg1
 10
7.680000
 20
15.260000
  0
SEQEND
  8
gg1
  0
POLYLINE
  8
gg1
 62
1
 40
0.000000
 41
0.000000
 66
  1
  0
VERTEX
  8
gg1
 10
7.660000
 20
15.240000
  0
VERTEX
  8
gg1
 10
7.660000
 20
15.280000
  0
SEQEND
  8
gg1
  0
POLYLINE
  8
gg1
 62
1
 40
0.000000
 41
0.000000
 66
  1
  0
VERTEX
  8
gg1
 10
7.740000
 20
15.260000
  0
VERTEX
  8
gg1
 10
7.780000
 20
15.260000
  0
SEQEND
  8
gg1
  0
POLYLINE
  8
gg1
 62
1
 40
0.000000
 41
0.000000
 66
  1
  0
VERTEX
  8
gg1
 10
7.760000
 20
15.240000
  0
VERTEX
  8
gg1
 10
7.760000
 20
15.280000
  0
SEQEND
  8
gg1
  0
POLYLINE
  8
gg1
 62
1
 40
0.000000
 41
0.000000
 66
  1
  0
VERTEX
  8
gg1
 10
7.540000
 20
15.360000
  0
VERTEX
  8
gg1
 10
7.580000
 20
15.360000
  0
SEQEND
  8
gg1
  0
POLYLINE
  8
gg1
 62
1
 40
0.000000
 41
0.000000
 66
  1
  0
VERTEX
  8
gg1
 10
7.560000
 20
15.340000
  0
VERTEX
  8
gg1
 10
7.560000
 20
15.380000
  0
SEQEND
  8
gg1
  0
POLYLINE
  8
gg1
 62
1
 40
0.000000
 41
0.000000
 66
  1
  0
VERTEX
  8
gg1
 10
7.640000
 20
15.360000
  0
VERTEX
  8
gg1
 10
7.680000
 20
15.360000
  0
SEQEND
  8
gg1
  0
POLYLINE
  8
gg1
 62
1
 40
0.000000
 41
0.000000
 66
  1
  0
VERTEX
  8
gg1
 10
7.660000
 20
15.340000
  0
VERTEX
  8
gg1
 10
7.660000
 20
15.380000
  0
SEQEND
  8
gg1
  0
POLYLINE
  8
gg1
 62
1
 40
0.000000
 41
0.000000
 66
  1
  0
VERTEX
  8
gg1
 10
7.740000
 20
15.360000
  0
VERTEX
  8
gg1
 10
7.780000
 20
15.360000
  0
SEQEND
  8
gg1
  0
POLYLINE
  8
gg1
 62
1
 40
0.000000
 41
0.000000
 66
  1
  0
VERTEX
  8
gg1
 10
7.760000
 20
15.340000
  0
VERTEX
  8
gg1
 10
7.760000
 20
15.380000
  0
SEQEND
  8
gg1
  0
POLYLINE
  8
gg1
 62
1
 40
0.000000
 41
0.000000
 66
  1
  0
VERTEX
  8
gg1
 10
7.540000
 20
15.510000
  0
VERTEX
  8
gg1
 10
7.580000
 20
15.510000
  0
SEQEND
  8
gg1
  0
POLYLINE
  8
gg1
 62
1
 40
0.000000
 41
0.000000
 66
  1
  0
VERTEX
  8
gg1
 10
7.560000
 20
15.490000
  0
VERTEX
  8
gg1
 10
7.560000
 20
15.530000
  0
SEQEND
  8
gg1
  0
POLYLINE
  8
gg1
 62
1
 40
0.000000
 41
0.000000
 66
  1
  0
VERTEX
  8
gg1
 10
7.640000
 20
15.510000
  0
VERTEX
  8
gg1
 10
7.680000
 20
15.510000
  0
SEQEND
  8
gg1
  0
POLYLINE
  8
gg1
 62
1
 40
0.000000
 41
0.000000
 66
  1
  0
VERTEX
  8
gg1
 10
7.660000
 20
15.490000
  0
VERTEX
  8
gg1
 10
7.660000
 20
15.530000
  0
SEQEND
  8
gg1
  0
POLYLINE
  8
gg1
 62
1
 40
0.000000
 41
0.000000
 66
  1
  0
VERTEX
  8
gg1
 10
7.740000
 20
15.510000
  0
VERTEX
  8
gg1
 10
7.780000
 20
15.510000
  0
SEQEND
  8
gg1
  0
POLYLINE
  8
gg1
 62
1
 40
0.000000
 41
0.000000
 66
  1
  0
VERTEX
  8
gg1
 10
7.760000
 20
15.490000
  0
VERTEX
  8
gg1
 10
7.760000
 20
15.530000
  0
SEQEND
  8
gg1
  0
POLYLINE
  8
gg1
 62
1
 40
0.000000
 41
0.000000
 66
  1
  0
VERTEX
  8
gg1
 10
7.540000
 20
15.610000
  0
VERTEX
  8
gg1
 10
7.580000
 20
15.610000
  0
SEQEND
  8
gg1
  0
POLYLINE
  8
gg1
 62
1
 40
0.000000
 41
0.000000
 66
  1
  0
VERTEX
  8
gg1
 10
7.560000
 20
15.590000
  0
VERTEX
  8
gg1
 10
7.560000
 20
15.630000
  0
SEQEND
  8
gg1
  0
POLYLINE
  8
gg1
 62
1
 40
0.000000
 41
0.000000
 66
  1
  0
VERTEX
  8
gg1
 10
7.640000
 20
15.610000
  0
VERTEX
  8
gg1
 10
7.680000
 20
15.610000
  0
SEQEND
  8
gg1
  0
POLYLINE
  8
gg1
 62
1
 40
0.000000
 41
0.000000
 66
  1
  0
VERTEX
  8
gg1
 10
7.660000
 20
15.590000
  0
VERTEX
  8
gg1
 10
7.660000
 20
15.630000
  0
SEQEND
  8
gg1
  0
POLYLINE
  8
gg1
 62
1
 40
0.000000
 41
0.000000
 66
  1
  0
VERTEX
  8
gg1
 10
7.740000
 20
15.610000
  0
VERTEX
  8
gg1
 10
7.780000
 20
15.610000
  0
SEQEND
  8
gg1
  0
POLYLINE
  8
gg1
 62
1
 40
0.000000
 41
0.000000
 66
  1
  0
VERTEX
  8
gg1
 10
7.760000
 20
15.590000
  0
VERTEX
  8
gg1
 10
7.760000
 20
15.630000
  0
SEQEND
  8
gg1
  0
POLYLINE
  8
gg1
 62
1
 40
0.000000
 41
0.000000
 66
  1
  0
VERTEX
  8
gg1
 10
7.540000
 20
15.710000
  0
VERTEX
  8
gg1
 10
7.580000
 20
15.710000
  0
SEQEND
  8
gg1
  0
POLYLINE
  8
gg1
 62
1
 40
0.000000
 41
0.000000
 66
  1
  0
VERTEX
  8
gg1
 10
7.560000
 20
15.690000
  0
VERTEX
  8
gg1
 10
7.560000
 20
15.730000
  0
SEQEND
  8
gg1
  0
POLYLINE
  8
gg1
 62
1
 40
0.000000
 41
0.000000
 66
  1
  0
VERTEX
  8
gg1
 10
7.640000
 20
15.710000
  0
VERTEX
  8
gg1
 10
7.680000
 20
15.710000
  0
SEQEND
  8
gg1
  0
POLYLINE
  8
gg1
 62
1
 40
0.000000
 41
0.000000
 66
  1
  0
VERTEX
  8
gg1
 10
7.660000
 20
15.690000
  0
VERTEX
  8
gg1
 10
7.660000
 20
15.730000
  0
SEQEND
  8
gg1
  0
POLYLINE
  8
gg1
 62
1
 40
0.000000
 41
0.000000
 66
  1
  0
VERTEX
  8
gg1
 10
7.740000
 20
15.710000
  0
VERTEX
  8
gg1
 10
7.780000
 20
15.710000
  0
SEQEND
  8
gg1
  0
POLYLINE
  8
gg1
 62
1
 40
0.000000
 41
0.000000
 66
  1
  0
VERTEX
  8
gg1
 10
7.760000
 20
15.690000
  0
VERTEX
  8
gg1
 10
7.760000
 20
15.730000
  0
SEQEND
  8
gg1
  0
POLYLINE
  8
gg1
 62
1
 40
0.000000
 41
0.000000
 66
  1
  0
VERTEX
  8
gg1
 10
7.540000
 20
15.810000
  0
VERTEX
  8
gg1
 10
7.580000
 20
15.810000
  0
SEQEND
  8
gg1
  0
POLYLINE
  8
gg1
 62
1
 40
0.000000
 41
0.000000
 66
  1
  0
VERTEX
  8
gg1
 10
7.560000
 20
15.790000
  0
VERTEX
  8
gg1
 10
7.560000
 20
15.830000
  0
SEQEND
  8
gg1
  0
POLYLINE
  8
gg1
 62
1
 40
0.000000
 41
0.000000
 66
  1
  0
VERTEX
  8
gg1
 10
7.640000
 20
15.810000
  0
VERTEX
  8
gg1
 10
7.680000
 20
15.810000
  0
SEQEND
  8
gg1
  0
POLYLINE
  8
gg1
 62
1
 40
0.000000
 41
0.000000
 66
  1
  0
VERTEX
  8
gg1
 10
7.660000
 20
15.790000
  0
VERTEX
  8
gg1
 10
7.660000
 20
15.830000
  0
SEQEND
  8
gg1
  0
POLYLINE
  8
gg1
 62
1
 40
0.000000
 41
0.000000
 66
  1
  0
VERTEX
  8
gg1
 10
7.740000
 20
15.810000
  0
VERTEX
  8
gg1
 10
7.780000
 20
15.810000
  0
SEQEND
  8
gg1
  0
POLYLINE
  8
gg1
 62
1
 40
0.000000
 41
0.000000
 66
  1
  0
VERTEX
  8
gg1
 10
7.760000
 20
15.790000
  0
VERTEX
  8
gg1
 10
7.760000
 20
15.830000
  0
SEQEND
  8
gg1
  0
POLYLINE
  8
gg1
 62
1
 40
0.000000
 41
0.000000
 66
  1
  0
VERTEX
  8
gg1
 10
7.540000
 20
15.910000
  0
VERTEX
  8
gg1
 10
7.580000
 20
15.910000
  0
SEQEND
  8
gg1
  0
POLYLINE
  8
gg1
 62
1
 40
0.000000
 41
0.000000
 66
  1
  0
VERTEX
  8
gg1
 10
7.560000
 20
15.890000
  0
VERTEX
  8
gg1
 10
7.560000
 20
15.930000
  0
SEQEND
  8
gg1
  0
POLYLINE
  8
gg1
 62
1
 40
0.000000
 41
0.000000
 66
  1
  0
VERTEX
  8
gg1
 10
7.640000
 20
15.910000
  0
VERTEX
  8
gg1
 10
7.680000
 20
15.910000
  0
SEQEND
  8
gg1
  0
POLYLINE
  8
gg1
 62
1
 40
0.000000
 41
0.000000
 66
  1
  0
VERTEX
  8
gg1
 10
7.660000
 20
15.890000
  0
VERTEX
  8
gg1
 10
7.660000
 20
15.930000
  0
SEQEND
  8
gg1
  0
POLYLINE
  8
gg1
 62
1
 40
0.000000
 41
0.000000
 66
  1
  0
VERTEX
  8
gg1
 10
7.740000
 20
15.910000
  0
VERTEX
  8
gg1
 10
7.780000
 20
15.910000
  0
SEQEND
  8
gg1
  0
POLYLINE
  8
gg1
 62
1
 40
0.000000
 41
0.000000
 66
  1
  0
VERTEX
  8
gg1
 10
7.760000
 20
15.890000
  0
VERTEX
  8
gg1
 10
7.760000
 20
15.930000
  0
SEQEND
  8
gg1
  0
POLYLINE
  8
gg1
 62
1
 40
0.000000
 41
0.000000
 66
  1
  0
VERTEX
  8
gg1
 10
8.390000
 20
15.310000
  0
VERTEX
  8
gg1
 10
8.430000
 20
15.310000
  0
SEQEND
  8
gg1
  0
POLYLINE
  8
gg1
 62
1
 40
0.000000
 41
0.000000
 66
  1
  0
VERTEX
  8
gg1
 10
8.410000
 20
15.290000
  0
VERTEX
  8
gg1
 10
8.410000
 20
15.330000
  0
SEQEND
  8
gg1
  0
POLYLINE
  8
gg1
 62
1
 40
0.000000
 41
0.000000
 66
  1
  0
VERTEX
  8
gg1
 10
8.290000
 20
15.310000
  0
VERTEX
  8
gg1
 10
8.330000
 20
15.310000
  0
SEQEND
  8
gg1
  0
POLYLINE
  8
gg1
 62
1
 40
0.000000
 41
0.000000
 66
  1
  0
VERTEX
  8
gg1
 10
8.310000
 20
15.290000
  0
VERTEX
  8
gg1
 10
8.310000
 20
15.330000
  0
SEQEND
  8
gg1
  0
POLYLINE
  8
gg1
 62
1
 40
0.000000
 41
0.000000
 66
  1
  0
VERTEX
  8
gg1
 10
8.390000
 20
15.410000
  0
VERTEX
  8
gg1
 10
8.430000
 20
15.410000
  0
SEQEND
  8
gg1
  0
POLYLINE
  8
gg1
 62
1
 40
0.000000
 41
0.000000
 66
  1
  0
VERTEX
  8
gg1
 10
8.410000
 20
15.390000
  0
VERTEX
  8
gg1
 10
8.410000
 20
15.430000
  0
SEQEND
  8
gg1
  0
POLYLINE
  8
gg1
 62
1
 40
0.000000
 41
0.000000
 66
  1
  0
VERTEX
  8
gg1
 10
8.290000
 20
15.410000
  0
VERTEX
  8
gg1
 10
8.330000
 20
15.410000
  0
SEQEND
  8
gg1
  0
POLYLINE
  8
gg1
 62
1
 40
0.000000
 41
0.000000
 66
  1
  0
VERTEX
  8
gg1
 10
8.310000
 20
15.390000
  0
VERTEX
  8
gg1
 10
8.310000
 20
15.430000
  0
SEQEND
  8
gg1
  0
POLYLINE
  8
gg1
 62
1
 40
0.000000
 41
0.000000
 66
  1
  0
VERTEX
  8
gg1
 10
8.190000
 20
15.410000
  0
VERTEX
  8
gg1
 10
8.230000
 20
15.410000
  0
SEQEND
  8
gg1
  0
POLYLINE
  8
gg1
 62
1
 40
0.000000
 41
0.000000
 66
  1
  0
VERTEX
  8
gg1
 10
8.210000
 20
15.390000
  0
VERTEX
  8
gg1
 10
8.210000
 20
15.430000
  0
SEQEND
  8
gg1
  0
POLYLINE
  8
gg1
 62
1
 40
0.000000
 41
0.000000
 66
  1
  0
VERTEX
  8
gg1
 10
8.390000
 20
15.510000
  0
VERTEX
  8
gg1
 10
8.430000
 20
15.510000
  0
SEQEND
  8
gg1
  0
POLYLINE
  8
gg1
 62
1
 40
0.000000
 41
0.000000
 66
  1
  0
VERTEX
  8
gg1
 10
8.410000
 20
15.490000
  0
VERTEX
  8
gg1
 10
8.410000
 20
15.530000
  0
SEQEND
  8
gg1
  0
POLYLINE
  8
gg1
 62
1
 40
0.000000
 41
0.000000
 66
  1
  0
VERTEX
  8
gg1
 10
8.290000
 20
15.510000
  0
VERTEX
  8
gg1
 10
8.330000
 20
15.510000
  0
SEQEND
  8
gg1
  0
POLYLINE
  8
gg1
 62
1
 40
0.000000
 41
0.000000
 66
  1
  0
VERTEX
  8
gg1
 10
8.310000
 20
15.490000
  0
VERTEX
  8
gg1
 10
8.310000
 20
15.530000
  0
SEQEND
  8
gg1
  0
POLYLINE
  8
gg1
 62
1
 40
0.000000
 41
0.000000
 66
  1
  0
VERTEX
  8
gg1
 10
8.190000
 20
15.510000
  0
VERTEX
  8
gg1
 10
8.230000
 20
15.510000
  0
SEQEND
  8
gg1
  0
POLYLINE
  8
gg1
 62
1
 40
0.000000
 41
0.000000
 66
  1
  0
VERTEX
  8
gg1
 10
8.210000
 20
15.490000
  0
VERTEX
  8
gg1
 10
8.210000
 20
15.530000
  0
SEQEND
  8
gg1
  0
POLYLINE
  8
gg1
 62
1
 40
0.000000
 41
0.000000
 66
  1
  0
VERTEX
  8
gg1
 10
8.390000
 20
15.610000
  0
VERTEX
  8
gg1
 10
8.430000
 20
15.610000
  0
SEQEND
  8
gg1
  0
POLYLINE
  8
gg1
 62
1
 40
0.000000
 41
0.000000
 66
  1
  0
VERTEX
  8
gg1
 10
8.410000
 20
15.590000
  0
VERTEX
  8
gg1
 10
8.410000
 20
15.630000
  0
SEQEND
  8
gg1
  0
POLYLINE
  8
gg1
 62
1
 40
0.000000
 41
0.000000
 66
  1
  0
VERTEX
  8
gg1
 10
8.290000
 20
15.610000
  0
VERTEX
  8
gg1
 10
8.330000
 20
15.610000
  0
SEQEND
  8
gg1
  0
POLYLINE
  8
gg1
 62
1
 40
0.000000
 41
0.000000
 66
  1
  0
VERTEX
  8
gg1
 10
8.310000
 20
15.590000
  0
VERTEX
  8
gg1
 10
8.310000
 20
15.630000
  0
SEQEND
  8
gg1
  0
POLYLINE
  8
gg1
 62
1
 40
0.000000
 41
0.000000
 66
  1
  0
VERTEX
  8
gg1
 10
8.190000
 20
15.610000
  0
VERTEX
  8
gg1
 10
8.230000
 20
15.610000
  0
SEQEND
  8
gg1
  0
POLYLINE
  8
gg1
 62
1
 40
0.000000
 41
0.000000
 66
  1
  0
VERTEX
  8
gg1
 10
8.210000
 20
15.590000
  0
VERTEX
  8
gg1
 10
8.210000
 20
15.630000
  0
SEQEND
  8
gg1
  0
POLYLINE
  8
gg1
 62
1
 40
0.000000
 41
0.000000
 66
  1
  0
VERTEX
  8
gg1
 10
8.390000
 20
15.710000
  0
VERTEX
  8
gg1
 10
8.430000
 20
15.710000
  0
SEQEND
  8
gg1
  0
POLYLINE
  8
gg1
 62
1
 40
0.000000
 41
0.000000
 66
  1
  0
VERTEX
  8
gg1
 10
8.410000
 20
15.690000
  0
VERTEX
  8
gg1
 10
8.410000
 20
15.730000
  0
SEQEND
  8
gg1
  0
POLYLINE
  8
gg1
 62
1
 40
0.000000
 41
0.000000
 66
  1
  0
VERTEX
  8
gg1
 10
8.290000
 20
15.710000
  0
VERTEX
  8
gg1
 10
8.330000
 20
15.710000
  0
SEQEND
  8
gg1
  0
POLYLINE
  8
gg1
 62
1
 40
0.000000
 41
0.000000
 66
  1
  0
VERTEX
  8
gg1
 10
8.310000
 20
15.690000
  0
VERTEX
  8
gg1
 10
8.310000
 20
15.730000
  0
SEQEND
  8
gg1
  0
POLYLINE
  8
gg1
 62
1
 40
0.000000
 41
0.000000
 66
  1
  0
VERTEX
  8
gg1
 10
8.190000
 20
15.710000
  0
VERTEX
  8
gg1
 10
8.230000
 20
15.710000
  0
SEQEND
  8
gg1
  0
POLYLINE
  8
gg1
 62
1
 40
0.000000
 41
0.000000
 66
  1
  0
VERTEX
  8
gg1
 10
8.210000
 20
15.690000
  0
VERTEX
  8
gg1
 10
8.210000
 20
15.730000
  0
SEQEND
  8
gg1
  0
POLYLINE
  8
gg1
 62
1
 40
0.000000
 41
0.000000
 66
  1
  0
VERTEX
  8
gg1
 10
8.065000
 20
15.535000
  0
VERTEX
  8
gg1
 10
8.105000
 20
15.535000
  0
SEQEND
  8
gg1
  0
POLYLINE
  8
gg1
 62
1
 40
0.000000
 41
0.000000
 66
  1
  0
VERTEX
  8
gg1
 10
8.085000
 20
15.515000
  0
VERTEX
  8
gg1
 10
8.085000
 20
15.555000
  0
SEQEND
  8
gg1
  0
POLYLINE
  8
gg1
 62
1
 40
0.000000
 41
0.000000
 66
  1
  0
VERTEX
  8
gg1
 10
8.065000
 20
15.635000
  0
VERTEX
  8
gg1
 10
8.105000
 20
15.635000
  0
SEQEND
  8
gg1
  0
POLYLINE
  8
gg1
 62
1
 40
0.000000
 41
0.000000
 66
  1
  0
VERTEX
  8
gg1
 10
8.085000
 20
15.615000
  0
VERTEX
  8
gg1
 10
8.085000
 20
15.655000
  0
SEQEND
  8
gg1
  0
POLYLINE
  8
gg1
 62
1
 40
0.000000
 41
0.000000
 66
  1
  0
VERTEX
  8
gg1
 10
7.935000
 20
15.565000
  0
VERTEX
  8
gg1
 10
7.955000
 20
15.565000
  0
SEQEND
  8
gg1
  0
POLYLINE
  8
gg1
 62
1
 40
0.000000
 41
0.000000
 66
  1
  0
VERTEX
  8
gg1
 10
7.945000
 20
15.555000
  0
VERTEX
  8
gg1
 10
7.945000
 20
15.575000
  0
SEQEND
  8
gg1
  0
POLYLINE
  8
gg1
 62
1
 40
0.000000
 41
0.000000
 66
  1
  0
VERTEX
  8
gg1
 10
7.970000
 20
15.675000
  0
VERTEX
  8
gg1
 10
7.990000
 20
15.675000
  0
SEQEND
  8
gg1
  0
POLYLINE
  8
gg1
 62
1
 40
0.000000
 41
0.000000
 66
  1
  0
VERTEX
  8
gg1
 10
7.980000
 20
15.665000
  0
VERTEX
  8
gg1
 10
7.980000
 20
15.685000
  0
SEQEND
  8
gg1
  0
POLYLINE
  8
gg1
 62
1
 40
0.000000
 41
0.000000
 66
  1
  0
VERTEX
  8
gg1
 10
7.400000
 20
15.970000
  0
VERTEX
  8
gg1
 10
7.420000
 20
15.910000
  0
SEQEND
  8
gg1
  0
POLYLINE
  8
gg1
 62
1
 40
0.000000
 41
0.000000
 66
  1
  0
VERTEX
  8
gg1
 10
7.380000
 20
15.910000
  0
VERTEX
  8
gg1
 10
7.400000
 20
15.970000
  0
SEQEND
  8
gg1
  0
POLYLINE
  8
gg1
 62
1
 40
0.000000
 41
0.000000
 66
  1
  0
VERTEX
  8
gg1
 10
7.380000
 20
15.060000
  0
VERTEX
  8
gg1
 10
7.400000
 20
15.000000
  0
VERTEX
  8
gg1
 10
7.420000
 20
15.060000
  0
SEQEND
  8
gg1
  0
POLYLINE
  8
gg1
 62
1
 40
0.000000
 41
0.000000
 66
  1
  0
VERTEX
  8
gg1
 10
7.400000
 20
15.639950
  0
VERTEX
  8
gg1
 10
7.400000
 20
15.970000
  0
SEQEND
  8
gg1
  0
POLYLINE
  8
gg1
 62
1
 40
0.000000
 41
0.000000
 66
  1
  0
VERTEX
  8
gg1
 10
7.400000
 20
15.000000
  0
VERTEX
  8
gg1
 10
7.400000
 20
15.298050
  0
SEQEND
  8
gg1
  0
POLYLINE
  8
gg1
 62
1
 40
0.000000
 41
0.000000
 66
  1
  0
VERTEX
  8
gg1
 10
7.390000
 20
15.970000
  0
VERTEX
  8
gg1
 10
7.487500
 20
15.970000
  0
SEQEND
  8
gg1
  0
POLYLINE
  8
gg1
 62
1
 40
0.000000
 41
0.000000
 66
  1
  0
VERTEX
  8
gg1
 10
7.390000
 20
15.000000
  0
VERTEX
  8
gg1
 10
7.487500
 20
15.000000
  0
SEQEND
  8
gg1
  0
POLYLINE
  8
gg1
 62
1
 40
0.000000
 41
0.000000
 66
  1
  0
VERTEX
  8
gg1
 10
7.500000
 20
14.900000
  0
VERTEX
  8
gg1
 10
7.560000
 20
14.920000
  0
SEQEND
  8
gg1
  0
POLYLINE
  8
gg1
 62
1
 40
0.000000
 41
0.000000
 66
  1
  0
VERTEX
  8
gg1
 10
7.500000
 20
14.900000
  0
VERTEX
  8
gg1
 10
7.560000
 20
14.880000
  0
SEQEND
  8
gg1
  0
POLYLINE
  8
gg1
 62
1
 40
0.000000
 41
0.000000
 66
  1
  0
VERTEX
  8
gg1
 10
8.410000
 20
14.880000
  0
VERTEX
  8
gg1
 10
8.470000
 20
14.900000
  0
SEQEND
  8
gg1
  0
POLYLINE
  8
gg1
 62
1
 40
0.000000
 41
0.000000
 66
  1
  0
VERTEX
  8
gg1
 10
8.410000
 20
14.920000
  0
VERTEX
  8
gg1
 10
8.470000
 20
14.900000
  0
SEQEND
  8
gg1
  0
POLYLINE
  8
gg1
 62
1
 40
0.000000
 41
0.000000
 66
  1
  0
VERTEX
  8
gg1
 10
7.500000
 20
14.900000
  0
VERTEX
  8
gg1
 10
7.798050
 20
14.900000
  0
SEQEND
  8
gg1
  0
POLYLINE
  8
gg1
 62
1
 40
0.000000
 41
0.000000
 66
  1
  0
VERTEX
  8
gg1
 10
8.139950
 20
14.900000
  0
VERTEX
  8
gg1
 10
8.470000
 20
14.900000
  0
SEQEND
  8
gg1
  0
POLYLINE
  8
gg1
 62
1
 40
0.000000
 41
0.000000
 66
  1
  0
VERTEX
  8
gg1
 10
7.500000
 20
14.890000
  0
VERTEX
  8
gg1
 10
7.500000
 20
14.987500
  0
SEQEND
  8
gg1
  0
POLYLINE
  8
gg1
 62
1
 40
0.000000
 41
0.000000
 66
  1
  0
VERTEX
  8
gg1
 10
8.470000
 20
14.890000
  0
VERTEX
  8
gg1
 10
8.470000
 20
14.987500
  0
SEQEND
  8
gg1
  0
POLYLINE
  8
gg1
 62
1
 40
0.000000
 41
0.000000
 66
  1
  0
VERTEX
  8
gg1
 10
7.425990
 20
15.314050
  0
VERTEX
  8
gg1
 10
7.435990
 20
15.324050
  0
VERTEX
  8
gg1
 10
7.435990
 20
15.344040
  0
VERTEX
  8
gg1
 10
7.425990
 20
15.354040
  0
VERTEX
  8
gg1
 10
7.386010
 20
15.354040
  0
VERTEX
  8
gg1
 10
7.376010
 20
15.344040
  0
VERTEX
  8
gg1
 10
7.376010
 20
15.324050
  0
VERTEX
  8
gg1
 10
7.386010
 20
15.314050
  0
VERTEX
  8
gg1
 10
7.396000
 20
15.314050
  0
VERTEX
  8
gg1
 10
7.406000
 20
15.324050
  0
VERTEX
  8
gg1
 10
7.406000
 20
15.354040
  0
SEQEND
  8
gg1
  0
POLYLINE
  8
gg1
 62
1
 40
0.000000
 41
0.000000
 66
  1
  0
VERTEX
  8
gg1
 10
7.376010
 20
15.374030
  0
VERTEX
  8
gg1
 10
7.376010
 20
15.414020
  0
VERTEX
  8
gg1
 10
7.386010
 20
15.414020
  0
VERTEX
  8
gg1
 10
7.425990
 20
15.374030
  0
VERTEX
  8
gg1
 10
7.435990
 20
15.374030
  0
SEQEND
  8
gg1
  0
POLYLINE
  8
gg1
 62
1
 40
0.000000
 41
0.000000
 66
  1
  0
VERTEX
  8
gg1
 10
7.386010
 20
15.434010
  0
VERTEX
  8
gg1
 10
7.376010
 20
15.444010
  0
VERTEX
  8
gg1
 10
7.376010
 20
15.464000
  0
VERTEX
  8
gg1
 10
7.386010
 20
15.474000
  0
VERTEX
  8
gg1
 10
7.425990
 20
15.474000
  0
VERTEX
  8
gg1
 10
7.435990
 20
15.464000
  0
VERTEX
  8
gg1
 10
7.435990
 20
15.444010
  0
VERTEX
  8
gg1
 10
7.425990
 20
15.434010
  0
VERTEX
  8
gg1
 10
7.386010
 20
15.434010
  0
SEQEND
  8
gg1
  0
POLYLINE
  8
gg1
 62
1
 40
0.000000
 41
0.000000
 66
  1
  0
VERTEX
  8
gg1
 10
7.435990
 20
15.493990
  0
VERTEX
  8
gg1
 10
7.396000
 20
15.493990
  0
VERTEX
  8
gg1
 10
7.396000
 20
15.503990
  0
VERTEX
  8
gg1
 10
7.406000
 20
15.513980
  0
VERTEX
  8
gg1
 10
7.435990
 20
15.513980
  0
VERTEX
  8
gg1
 10
7.406000
 20
15.513980
  0
VERTEX
  8
gg1
 10
7.396000
 20
15.523980
  0
VERTEX
  8
gg1
 10
7.406000
 20
15.533980
  0
VERTEX
  8
gg1
 10
7.435990
 20
15.533980
  0
SEQEND
  8
gg1
  0
POLYLINE
  8
gg1
 62
1
 40
0.000000
 41
0.000000
 66
  1
  0
VERTEX
  8
gg1
 10
7.435990
 20
15.553970
  0
VERTEX
  8
gg1
 10
7.435990
 20
15.573970
  0
VERTEX
  8
gg1
 10
7.435990
 20
15.563970
  0
VERTEX
  8
gg1
 10
7.396000
 20
15.563970
  0
VERTEX
  8
gg1
 10
7.396000
 20
15.553970
  0
SEQEND
  8
gg1
  0
POLYLINE
  8
gg1
 62
1
 40
0.000000
 41
0.000000
 66
  1
  0
VERTEX
  8
gg1
 10
7.435990
 20
15.603960
  0
VERTEX
  8
gg1
 10
7.435990
 20
15.623950
  0
VERTEX
  8
gg1
 10
7.435990
 20
15.613950
  0
VERTEX
  8
gg1
 10
7.376010
 20
15.613950
  0
VERTEX
  8
gg1
 10
7.376010
 20
15.603960
  0
SEQEND
  8
gg1
  0
POLYLINE
  8
gg1
 62
1
 40
0.000000
 41
0.000000
 66
  1
  0
VERTEX
  8
gg1
 10
7.814050
 20
14.874010
  0
VERTEX
  8
gg1
 10
7.824050
 20
14.864010
  0
VERTEX
  8
gg1
 10
7.844040
 20
14.864010
  0
VERTEX
  8
gg1
 10
7.854040
 20
14.874010
  0
VERTEX
  8
gg1
 10
7.854040
 20
14.913990
  0
VERTEX
  8
gg1
 10
7.844040
 20
14.923990
  0
VERTEX
  8
gg1
 10
7.824050
 20
14.923990
  0
VERTEX
  8
gg1
 10
7.814050
 20
14.913990
  0
VERTEX
  8
gg1
 10
7.814050
 20
14.904000
  0
VERTEX
  8
gg1
 10
7.824050
 20
14.894000
  0
VERTEX
  8
gg1
 10
7.854040
 20
14.894000
  0
SEQEND
  8
gg1
  0
POLYLINE
  8
gg1
 62
1
 40
0.000000
 41
0.000000
 66
  1
  0
VERTEX
  8
gg1
 10
7.874030
 20
14.923990
  0
VERTEX
  8
gg1
 10
7.914020
 20
14.923990
  0
VERTEX
  8
gg1
 10
7.914020
 20
14.913990
  0
VERTEX
  8
gg1
 10
7.874030
 20
14.874010
  0
VERTEX
  8
gg1
 10
7.874030
 20
14.864010
  0
SEQEND
  8
gg1
  0
POLYLINE
  8
gg1
 62
1
 40
0.000000
 41
0.000000
 66
  1
  0
VERTEX
  8
gg1
 10
7.934010
 20
14.913990
  0
VERTEX
  8
gg1
 10
7.944010
 20
14.923990
  0
VERTEX
  8
gg1
 10
7.964000
 20
14.923990
  0
VERTEX
  8
gg1
 10
7.974000
 20
14.913990
  0
VERTEX
  8
gg1
 10
7.974000
 20
14.874010
  0
VERTEX
  8
gg1
 10
7.964000
 20
14.864010
  0
VERTEX
  8
gg1
 10
7.944010
 20
14.864010
  0
VERTEX
  8
gg1
 10
7.934010
 20
14.874010
  0
VERTEX
  8
gg1
 10
7.934010
 20
14.913990
  0
SEQEND
  8
gg1
  0
POLYLINE
  8
gg1
 62
1
 40
0.000000
 41
0.000000
 66
  1
  0
VERTEX
  8
gg1
 10
7.993990
 20
14.864010
  0
VERTEX
  8
gg1
 10
7.993990
 20
14.904000
  0
VERTEX
  8
gg1
 10
8.003990
 20
14.904000
  0
VERTEX
  8
gg1
 10
8.013980
 20
14.894000
  0
VERTEX
  8
gg1
 10
8.013980
 20
14.864010
  0
VERTEX
  8
gg1
 10
8.013980
 20
14.894000
  0
VERTEX
  8
gg1
 10
8.023980
 20
14.904000
  0
VERTEX
  8
gg1
 10
8.033980
 20
14.894000
  0
VERTEX
  8
gg1
 10
8.033980
 20
14.864010
  0
SEQEND
  8
gg1
  0
POLYLINE
  8
gg1
 62
1
 40
0.000000
 41
0.000000
 66
  1
  0
VERTEX
  8
gg1
 10
8.053970
 20
14.864010
  0
VERTEX
  8
gg1
 10
8.073970
 20
14.864010
  0
VERTEX
  8
gg1
 10
8.063970
 20
14.864010
  0
VERTEX
  8
gg1
 10
8.063970
 20
14.904000
  0
VERTEX
  8
gg1
 10
8.053970
 20
14.904000
  0
SEQEND
  8
gg1
  0
POLYLINE
  8
gg1
 62
1
 40
0.000000
 41
0.000000
 66
  1
  0
VERTEX
  8
gg1
 10
8.103960
 20
14.864010
  0
VERTEX
  8
gg1
 10
8.123950
 20
14.864010
  0
VERTEX
  8
gg1
 10
8.113950
 20
14.864010
  0
VERTEX
  8
gg1
 10
8.113950
 20
14.923990
  0
VERTEX
  8
gg1
 10
8.103960
 20
14.923990
  0
SEQEND
  8
gg1
  0
POLYLINE
  8
gm
 62
1
 40
0.000000
 41
0.000000
 66
  1
  0
VERTEX
  8
gm
 10
7.500000
 20
15.000000
  0
VERTEX
  8
gm
 10
8.470000
 20
15.000000
  0
VERTEX
  8
gm
 10
8.470000
 20
15.970000
  0
VERTEX
  8
gm
 10
7.500000
 20
15.970000
  0
VERTEX
  8
gm
 10
7.500000
 20
15.000000
  0
SEQEND
  8
gm
  0
ENDSEC
  0
EOF
