  0
SECTION
  2
HEADER
  9
$EXTMIN
 10
-0.413000
 20
-0.153000
  9
$EXTMAX
 10
0.338000
 20
0.363000
  9
$LIMMIN
 10
-0.413000
 20
-0.153000
  9
$LIMMAX
 10
0.338000
 20
0.363000
  9
$FILLMODE
 70
  1
  0
ENDSEC
  0
SECTION
  2
TABLES
  0
TABLE
  2
LTYPE
 70
  1
  0
LTYPE
  2
CONTINUOUS
 70
 64
  3
Solid line
 72
 65
 73
  0
 40
0.0
  0
ENDTAB
  0
TABLE
  2
LAYER
 70
 1
  0
LAYER
  2
0
 70
  0
 62
7
  6
CONTINUOUS
  0
LAYER
  2
gg1
 70
  0
 62
1
  6
CONTINUOUS
  0
ENDTAB
  0
TABLE
  2
STYLE
 70
  1
  0
STYLE
  2
STANDARD
 70
  0
 40
0.0
 41
1.0
 50
0.0
 71
  0
 42
0.2
  3
txt
  4

  0
ENDTAB
  0
ENDSEC
  0
SECTION
  2
BLOCKS
  0
BLOCK
  8
0
  2
D10
 70
64
 10
0.0
 20
0.0
  3
D10
  0
CIRCLE
  8
0
 10
0.000000
 20
0.000000
 40
0.005000
 0
ENDBLK
  8
0
  0
BLOCK
  8
0
  2
D11
 70
64
 10
0.0
 20
0.0
  3
D11
  0
CIRCLE
  8
0
 10
0.000000
 20
0.000000
 40
0.002500
 0
ENDBLK
  8
0
  0
BLOCK
  8
0
  2
D12
 70
64
 10
0.0
 20
0.0
  3
D12
  0
CIRCLE
  8
0
 10
0.000000
 20
0.000000
 40
0.003000
 0
ENDBLK
  8
0
  0
ENDSEC
  0
SECTION
  2
ENTITIES
  0
POLYLINE
  8
gg1
 62
1
 40
0.000000
 41
0.000000
 66
  1
  0
VERTEX
  8
gg1
 10
0.300000
 20
-0.060000
  0
VERTEX
  8
gg1
 10
0.300000
 20
-0.012500
  0
SEQEND
  8
gg1
  0
POLYLINE
  8
gg1
 62
1
 40
0.000000
 41
0.000000
 66
  1
  0
VERTEX
  8
gg1
 10
0.000000
 20
-0.060000
  0
VERTEX
  8
gg1
 10
0.000000
 20
-0.012500
  0
SEQEND
  8
gg1
  0
POLYLINE
  8
gg1
 62
1
 40
0.000000
 41
0.000000
 66
  1
  0
VERTEX
  8
gg1
 10
0.150000
 20
-0.050000
  0
VERTEX
  8
gg1
 10
0.300000
 20
-0.050000
  0
SEQEND
  8
gg1
  0
POLYLINE
  8
gg1
 62
1
 40
0.000000
 41
0.000000
 66
  1
  0
VERTEX
  8
gg1
 10
0.000000
 20
-0.050000
  0
VERTEX
  8
gg1
 10
0.150000
 20
-0.050000
  0
SEQEND
  8
gg1
  0
POLYLINE
  8
gg1
 62
1
 40
0.000000
 41
0.000000
 66
  1
  0
VERTEX
  8
gg1
 10
0.240000
 20
-0.030000
  0
VERTEX
  8
gg1
 10
0.300000
 20
-0.050000
  0
SEQEND
  8
gg1
  0
POLYLINE
  8
gg1
 62
1
 40
0.000000
 41
0.000000
 66
  1
  0
VERTEX
  8
gg1
 10
0.240000
 20
-0.070000
  0
VERTEX
  8
gg1
 10
0.300000
 20
-0.050000
  0
SEQEND
  8
gg1
  0
POLYLINE
  8
gg1
 62
1
 40
0.000000
 41
0.000000
 66
  1
  0
VERTEX
  8
gg1
 10
0.000000
 20
-0.050000
  0
VERTEX
  8
gg1
 10
0.060000
 20
-0.070000
  0
SEQEND
  8
gg1
  0
POLYLINE
  8
gg1
 62
1
 40
0.000000
 41
0.000000
 66
  1
  0
VERTEX
  8
gg1
 10
0.000000
 20
-0.050000
  0
VERTEX
  8
gg1
 10
0.060000
 20
-0.030000
  0
SEQEND
  8
gg1
  0
POLYLINE
  8
gg1
 62
1
 40
0.000000
 41
0.000000
 66
  1
  0
VERTEX
  8
gg1
 10
-0.310000
 20
0.350000
  0
VERTEX
  8
gg1
 10
-0.012500
 20
0.350000
  0
SEQEND
  8
gg1
  0
POLYLINE
  8
gg1
 62
1
 40
0.000000
 41
0.000000
 66
  1
  0
VERTEX
  8
gg1
 10
-0.310000
 20
0.000000
  0
VERTEX
  8
gg1
 10
-0.012500
 20
0.000000
  0
SEQEND
  8
gg1
  0
POLYLINE
  8
gg1
 62
1
 40
0.000000
 41
0.000000
 66
  1
  0
VERTEX
  8
gg1
 10
-0.300000
 20
0.175000
  0
VERTEX
  8
gg1
 10
-0.300000
 20
0.350000
  0
SEQEND
  8
gg1
  0
POLYLINE
  8
gg1
 62
1
 40
0.000000
 41
0.000000
 66
  1
  0
VERTEX
  8
gg1
 10
-0.300000
 20
0.000000
  0
VERTEX
  8
gg1
 10
-0.300000
 20
0.175000
  0
SEQEND
  8
gg1
  0
POLYLINE
  8
gg1
 62
1
 40
0.000000
 41
0.000000
 66
  1
  0
VERTEX
  8
gg1
 10
-0.320000
 20
0.290000
  0
VERTEX
  8
gg1
 10
-0.300000
 20
0.350000
  0
VERTEX
  8
gg1
 10
-0.280000
 20
0.290000
  0
SEQEND
  8
gg1
  0
POLYLINE
  8
gg1
 62
1
 40
0.000000
 41
0.000000
 66
  1
  0
VERTEX
  8
gg1
 10
-0.300000
 20
0.000000
  0
VERTEX
  8
gg1
 10
-0.280000
 20
0.060000
  0
SEQEND
  8
gg1
  0
POLYLINE
  8
gg1
 62
1
 40
0.000000
 41
0.000000
 66
  1
  0
VERTEX
  8
gg1
 10
-0.320000
 20
0.060000
  0
VERTEX
  8
gg1
 10
-0.300000
 20
0.000000
  0
SEQEND
  8
gg1
  0
POLYLINE
  8
gg1
 62
1
 40
0.000000
 41
0.000000
 66
  1
  0
VERTEX
  8
gg1
 10
0.000000
 20
0.000000
  0
VERTEX
  8
gg1
 10
0.300000
 20
0.000000
  0
VERTEX
  8
gg1
 10
0.300000
 20
0.350000
  0
SEQEND
  8
gg1
  0
POLYLINE
  8
gg1
 62
1
 40
0.000000
 41
0.000000
 66
  1
  0
VERTEX
  8
gg1
 10
0.000000
 20
0.350000
  0
VERTEX
  8
gg1
 10
0.300000
 20
0.350000
  0
SEQEND
  8
gg1
  0
POLYLINE
  8
gg1
 62
1
 40
0.000000
 41
0.000000
 66
  1
  0
VERTEX
  8
gg1
 10
0.000000
 20
0.000000
  0
VERTEX
  8
gg1
 10
0.000000
 20
0.350000
  0
SEQEND
  8
gg1
  0
POLYLINE
  8
gg1
 62
1
 40
0.000000
 41
0.000000
 66
  1
  0
VERTEX
  8
gg1
 10
0.230000
 20
0.050000
  0
VERTEX
  8
gg1
 10
0.270000
 20
0.050000
  0
SEQEND
  8
gg1
  0
POLYLINE
  8
gg1
 62
1
 40
0.000000
 41
0.000000
 66
  1
  0
VERTEX
  8
gg1
 10
0.250000
 20
0.030000
  0
VERTEX
  8
gg1
 10
0.250000
 20
0.070000
  0
SEQEND
  8
gg1
  0
POLYLINE
  8
gg1
 62
1
 40
0.000000
 41
0.000000
 66
  1
  0
VERTEX
  8
gg1
 10
0.130000
 20
0.050000
  0
VERTEX
  8
gg1
 10
0.170000
 20
0.050000
  0
SEQEND
  8
gg1
  0
POLYLINE
  8
gg1
 62
1
 40
0.000000
 41
0.000000
 66
  1
  0
VERTEX
  8
gg1
 10
0.150000
 20
0.030000
  0
VERTEX
  8
gg1
 10
0.150000
 20
0.070000
  0
SEQEND
  8
gg1
  0
POLYLINE
  8
gg1
 62
1
 40
0.000000
 41
0.000000
 66
  1
  0
VERTEX
  8
gg1
 10
0.030000
 20
0.050000
  0
VERTEX
  8
gg1
 10
0.070000
 20
0.050000
  0
SEQEND
  8
gg1
  0
POLYLINE
  8
gg1
 62
1
 40
0.000000
 41
0.000000
 66
  1
  0
VERTEX
  8
gg1
 10
0.050000
 20
0.030000
  0
VERTEX
  8
gg1
 10
0.050000
 20
0.070000
  0
SEQEND
  8
gg1
  0
POLYLINE
  8
gg1
 62
1
 40
0.000000
 41
0.000000
 66
  1
  0
VERTEX
  8
gg1
 10
0.025000
 20
-0.100000
  0
VERTEX
  8
gg1
 10
0.035000
 20
-0.090000
  0
VERTEX
  8
gg1
 10
0.055000
 20
-0.090000
  0
VERTEX
  8
gg1
 10
0.065000
 20
-0.100000
  0
VERTEX
  8
gg1
 10
0.065000
 20
-0.110000
  0
VERTEX
  8
gg1
 10
0.055000
 20
-0.120000
  0
VERTEX
  8
gg1
 10
0.045000
 20
-0.120000
  0
VERTEX
  8
gg1
 10
0.055000
 20
-0.120000
  0
VERTEX
  8
gg1
 10
0.065000
 20
-0.130000
  0
VERTEX
  8
gg1
 10
0.065000
 20
-0.140000
  0
VERTEX
  8
gg1
 10
0.055000
 20
-0.150000
  0
VERTEX
  8
gg1
 10
0.035000
 20
-0.150000
  0
VERTEX
  8
gg1
 10
0.025000
 20
-0.140000
  0
SEQEND
  8
gg1
  0
POLYLINE
  8
gg1
 62
1
 40
0.000000
 41
0.000000
 66
  1
  0
VERTEX
  8
gg1
 10
0.085000
 20
-0.100000
  0
VERTEX
  8
gg1
 10
0.095000
 20
-0.090000
  0
VERTEX
  8
gg1
 10
0.115000
 20
-0.090000
  0
VERTEX
  8
gg1
 10
0.125000
 20
-0.100000
  0
VERTEX
  8
gg1
 10
0.125000
 20
-0.140000
  0
VERTEX
  8
gg1
 10
0.115000
 20
-0.150000
  0
VERTEX
  8
gg1
 10
0.095000
 20
-0.150000
  0
VERTEX
  8
gg1
 10
0.085000
 20
-0.140000
  0
VERTEX
  8
gg1
 10
0.085000
 20
-0.100000
  0
SEQEND
  8
gg1
  0
POLYLINE
  8
gg1
 62
1
 40
0.000000
 41
0.000000
 66
  1
  0
VERTEX
  8
gg1
 10
0.145000
 20
-0.100000
  0
VERTEX
  8
gg1
 10
0.155000
 20
-0.090000
  0
VERTEX
  8
gg1
 10
0.175000
 20
-0.090000
  0
VERTEX
  8
gg1
 10
0.184900
 20
-0.100000
  0
VERTEX
  8
gg1
 10
0.184900
 20
-0.140000
  0
VERTEX
  8
gg1
 10
0.175000
 20
-0.150000
  0
VERTEX
  8
gg1
 10
0.155000
 20
-0.150000
  0
VERTEX
  8
gg1
 10
0.145000
 20
-0.140000
  0
VERTEX
  8
gg1
 10
0.145000
 20
-0.100000
  0
SEQEND
  8
gg1
  0
POLYLINE
  8
gg1
 62
1
 40
0.000000
 41
0.000000
 66
  1
  0
VERTEX
  8
gg1
 10
0.204900
 20
-0.150000
  0
VERTEX
  8
gg1
 10
0.204900
 20
-0.110000
  0
VERTEX
  8
gg1
 10
0.214900
 20
-0.110000
  0
VERTEX
  8
gg1
 10
0.224900
 20
-0.120000
  0
VERTEX
  8
gg1
 10
0.224900
 20
-0.150000
  0
VERTEX
  8
gg1
 10
0.224900
 20
-0.120000
  0
VERTEX
  8
gg1
 10
0.234900
 20
-0.110000
  0
VERTEX
  8
gg1
 10
0.244900
 20
-0.120000
  0
VERTEX
  8
gg1
 10
0.244900
 20
-0.150000
  0
SEQEND
  8
gg1
  0
POLYLINE
  8
gg1
 62
1
 40
0.000000
 41
0.000000
 66
  1
  0
VERTEX
  8
gg1
 10
0.264900
 20
-0.150000
  0
VERTEX
  8
gg1
 10
0.284900
 20
-0.150000
  0
VERTEX
  8
gg1
 10
0.274900
 20
-0.150000
  0
VERTEX
  8
gg1
 10
0.274900
 20
-0.110000
  0
VERTEX
  8
gg1
 10
0.264900
 20
-0.110000
  0
SEQEND
  8
gg1
  0
POLYLINE
  8
gg1
 62
1
 40
0.000000
 41
0.000000
 66
  1
  0
VERTEX
  8
gg1
 10
0.314900
 20
-0.150000
  0
VERTEX
  8
gg1
 10
0.334900
 20
-0.150000
  0
VERTEX
  8
gg1
 10
0.324900
 20
-0.150000
  0
VERTEX
  8
gg1
 10
0.324900
 20
-0.090000
  0
VERTEX
  8
gg1
 10
0.314900
 20
-0.090000
  0
SEQEND
  8
gg1
  0
POLYLINE
  8
gg1
 62
1
 40
0.000000
 41
0.000000
 66
  1
  0
VERTEX
  8
gg1
 10
-0.400000
 20
0.050000
  0
VERTEX
  8
gg1
 10
-0.410000
 20
0.060000
  0
VERTEX
  8
gg1
 10
-0.410000
 20
0.080000
  0
VERTEX
  8
gg1
 10
-0.400000
 20
0.090000
  0
VERTEX
  8
gg1
 10
-0.390000
 20
0.090000
  0
VERTEX
  8
gg1
 10
-0.380000
 20
0.080000
  0
VERTEX
  8
gg1
 10
-0.380000
 20
0.070000
  0
VERTEX
  8
gg1
 10
-0.380000
 20
0.080000
  0
VERTEX
  8
gg1
 10
-0.370000
 20
0.090000
  0
VERTEX
  8
gg1
 10
-0.360000
 20
0.090000
  0
VERTEX
  8
gg1
 10
-0.350000
 20
0.080000
  0
VERTEX
  8
gg1
 10
-0.350000
 20
0.060000
  0
VERTEX
  8
gg1
 10
-0.360000
 20
0.050000
  0
SEQEND
  8
gg1
  0
POLYLINE
  8
gg1
 62
1
 40
0.000000
 41
0.000000
 66
  1
  0
VERTEX
  8
gg1
 10
-0.410000
 20
0.150000
  0
VERTEX
  8
gg1
 10
-0.410000
 20
0.110000
  0
VERTEX
  8
gg1
 10
-0.380000
 20
0.110000
  0
VERTEX
  8
gg1
 10
-0.390000
 20
0.130000
  0
VERTEX
  8
gg1
 10
-0.390000
 20
0.140000
  0
VERTEX
  8
gg1
 10
-0.380000
 20
0.150000
  0
VERTEX
  8
gg1
 10
-0.360000
 20
0.150000
  0
VERTEX
  8
gg1
 10
-0.350000
 20
0.140000
  0
VERTEX
  8
gg1
 10
-0.350000
 20
0.120000
  0
VERTEX
  8
gg1
 10
-0.360000
 20
0.110000
  0
SEQEND
  8
gg1
  0
POLYLINE
  8
gg1
 62
1
 40
0.000000
 41
0.000000
 66
  1
  0
VERTEX
  8
gg1
 10
-0.400000
 20
0.170000
  0
VERTEX
  8
gg1
 10
-0.410000
 20
0.180000
  0
VERTEX
  8
gg1
 10
-0.410000
 20
0.200000
  0
VERTEX
  8
gg1
 10
-0.400000
 20
0.209900
  0
VERTEX
  8
gg1
 10
-0.360000
 20
0.209900
  0
VERTEX
  8
gg1
 10
-0.350000
 20
0.200000
  0
VERTEX
  8
gg1
 10
-0.350000
 20
0.180000
  0
VERTEX
  8
gg1
 10
-0.360000
 20
0.170000
  0
VERTEX
  8
gg1
 10
-0.400000
 20
0.170000
  0
SEQEND
  8
gg1
  0
POLYLINE
  8
gg1
 62
1
 40
0.000000
 41
0.000000
 66
  1
  0
VERTEX
  8
gg1
 10
-0.350000
 20
0.229900
  0
VERTEX
  8
gg1
 10
-0.390000
 20
0.229900
  0
VERTEX
  8
gg1
 10
-0.390000
 20
0.239900
  0
VERTEX
  8
gg1
 10
-0.380000
 20
0.249900
  0
VERTEX
  8
gg1
 10
-0.350000
 20
0.249900
  0
VERTEX
  8
gg1
 10
-0.380000
 20
0.249900
  0
VERTEX
  8
gg1
 10
-0.390000
 20
0.259900
  0
VERTEX
  8
gg1
 10
-0.380000
 20
0.269900
  0
VERTEX
  8
gg1
 10
-0.350000
 20
0.269900
  0
SEQEND
  8
gg1
  0
POLYLINE
  8
gg1
 62
1
 40
0.000000
 41
0.000000
 66
  1
  0
VERTEX
  8
gg1
 10
-0.350000
 20
0.289900
  0
VERTEX
  8
gg1
 10
-0.350000
 20
0.309900
  0
VERTEX
  8
gg1
 10
-0.350000
 20
0.299900
  0
VERTEX
  8
gg1
 10
-0.390000
 20
0.299900
  0
VERTEX
  8
gg1
 10
-0.390000
 20
0.289900
  0
SEQEND
  8
gg1
  0
POLYLINE
  8
gg1
 62
1
 40
0.000000
 41
0.000000
 66
  1
  0
VERTEX
  8
gg1
 10
-0.350000
 20
0.339900
  0
VERTEX
  8
gg1
 10
-0.350000
 20
0.359900
  0
VERTEX
  8
gg1
 10
-0.350000
 20
0.349900
  0
VERTEX
  8
gg1
 10
-0.410000
 20
0.349900
  0
VERTEX
  8
gg1
 10
-0.410000
 20
0.339900
  0
SEQEND
  8
gg1
  0
ENDSEC
  0
EOF
