  0
SECTION
  2
HEADER
  9
$EXTMIN
 10
-0.118000
 20
-0.122000
  9
$EXTMAX
 10
0.905000
 20
0.825000
  9
$LIMMIN
 10
-0.118000
 20
-0.122000
  9
$LIMMAX
 10
0.905000
 20
0.825000
  9
$FILLMODE
 70
  1
  0
ENDSEC
  0
SECTION
  2
TABLES
  0
TABLE
  2
LTYPE
 70
  1
  0
LTYPE
  2
CONTINUOUS
 70
 64
  3
Solid line
 72
 65
 73
  0
 40
0.0
  0
ENDTAB
  0
TABLE
  2
LAYER
 70
 1
  0
LAYER
  2
0
 70
  0
 62
7
  6
CONTINUOUS
  0
LAYER
  2
gg1
 70
  0
 62
1
  6
CONTINUOUS
  0
ENDTAB
  0
TABLE
  2
STYLE
 70
  1
  0
STYLE
  2
STANDARD
 70
  0
 40
0.0
 41
1.0
 50
0.0
 71
  0
 42
0.2
  3
txt
  4

  0
ENDTAB
  0
ENDSEC
  0
SECTION
  2
BLOCKS
  0
BLOCK
  8
0
  2
D10
 70
64
 10
0.0
 20
0.0
  3
D10
  0
CIRCLE
  8
0
 10
0.000000
 20
0.000000
 40
0.004000
 0
ENDBLK
  8
0
  0
BLOCK
  8
0
  2
D11
 70
64
 10
0.0
 20
0.0
  3
D11
  0
CIRCLE
  8
0
 10
0.000000
 20
0.000000
 40
0.005000
 0
ENDBLK
  8
0
  0
BLOCK
  8
0
  2
D12
 70
64
 10
0.0
 20
0.0
  3
D12
  0
CIRCLE
  8
0
 10
0.000000
 20
0.000000
 40
0.003000
 0
ENDBLK
  8
0
  0
BLOCK
  8
0
  2
D13
 70
64
 10
0.0
 20
0.0
  3
D13
  0
CIRCLE
  8
0
 10
0.000000
 20
0.000000
 40
0.002500
 0
ENDBLK
  8
0
  0
ENDSEC
  0
SECTION
  2
ENTITIES
  0
POLYLINE
  8
gg1
 62
1
 40
0.000000
 41
0.000000
 66
  1
  0
VERTEX
  8
gg1
 10
0.000000
 20
0.000000
  0
VERTEX
  8
gg1
 10
0.000000
 20
0.820000
  0
VERTEX
  8
gg1
 10
0.900000
 20
0.820000
  0
SEQEND
  8
gg1
  0
POLYLINE
  8
gg1
 62
1
 40
0.000000
 41
0.000000
 66
  1
  0
VERTEX
  8
gg1
 10
0.900000
 20
0.000000
  0
VERTEX
  8
gg1
 10
0.900000
 20
0.820000
  0
SEQEND
  8
gg1
  0
POLYLINE
  8
gg1
 62
1
 40
0.000000
 41
0.000000
 66
  1
  0
VERTEX
  8
gg1
 10
0.000000
 20
0.000000
  0
VERTEX
  8
gg1
 10
0.900000
 20
0.000000
  0
SEQEND
  8
gg1
  0
POLYLINE
  8
gg1
 62
1
 40
0.000000
 41
0.000000
 66
  1
  0
VERTEX
  8
gg1
 10
-0.111000
 20
0.060000
  0
VERTEX
  8
gg1
 10
-0.091000
 20
0.000000
  0
VERTEX
  8
gg1
 10
-0.071000
 20
0.060000
  0
SEQEND
  8
gg1
  0
POLYLINE
  8
gg1
 62
1
 40
0.000000
 41
0.000000
 66
  1
  0
VERTEX
  8
gg1
 10
-0.091000
 20
0.820000
  0
VERTEX
  8
gg1
 10
-0.071000
 20
0.760000
  0
SEQEND
  8
gg1
  0
POLYLINE
  8
gg1
 62
1
 40
0.000000
 41
0.000000
 66
  1
  0
VERTEX
  8
gg1
 10
-0.111000
 20
0.760000
  0
VERTEX
  8
gg1
 10
-0.091000
 20
0.820000
  0
SEQEND
  8
gg1
  0
POLYLINE
  8
gg1
 62
1
 40
0.000000
 41
0.000000
 66
  1
  0
VERTEX
  8
gg1
 10
-0.091000
 20
0.000000
  0
VERTEX
  8
gg1
 10
-0.091000
 20
0.223000
  0
SEQEND
  8
gg1
  0
POLYLINE
  8
gg1
 62
1
 40
0.000000
 41
0.000000
 66
  1
  0
VERTEX
  8
gg1
 10
-0.091000
 20
0.564900
  0
VERTEX
  8
gg1
 10
-0.091000
 20
0.820000
  0
SEQEND
  8
gg1
  0
POLYLINE
  8
gg1
 62
1
 40
0.000000
 41
0.000000
 66
  1
  0
VERTEX
  8
gg1
 10
-0.101000
 20
0.000000
  0
VERTEX
  8
gg1
 10
-0.015000
 20
0.000000
  0
SEQEND
  8
gg1
  0
POLYLINE
  8
gg1
 62
1
 40
0.000000
 41
0.000000
 66
  1
  0
VERTEX
  8
gg1
 10
-0.101000
 20
0.820000
  0
VERTEX
  8
gg1
 10
-0.015000
 20
0.820000
  0
SEQEND
  8
gg1
  0
POLYLINE
  8
gg1
 62
1
 40
0.000000
 41
0.000000
 66
  1
  0
VERTEX
  8
gg1
 10
0.000000
 20
-0.083000
  0
VERTEX
  8
gg1
 10
0.060000
 20
-0.063000
  0
SEQEND
  8
gg1
  0
POLYLINE
  8
gg1
 62
1
 40
0.000000
 41
0.000000
 66
  1
  0
VERTEX
  8
gg1
 10
0.000000
 20
-0.083000
  0
VERTEX
  8
gg1
 10
0.060000
 20
-0.103000
  0
SEQEND
  8
gg1
  0
POLYLINE
  8
gg1
 62
1
 40
0.000000
 41
0.000000
 66
  1
  0
VERTEX
  8
gg1
 10
0.840000
 20
-0.103000
  0
VERTEX
  8
gg1
 10
0.900000
 20
-0.083000
  0
SEQEND
  8
gg1
  0
POLYLINE
  8
gg1
 62
1
 40
0.000000
 41
0.000000
 66
  1
  0
VERTEX
  8
gg1
 10
0.840000
 20
-0.063000
  0
VERTEX
  8
gg1
 10
0.900000
 20
-0.083000
  0
SEQEND
  8
gg1
  0
POLYLINE
  8
gg1
 62
1
 40
0.000000
 41
0.000000
 66
  1
  0
VERTEX
  8
gg1
 10
0.000000
 20
-0.083000
  0
VERTEX
  8
gg1
 10
0.263000
 20
-0.083000
  0
SEQEND
  8
gg1
  0
POLYLINE
  8
gg1
 62
1
 40
0.000000
 41
0.000000
 66
  1
  0
VERTEX
  8
gg1
 10
0.605000
 20
-0.083000
  0
VERTEX
  8
gg1
 10
0.900000
 20
-0.083000
  0
SEQEND
  8
gg1
  0
POLYLINE
  8
gg1
 62
1
 40
0.000000
 41
0.000000
 66
  1
  0
VERTEX
  8
gg1
 10
0.000000
 20
-0.093000
  0
VERTEX
  8
gg1
 10
0.000000
 20
-0.015000
  0
SEQEND
  8
gg1
  0
POLYLINE
  8
gg1
 62
1
 40
0.000000
 41
0.000000
 66
  1
  0
VERTEX
  8
gg1
 10
0.900000
 20
-0.093000
  0
VERTEX
  8
gg1
 10
0.900000
 20
-0.015000
  0
SEQEND
  8
gg1
  0
POLYLINE
  8
gg1
 62
1
 40
0.000000
 41
0.000000
 66
  1
  0
VERTEX
  8
gg1
 10
-0.105000
 20
0.239100
  0
VERTEX
  8
gg1
 10
-0.115000
 20
0.249000
  0
VERTEX
  8
gg1
 10
-0.115000
 20
0.269000
  0
VERTEX
  8
gg1
 10
-0.105000
 20
0.279000
  0
VERTEX
  8
gg1
 10
-0.095000
 20
0.279000
  0
VERTEX
  8
gg1
 10
-0.085000
 20
0.269000
  0
VERTEX
  8
gg1
 10
-0.075000
 20
0.279000
  0
VERTEX
  8
gg1
 10
-0.065000
 20
0.279000
  0
VERTEX
  8
gg1
 10
-0.055000
 20
0.269000
  0
VERTEX
  8
gg1
 10
-0.055000
 20
0.249000
  0
VERTEX
  8
gg1
 10
-0.065000
 20
0.239100
  0
VERTEX
  8
gg1
 10
-0.075000
 20
0.239100
  0
VERTEX
  8
gg1
 10
-0.085000
 20
0.249000
  0
VERTEX
  8
gg1
 10
-0.095000
 20
0.239100
  0
VERTEX
  8
gg1
 10
-0.105000
 20
0.239100
  0
SEQEND
  8
gg1
  0
POLYLINE
  8
gg1
 62
1
 40
0.000000
 41
0.000000
 66
  1
  0
VERTEX
  8
gg1
 10
-0.085000
 20
0.249000
  0
VERTEX
  8
gg1
 10
-0.085000
 20
0.269000
  0
SEQEND
  8
gg1
  0
POLYLINE
  8
gg1
 62
1
 40
0.000000
 41
0.000000
 66
  1
  0
VERTEX
  8
gg1
 10
-0.055000
 20
0.339000
  0
VERTEX
  8
gg1
 10
-0.055000
 20
0.299000
  0
VERTEX
  8
gg1
 10
-0.095000
 20
0.339000
  0
VERTEX
  8
gg1
 10
-0.105000
 20
0.339000
  0
VERTEX
  8
gg1
 10
-0.115000
 20
0.329000
  0
VERTEX
  8
gg1
 10
-0.115000
 20
0.309000
  0
VERTEX
  8
gg1
 10
-0.105000
 20
0.299000
  0
SEQEND
  8
gg1
  0
POLYLINE
  8
gg1
 62
1
 40
0.000000
 41
0.000000
 66
  1
  0
VERTEX
  8
gg1
 10
-0.105000
 20
0.359000
  0
VERTEX
  8
gg1
 10
-0.115000
 20
0.369000
  0
VERTEX
  8
gg1
 10
-0.115000
 20
0.389000
  0
VERTEX
  8
gg1
 10
-0.105000
 20
0.399000
  0
VERTEX
  8
gg1
 10
-0.065000
 20
0.399000
  0
VERTEX
  8
gg1
 10
-0.055000
 20
0.389000
  0
VERTEX
  8
gg1
 10
-0.055000
 20
0.369000
  0
VERTEX
  8
gg1
 10
-0.065000
 20
0.359000
  0
VERTEX
  8
gg1
 10
-0.105000
 20
0.359000
  0
SEQEND
  8
gg1
  0
POLYLINE
  8
gg1
 62
1
 40
0.000000
 41
0.000000
 66
  1
  0
VERTEX
  8
gg1
 10
-0.055000
 20
0.419000
  0
VERTEX
  8
gg1
 10
-0.095000
 20
0.419000
  0
VERTEX
  8
gg1
 10
-0.095000
 20
0.429000
  0
VERTEX
  8
gg1
 10
-0.085000
 20
0.439000
  0
VERTEX
  8
gg1
 10
-0.055000
 20
0.439000
  0
VERTEX
  8
gg1
 10
-0.085000
 20
0.439000
  0
VERTEX
  8
gg1
 10
-0.095000
 20
0.449000
  0
VERTEX
  8
gg1
 10
-0.085000
 20
0.459000
  0
VERTEX
  8
gg1
 10
-0.055000
 20
0.459000
  0
SEQEND
  8
gg1
  0
POLYLINE
  8
gg1
 62
1
 40
0.000000
 41
0.000000
 66
  1
  0
VERTEX
  8
gg1
 10
-0.055000
 20
0.479000
  0
VERTEX
  8
gg1
 10
-0.055000
 20
0.499000
  0
VERTEX
  8
gg1
 10
-0.055000
 20
0.489000
  0
VERTEX
  8
gg1
 10
-0.095000
 20
0.489000
  0
VERTEX
  8
gg1
 10
-0.095000
 20
0.479000
  0
SEQEND
  8
gg1
  0
POLYLINE
  8
gg1
 62
1
 40
0.000000
 41
0.000000
 66
  1
  0
VERTEX
  8
gg1
 10
-0.055000
 20
0.529000
  0
VERTEX
  8
gg1
 10
-0.055000
 20
0.549000
  0
VERTEX
  8
gg1
 10
-0.055000
 20
0.539000
  0
VERTEX
  8
gg1
 10
-0.115000
 20
0.539000
  0
VERTEX
  8
gg1
 10
-0.115000
 20
0.529000
  0
SEQEND
  8
gg1
  0
POLYLINE
  8
gg1
 62
1
 40
0.000000
 41
0.000000
 66
  1
  0
VERTEX
  8
gg1
 10
0.279000
 20
-0.109000
  0
VERTEX
  8
gg1
 10
0.289000
 20
-0.119000
  0
VERTEX
  8
gg1
 10
0.309000
 20
-0.119000
  0
VERTEX
  8
gg1
 10
0.319000
 20
-0.109000
  0
VERTEX
  8
gg1
 10
0.319000
 20
-0.069000
  0
VERTEX
  8
gg1
 10
0.309000
 20
-0.059000
  0
VERTEX
  8
gg1
 10
0.289000
 20
-0.059000
  0
VERTEX
  8
gg1
 10
0.279000
 20
-0.069000
  0
VERTEX
  8
gg1
 10
0.279000
 20
-0.079000
  0
VERTEX
  8
gg1
 10
0.289000
 20
-0.089000
  0
VERTEX
  8
gg1
 10
0.319000
 20
-0.089000
  0
SEQEND
  8
gg1
  0
POLYLINE
  8
gg1
 62
1
 40
0.000000
 41
0.000000
 66
  1
  0
VERTEX
  8
gg1
 10
0.339000
 20
-0.069000
  0
VERTEX
  8
gg1
 10
0.349000
 20
-0.059000
  0
VERTEX
  8
gg1
 10
0.369000
 20
-0.059000
  0
VERTEX
  8
gg1
 10
0.379000
 20
-0.069000
  0
VERTEX
  8
gg1
 10
0.379000
 20
-0.109000
  0
VERTEX
  8
gg1
 10
0.369000
 20
-0.119000
  0
VERTEX
  8
gg1
 10
0.349000
 20
-0.119000
  0
VERTEX
  8
gg1
 10
0.339000
 20
-0.109000
  0
VERTEX
  8
gg1
 10
0.339000
 20
-0.069000
  0
SEQEND
  8
gg1
  0
POLYLINE
  8
gg1
 62
1
 40
0.000000
 41
0.000000
 66
  1
  0
VERTEX
  8
gg1
 10
0.399000
 20
-0.069000
  0
VERTEX
  8
gg1
 10
0.409000
 20
-0.059000
  0
VERTEX
  8
gg1
 10
0.429000
 20
-0.059000
  0
VERTEX
  8
gg1
 10
0.439000
 20
-0.069000
  0
VERTEX
  8
gg1
 10
0.439000
 20
-0.109000
  0
VERTEX
  8
gg1
 10
0.429000
 20
-0.119000
  0
VERTEX
  8
gg1
 10
0.409000
 20
-0.119000
  0
VERTEX
  8
gg1
 10
0.399000
 20
-0.109000
  0
VERTEX
  8
gg1
 10
0.399000
 20
-0.069000
  0
SEQEND
  8
gg1
  0
POLYLINE
  8
gg1
 62
1
 40
0.000000
 41
0.000000
 66
  1
  0
VERTEX
  8
gg1
 10
0.459000
 20
-0.119000
  0
VERTEX
  8
gg1
 10
0.459000
 20
-0.079000
  0
VERTEX
  8
gg1
 10
0.469000
 20
-0.079000
  0
VERTEX
  8
gg1
 10
0.479000
 20
-0.089000
  0
VERTEX
  8
gg1
 10
0.479000
 20
-0.119000
  0
VERTEX
  8
gg1
 10
0.479000
 20
-0.089000
  0
VERTEX
  8
gg1
 10
0.489000
 20
-0.079000
  0
VERTEX
  8
gg1
 10
0.499000
 20
-0.089000
  0
VERTEX
  8
gg1
 10
0.499000
 20
-0.119000
  0
SEQEND
  8
gg1
  0
POLYLINE
  8
gg1
 62
1
 40
0.000000
 41
0.000000
 66
  1
  0
VERTEX
  8
gg1
 10
0.519000
 20
-0.119000
  0
VERTEX
  8
gg1
 10
0.539000
 20
-0.119000
  0
VERTEX
  8
gg1
 10
0.529000
 20
-0.119000
  0
VERTEX
  8
gg1
 10
0.529000
 20
-0.079000
  0
VERTEX
  8
gg1
 10
0.519000
 20
-0.079000
  0
SEQEND
  8
gg1
  0
POLYLINE
  8
gg1
 62
1
 40
0.000000
 41
0.000000
 66
  1
  0
VERTEX
  8
gg1
 10
0.569000
 20
-0.119000
  0
VERTEX
  8
gg1
 10
0.588900
 20
-0.119000
  0
VERTEX
  8
gg1
 10
0.579000
 20
-0.119000
  0
VERTEX
  8
gg1
 10
0.579000
 20
-0.059000
  0
VERTEX
  8
gg1
 10
0.569000
 20
-0.059000
  0
SEQEND
  8
gg1
  0
POLYLINE
  8
gg1
 62
1
 40
0.000000
 41
0.000000
 66
  1
  0
VERTEX
  8
gg1
 10
0.820000
 20
0.660000
  0
VERTEX
  8
gg1
 10
0.860000
 20
0.660000
  0
SEQEND
  8
gg1
  0
POLYLINE
  8
gg1
 62
1
 40
0.000000
 41
0.000000
 66
  1
  0
VERTEX
  8
gg1
 10
0.840000
 20
0.640000
  0
VERTEX
  8
gg1
 10
0.840000
 20
0.680000
  0
SEQEND
  8
gg1
  0
POLYLINE
  8
gg1
 62
1
 40
0.000000
 41
0.000000
 66
  1
  0
VERTEX
  8
gg1
 10
0.820000
 20
0.560000
  0
VERTEX
  8
gg1
 10
0.860000
 20
0.560000
  0
SEQEND
  8
gg1
  0
POLYLINE
  8
gg1
 62
1
 40
0.000000
 41
0.000000
 66
  1
  0
VERTEX
  8
gg1
 10
0.840000
 20
0.540000
  0
VERTEX
  8
gg1
 10
0.840000
 20
0.580000
  0
SEQEND
  8
gg1
  0
POLYLINE
  8
gg1
 62
1
 40
0.000000
 41
0.000000
 66
  1
  0
VERTEX
  8
gg1
 10
0.820000
 20
0.060000
  0
VERTEX
  8
gg1
 10
0.860000
 20
0.060000
  0
SEQEND
  8
gg1
  0
POLYLINE
  8
gg1
 62
1
 40
0.000000
 41
0.000000
 66
  1
  0
VERTEX
  8
gg1
 10
0.840000
 20
0.040000
  0
VERTEX
  8
gg1
 10
0.840000
 20
0.080000
  0
SEQEND
  8
gg1
  0
POLYLINE
  8
gg1
 62
1
 40
0.000000
 41
0.000000
 66
  1
  0
VERTEX
  8
gg1
 10
0.820000
 20
0.160000
  0
VERTEX
  8
gg1
 10
0.860000
 20
0.160000
  0
SEQEND
  8
gg1
  0
POLYLINE
  8
gg1
 62
1
 40
0.000000
 41
0.000000
 66
  1
  0
VERTEX
  8
gg1
 10
0.840000
 20
0.140000
  0
VERTEX
  8
gg1
 10
0.840000
 20
0.180000
  0
SEQEND
  8
gg1
  0
POLYLINE
  8
gg1
 62
1
 40
0.000000
 41
0.000000
 66
  1
  0
VERTEX
  8
gg1
 10
0.820000
 20
0.260000
  0
VERTEX
  8
gg1
 10
0.860000
 20
0.260000
  0
SEQEND
  8
gg1
  0
POLYLINE
  8
gg1
 62
1
 40
0.000000
 41
0.000000
 66
  1
  0
VERTEX
  8
gg1
 10
0.840000
 20
0.240000
  0
VERTEX
  8
gg1
 10
0.840000
 20
0.280000
  0
SEQEND
  8
gg1
  0
POLYLINE
  8
gg1
 62
1
 40
0.000000
 41
0.000000
 66
  1
  0
VERTEX
  8
gg1
 10
0.820000
 20
0.360000
  0
VERTEX
  8
gg1
 10
0.860000
 20
0.360000
  0
SEQEND
  8
gg1
  0
POLYLINE
  8
gg1
 62
1
 40
0.000000
 41
0.000000
 66
  1
  0
VERTEX
  8
gg1
 10
0.840000
 20
0.340000
  0
VERTEX
  8
gg1
 10
0.840000
 20
0.380000
  0
SEQEND
  8
gg1
  0
POLYLINE
  8
gg1
 62
1
 40
0.000000
 41
0.000000
 66
  1
  0
VERTEX
  8
gg1
 10
0.820000
 20
0.460000
  0
VERTEX
  8
gg1
 10
0.860000
 20
0.460000
  0
SEQEND
  8
gg1
  0
POLYLINE
  8
gg1
 62
1
 40
0.000000
 41
0.000000
 66
  1
  0
VERTEX
  8
gg1
 10
0.840000
 20
0.440000
  0
VERTEX
  8
gg1
 10
0.840000
 20
0.480000
  0
SEQEND
  8
gg1
  0
POLYLINE
  8
gg1
 62
1
 40
0.000000
 41
0.000000
 66
  1
  0
VERTEX
  8
gg1
 10
0.125000
 20
0.340000
  0
VERTEX
  8
gg1
 10
0.175000
 20
0.340000
  0
SEQEND
  8
gg1
  0
POLYLINE
  8
gg1
 62
1
 40
0.000000
 41
0.000000
 66
  1
  0
VERTEX
  8
gg1
 10
0.150000
 20
0.315000
  0
VERTEX
  8
gg1
 10
0.150000
 20
0.365000
  0
SEQEND
  8
gg1
  0
POLYLINE
  8
gg1
 62
1
 40
0.000000
 41
0.000000
 66
  1
  0
VERTEX
  8
gg1
 10
0.045000
 20
0.310000
  0
VERTEX
  8
gg1
 10
0.095000
 20
0.310000
  0
SEQEND
  8
gg1
  0
POLYLINE
  8
gg1
 62
1
 40
0.000000
 41
0.000000
 66
  1
  0
VERTEX
  8
gg1
 10
0.070000
 20
0.285000
  0
VERTEX
  8
gg1
 10
0.070000
 20
0.335000
  0
SEQEND
  8
gg1
  0
POLYLINE
  8
gg1
 62
1
 40
0.000000
 41
0.000000
 66
  1
  0
VERTEX
  8
gg1
 10
0.282000
 20
0.135000
  0
VERTEX
  8
gg1
 10
0.368000
 20
0.135000
  0
SEQEND
  8
gg1
  0
POLYLINE
  8
gg1
 62
1
 40
0.000000
 41
0.000000
 66
  1
  0
VERTEX
  8
gg1
 10
0.325000
 20
0.092000
  0
VERTEX
  8
gg1
 10
0.325000
 20
0.178000
  0
SEQEND
  8
gg1
  0
POLYLINE
  8
gg1
 62
1
 40
0.000000
 41
0.000000
 66
  1
  0
VERTEX
  8
gg1
 10
0.080000
 20
0.160000
  0
VERTEX
  8
gg1
 10
0.220000
 20
0.160000
  0
SEQEND
  8
gg1
  0
POLYLINE
  8
gg1
 62
1
 40
0.000000
 41
0.000000
 66
  1
  0
VERTEX
  8
gg1
 10
0.150000
 20
0.090000
  0
VERTEX
  8
gg1
 10
0.150000
 20
0.230000
  0
SEQEND
  8
gg1
  0
POLYLINE
  8
gg1
 62
1
 40
0.000000
 41
0.000000
 66
  1
  0
VERTEX
  8
gg1
 10
0.532000
 20
0.110000
  0
VERTEX
  8
gg1
 10
0.618000
 20
0.110000
  0
SEQEND
  8
gg1
  0
POLYLINE
  8
gg1
 62
1
 40
0.000000
 41
0.000000
 66
  1
  0
VERTEX
  8
gg1
 10
0.575000
 20
0.067000
  0
VERTEX
  8
gg1
 10
0.575000
 20
0.153000
  0
SEQEND
  8
gg1
  0
POLYLINE
  8
gg1
 62
1
 40
0.000000
 41
0.000000
 66
  1
  0
VERTEX
  8
gg1
 10
0.080000
 20
0.660000
  0
VERTEX
  8
gg1
 10
0.220000
 20
0.660000
  0
SEQEND
  8
gg1
  0
POLYLINE
  8
gg1
 62
1
 40
0.000000
 41
0.000000
 66
  1
  0
VERTEX
  8
gg1
 10
0.150000
 20
0.590000
  0
VERTEX
  8
gg1
 10
0.150000
 20
0.730000
  0
SEQEND
  8
gg1
  0
POLYLINE
  8
gg1
 62
1
 40
0.000000
 41
0.000000
 66
  1
  0
VERTEX
  8
gg1
 10
0.282000
 20
0.685000
  0
VERTEX
  8
gg1
 10
0.368000
 20
0.685000
  0
SEQEND
  8
gg1
  0
POLYLINE
  8
gg1
 62
1
 40
0.000000
 41
0.000000
 66
  1
  0
VERTEX
  8
gg1
 10
0.325000
 20
0.642000
  0
VERTEX
  8
gg1
 10
0.325000
 20
0.728000
  0
SEQEND
  8
gg1
  0
POLYLINE
  8
gg1
 62
1
 40
0.000000
 41
0.000000
 66
  1
  0
VERTEX
  8
gg1
 10
0.045000
 20
0.510000
  0
VERTEX
  8
gg1
 10
0.095000
 20
0.510000
  0
SEQEND
  8
gg1
  0
POLYLINE
  8
gg1
 62
1
 40
0.000000
 41
0.000000
 66
  1
  0
VERTEX
  8
gg1
 10
0.070000
 20
0.485000
  0
VERTEX
  8
gg1
 10
0.070000
 20
0.535000
  0
SEQEND
  8
gg1
  0
POLYLINE
  8
gg1
 62
1
 40
0.000000
 41
0.000000
 66
  1
  0
VERTEX
  8
gg1
 10
0.125000
 20
0.480000
  0
VERTEX
  8
gg1
 10
0.175000
 20
0.480000
  0
SEQEND
  8
gg1
  0
POLYLINE
  8
gg1
 62
1
 40
0.000000
 41
0.000000
 66
  1
  0
VERTEX
  8
gg1
 10
0.150000
 20
0.455000
  0
VERTEX
  8
gg1
 10
0.150000
 20
0.505000
  0
SEQEND
  8
gg1
  0
POLYLINE
  8
gg1
 62
1
 40
0.000000
 41
0.000000
 66
  1
  0
VERTEX
  8
gg1
 10
0.532000
 20
0.710000
  0
VERTEX
  8
gg1
 10
0.618000
 20
0.710000
  0
SEQEND
  8
gg1
  0
POLYLINE
  8
gg1
 62
1
 40
0.000000
 41
0.000000
 66
  1
  0
VERTEX
  8
gg1
 10
0.575000
 20
0.667000
  0
VERTEX
  8
gg1
 10
0.575000
 20
0.753000
  0
SEQEND
  8
gg1
  0
POLYLINE
  8
gg1
 62
1
 40
0.000000
 41
0.000000
 66
  1
  0
VERTEX
  8
gg1
 10
0.712500
 20
0.160000
  0
VERTEX
  8
gg1
 10
0.747500
 20
0.160000
  0
SEQEND
  8
gg1
  0
POLYLINE
  8
gg1
 62
1
 40
0.000000
 41
0.000000
 66
  1
  0
VERTEX
  8
gg1
 10
0.730000
 20
0.142500
  0
VERTEX
  8
gg1
 10
0.730000
 20
0.177500
  0
SEQEND
  8
gg1
  0
POLYLINE
  8
gg1
 62
1
 40
0.000000
 41
0.000000
 66
  1
  0
VERTEX
  8
gg1
 10
0.712500
 20
0.060000
  0
VERTEX
  8
gg1
 10
0.747500
 20
0.060000
  0
SEQEND
  8
gg1
  0
POLYLINE
  8
gg1
 62
1
 40
0.000000
 41
0.000000
 66
  1
  0
VERTEX
  8
gg1
 10
0.730000
 20
0.042500
  0
VERTEX
  8
gg1
 10
0.730000
 20
0.077500
  0
SEQEND
  8
gg1
  0
POLYLINE
  8
gg1
 62
1
 40
0.000000
 41
0.000000
 66
  1
  0
VERTEX
  8
gg1
 10
0.820000
 20
0.760000
  0
VERTEX
  8
gg1
 10
0.860000
 20
0.760000
  0
SEQEND
  8
gg1
  0
POLYLINE
  8
gg1
 62
1
 40
0.000000
 41
0.000000
 66
  1
  0
VERTEX
  8
gg1
 10
0.840000
 20
0.740000
  0
VERTEX
  8
gg1
 10
0.840000
 20
0.780000
  0
SEQEND
  8
gg1
  0
POLYLINE
  8
gg1
 62
1
 40
0.000000
 41
0.000000
 66
  1
  0
VERTEX
  8
gg1
 10
0.722500
 20
0.760000
  0
VERTEX
  8
gg1
 10
0.757500
 20
0.760000
  0
SEQEND
  8
gg1
  0
POLYLINE
  8
gg1
 62
1
 40
0.000000
 41
0.000000
 66
  1
  0
VERTEX
  8
gg1
 10
0.740000
 20
0.742500
  0
VERTEX
  8
gg1
 10
0.740000
 20
0.777500
  0
SEQEND
  8
gg1
  0
POLYLINE
  8
gg1
 62
1
 40
0.000000
 41
0.000000
 66
  1
  0
VERTEX
  8
gg1
 10
0.220000
 20
0.360000
  0
VERTEX
  8
gg1
 10
0.260000
 20
0.360000
  0
SEQEND
  8
gg1
  0
POLYLINE
  8
gg1
 62
1
 40
0.000000
 41
0.000000
 66
  1
  0
VERTEX
  8
gg1
 10
0.240000
 20
0.340000
  0
VERTEX
  8
gg1
 10
0.240000
 20
0.380000
  0
SEQEND
  8
gg1
  0
POLYLINE
  8
gg1
 62
1
 40
0.000000
 41
0.000000
 66
  1
  0
VERTEX
  8
gg1
 10
0.220000
 20
0.460000
  0
VERTEX
  8
gg1
 10
0.260000
 20
0.460000
  0
SEQEND
  8
gg1
  0
POLYLINE
  8
gg1
 62
1
 40
0.000000
 41
0.000000
 66
  1
  0
VERTEX
  8
gg1
 10
0.240000
 20
0.440000
  0
VERTEX
  8
gg1
 10
0.240000
 20
0.480000
  0
SEQEND
  8
gg1
  0
ENDSEC
  0
EOF
