  0
SECTION
  2
HEADER
  9
$EXTMIN
 10
-0.005000
 20
-0.139000
  9
$EXTMAX
 10
1.355000
 20
1.355000
  9
$LIMMIN
 10
-0.005000
 20
-0.139000
  9
$LIMMAX
 10
1.355000
 20
1.355000
  9
$FILLMODE
 70
  1
  0
ENDSEC
  0
SECTION
  2
TABLES
  0
TABLE
  2
LTYPE
 70
  1
  0
LTYPE
  2
CONTINUOUS
 70
 64
  3
Solid line
 72
 65
 73
  0
 40
0.0
  0
ENDTAB
  0
TABLE
  2
LAYER
 70
 1
  0
LAYER
  2
0
 70
  0
 62
7
  6
CONTINUOUS
  0
LAYER
  2
gg1
 70
  0
 62
1
  6
CONTINUOUS
  0
ENDTAB
  0
TABLE
  2
STYLE
 70
  1
  0
STYLE
  2
STANDARD
 70
  0
 40
0.0
 41
1.0
 50
0.0
 71
  0
 42
0.2
  3
txt
  4

  0
ENDTAB
  0
ENDSEC
  0
SECTION
  2
BLOCKS
  0
BLOCK
  8
0
  2
D10
 70
64
 10
0.0
 20
0.0
  3
D10
  0
CIRCLE
  8
0
 10
0.000000
 20
0.000000
 40
0.005000
 0
ENDBLK
  8
0
  0
BLOCK
  8
0
  2
D11
 70
64
 10
0.0
 20
0.0
  3
D11
  0
CIRCLE
  8
0
 10
0.000000
 20
0.000000
 40
0.003000
 0
ENDBLK
  8
0
  0
BLOCK
  8
0
  2
D12
 70
64
 10
0.0
 20
0.0
  3
D12
  0
CIRCLE
  8
0
 10
0.000000
 20
0.000000
 40
0.002500
 0
ENDBLK
  8
0
  0
ENDSEC
  0
SECTION
  2
ENTITIES
  0
POLYLINE
  8
gg1
 62
1
 40
0.000000
 41
0.000000
 66
  1
  0
VERTEX
  8
gg1
 10
1.350000
 20
0.675000
  0
VERTEX
  8
gg1
 10
1.350000
 20
0.675000
  0
VERTEX
  8
gg1
 10
1.350000
 20
0.675000
 42
1.000000
  0
VERTEX
  8
gg1
 10
0.000000
 20
0.675000
  0
VERTEX
  8
gg1
 10
0.000000
 20
0.675000
  0
VERTEX
  8
gg1
 10
0.000000
 20
0.675000
 42
1.000000
  0
VERTEX
  8
gg1
 10
1.350000
 20
0.675000
  0
VERTEX
  8
gg1
 10
1.350000
 20
0.675000
  0
SEQEND
  8
gg1
  0
POLYLINE
  8
gg1
 62
1
 40
0.000000
 41
0.000000
 66
  1
  0
VERTEX
  8
gg1
 10
1.350000
 20
-0.110000
  0
VERTEX
  8
gg1
 10
1.350000
 20
0.660000
  0
SEQEND
  8
gg1
  0
POLYLINE
  8
gg1
 62
1
 40
0.000000
 41
0.000000
 66
  1
  0
VERTEX
  8
gg1
 10
0.000000
 20
-0.110000
  0
VERTEX
  8
gg1
 10
0.000000
 20
0.660000
  0
SEQEND
  8
gg1
  0
POLYLINE
  8
gg1
 62
1
 40
0.000000
 41
0.000000
 66
  1
  0
VERTEX
  8
gg1
 10
0.854900
 20
-0.100000
  0
VERTEX
  8
gg1
 10
1.350000
 20
-0.100000
  0
SEQEND
  8
gg1
  0
POLYLINE
  8
gg1
 62
1
 40
0.000000
 41
0.000000
 66
  1
  0
VERTEX
  8
gg1
 10
0.000000
 20
-0.100000
  0
VERTEX
  8
gg1
 10
0.463100
 20
-0.100000
  0
SEQEND
  8
gg1
  0
POLYLINE
  8
gg1
 62
1
 40
0.000000
 41
0.000000
 66
  1
  0
VERTEX
  8
gg1
 10
1.290000
 20
-0.080000
  0
VERTEX
  8
gg1
 10
1.350000
 20
-0.100000
  0
SEQEND
  8
gg1
  0
POLYLINE
  8
gg1
 62
1
 40
0.000000
 41
0.000000
 66
  1
  0
VERTEX
  8
gg1
 10
1.290000
 20
-0.120000
  0
VERTEX
  8
gg1
 10
1.350000
 20
-0.100000
  0
SEQEND
  8
gg1
  0
POLYLINE
  8
gg1
 62
1
 40
0.000000
 41
0.000000
 66
  1
  0
VERTEX
  8
gg1
 10
0.000000
 20
-0.100000
  0
VERTEX
  8
gg1
 10
0.060000
 20
-0.120000
  0
SEQEND
  8
gg1
  0
POLYLINE
  8
gg1
 62
1
 40
0.000000
 41
0.000000
 66
  1
  0
VERTEX
  8
gg1
 10
0.000000
 20
-0.100000
  0
VERTEX
  8
gg1
 10
0.060000
 20
-0.080000
  0
SEQEND
  8
gg1
  0
POLYLINE
  8
gg1
 62
1
 40
0.000000
 41
0.000000
 66
  1
  0
VERTEX
  8
gg1
 10
0.479100
 20
-0.136000
  0
VERTEX
  8
gg1
 10
0.499100
 20
-0.136000
  0
VERTEX
  8
gg1
 10
0.489100
 20
-0.136000
  0
VERTEX
  8
gg1
 10
0.489100
 20
-0.076000
  0
VERTEX
  8
gg1
 10
0.479100
 20
-0.086000
  0
SEQEND
  8
gg1
  0
POLYLINE
  8
gg1
 62
1
 40
0.000000
 41
0.000000
 66
  1
  0
VERTEX
  8
gg1
 10
0.529000
 20
-0.086000
  0
VERTEX
  8
gg1
 10
0.539000
 20
-0.076000
  0
VERTEX
  8
gg1
 10
0.559000
 20
-0.076000
  0
VERTEX
  8
gg1
 10
0.569000
 20
-0.086000
  0
VERTEX
  8
gg1
 10
0.569000
 20
-0.096000
  0
VERTEX
  8
gg1
 10
0.559000
 20
-0.106000
  0
VERTEX
  8
gg1
 10
0.549000
 20
-0.106000
  0
VERTEX
  8
gg1
 10
0.559000
 20
-0.106000
  0
VERTEX
  8
gg1
 10
0.569000
 20
-0.116000
  0
VERTEX
  8
gg1
 10
0.569000
 20
-0.126000
  0
VERTEX
  8
gg1
 10
0.559000
 20
-0.136000
  0
VERTEX
  8
gg1
 10
0.539000
 20
-0.136000
  0
VERTEX
  8
gg1
 10
0.529000
 20
-0.126000
  0
SEQEND
  8
gg1
  0
POLYLINE
  8
gg1
 62
1
 40
0.000000
 41
0.000000
 66
  1
  0
VERTEX
  8
gg1
 10
0.629000
 20
-0.076000
  0
VERTEX
  8
gg1
 10
0.589000
 20
-0.076000
  0
VERTEX
  8
gg1
 10
0.589000
 20
-0.106000
  0
VERTEX
  8
gg1
 10
0.609000
 20
-0.096000
  0
VERTEX
  8
gg1
 10
0.619000
 20
-0.096000
  0
VERTEX
  8
gg1
 10
0.629000
 20
-0.106000
  0
VERTEX
  8
gg1
 10
0.629000
 20
-0.126000
  0
VERTEX
  8
gg1
 10
0.619000
 20
-0.136000
  0
VERTEX
  8
gg1
 10
0.599000
 20
-0.136000
  0
VERTEX
  8
gg1
 10
0.589000
 20
-0.126000
  0
SEQEND
  8
gg1
  0
POLYLINE
  8
gg1
 62
1
 40
0.000000
 41
0.000000
 66
  1
  0
VERTEX
  8
gg1
 10
0.649000
 20
-0.086000
  0
VERTEX
  8
gg1
 10
0.659000
 20
-0.076000
  0
VERTEX
  8
gg1
 10
0.679000
 20
-0.076000
  0
VERTEX
  8
gg1
 10
0.689000
 20
-0.086000
  0
VERTEX
  8
gg1
 10
0.689000
 20
-0.126000
  0
VERTEX
  8
gg1
 10
0.679000
 20
-0.136000
  0
VERTEX
  8
gg1
 10
0.659000
 20
-0.136000
  0
VERTEX
  8
gg1
 10
0.649000
 20
-0.126000
  0
VERTEX
  8
gg1
 10
0.649000
 20
-0.086000
  0
SEQEND
  8
gg1
  0
POLYLINE
  8
gg1
 62
1
 40
0.000000
 41
0.000000
 66
  1
  0
VERTEX
  8
gg1
 10
0.709000
 20
-0.136000
  0
VERTEX
  8
gg1
 10
0.709000
 20
-0.096000
  0
VERTEX
  8
gg1
 10
0.719000
 20
-0.096000
  0
VERTEX
  8
gg1
 10
0.729000
 20
-0.106000
  0
VERTEX
  8
gg1
 10
0.729000
 20
-0.136000
  0
VERTEX
  8
gg1
 10
0.729000
 20
-0.106000
  0
VERTEX
  8
gg1
 10
0.739000
 20
-0.096000
  0
VERTEX
  8
gg1
 10
0.749000
 20
-0.106000
  0
VERTEX
  8
gg1
 10
0.749000
 20
-0.136000
  0
SEQEND
  8
gg1
  0
POLYLINE
  8
gg1
 62
1
 40
0.000000
 41
0.000000
 66
  1
  0
VERTEX
  8
gg1
 10
0.769000
 20
-0.136000
  0
VERTEX
  8
gg1
 10
0.789000
 20
-0.136000
  0
VERTEX
  8
gg1
 10
0.779000
 20
-0.136000
  0
VERTEX
  8
gg1
 10
0.779000
 20
-0.096000
  0
VERTEX
  8
gg1
 10
0.769000
 20
-0.096000
  0
SEQEND
  8
gg1
  0
POLYLINE
  8
gg1
 62
1
 40
0.000000
 41
0.000000
 66
  1
  0
VERTEX
  8
gg1
 10
0.818900
 20
-0.136000
  0
VERTEX
  8
gg1
 10
0.838900
 20
-0.136000
  0
VERTEX
  8
gg1
 10
0.828900
 20
-0.136000
  0
VERTEX
  8
gg1
 10
0.828900
 20
-0.076000
  0
VERTEX
  8
gg1
 10
0.818900
 20
-0.076000
  0
SEQEND
  8
gg1
  0
POLYLINE
  8
gg1
 62
1
 40
0.000000
 41
0.000000
 66
  1
  0
VERTEX
  8
gg1
 10
0.632000
 20
0.675000
  0
VERTEX
  8
gg1
 10
0.718000
 20
0.675000
  0
SEQEND
  8
gg1
  0
POLYLINE
  8
gg1
 62
1
 40
0.000000
 41
0.000000
 66
  1
  0
VERTEX
  8
gg1
 10
0.675000
 20
0.632000
  0
VERTEX
  8
gg1
 10
0.675000
 20
0.718000
  0
SEQEND
  8
gg1
  0
POLYLINE
  8
gg1
 62
1
 40
0.000000
 41
0.000000
 66
  1
  0
VERTEX
  8
gg1
 10
0.204000
 20
0.750000
  0
VERTEX
  8
gg1
 10
0.246000
 20
0.750000
  0
SEQEND
  8
gg1
  0
POLYLINE
  8
gg1
 62
1
 40
0.000000
 41
0.000000
 66
  1
  0
VERTEX
  8
gg1
 10
0.225000
 20
0.729000
  0
VERTEX
  8
gg1
 10
0.225000
 20
0.771000
  0
SEQEND
  8
gg1
  0
POLYLINE
  8
gg1
 62
1
 40
0.000000
 41
0.000000
 66
  1
  0
VERTEX
  8
gg1
 10
0.304000
 20
0.750000
  0
VERTEX
  8
gg1
 10
0.346000
 20
0.750000
  0
SEQEND
  8
gg1
  0
POLYLINE
  8
gg1
 62
1
 40
0.000000
 41
0.000000
 66
  1
  0
VERTEX
  8
gg1
 10
0.325000
 20
0.729000
  0
VERTEX
  8
gg1
 10
0.325000
 20
0.771000
  0
SEQEND
  8
gg1
  0
POLYLINE
  8
gg1
 62
1
 40
0.000000
 41
0.000000
 66
  1
  0
VERTEX
  8
gg1
 10
0.404000
 20
0.750000
  0
VERTEX
  8
gg1
 10
0.446000
 20
0.750000
  0
SEQEND
  8
gg1
  0
POLYLINE
  8
gg1
 62
1
 40
0.000000
 41
0.000000
 66
  1
  0
VERTEX
  8
gg1
 10
0.425000
 20
0.729000
  0
VERTEX
  8
gg1
 10
0.425000
 20
0.771000
  0
SEQEND
  8
gg1
  0
POLYLINE
  8
gg1
 62
1
 40
0.000000
 41
0.000000
 66
  1
  0
VERTEX
  8
gg1
 10
1.136800
 20
0.852200
  0
VERTEX
  8
gg1
 10
1.178800
 20
0.852200
  0
SEQEND
  8
gg1
  0
POLYLINE
  8
gg1
 62
1
 40
0.000000
 41
0.000000
 66
  1
  0
VERTEX
  8
gg1
 10
1.157800
 20
0.831200
  0
VERTEX
  8
gg1
 10
1.157800
 20
0.873200
  0
SEQEND
  8
gg1
  0
POLYLINE
  8
gg1
 62
1
 40
0.000000
 41
0.000000
 66
  1
  0
VERTEX
  8
gg1
 10
1.066100
 20
0.922900
  0
VERTEX
  8
gg1
 10
1.108100
 20
0.922900
  0
SEQEND
  8
gg1
  0
POLYLINE
  8
gg1
 62
1
 40
0.000000
 41
0.000000
 66
  1
  0
VERTEX
  8
gg1
 10
1.087100
 20
0.901900
  0
VERTEX
  8
gg1
 10
1.087100
 20
0.943900
  0
SEQEND
  8
gg1
  0
POLYLINE
  8
gg1
 62
1
 40
0.000000
 41
0.000000
 66
  1
  0
VERTEX
  8
gg1
 10
0.995400
 20
0.993600
  0
VERTEX
  8
gg1
 10
1.037400
 20
0.993600
  0
SEQEND
  8
gg1
  0
POLYLINE
  8
gg1
 62
1
 40
0.000000
 41
0.000000
 66
  1
  0
VERTEX
  8
gg1
 10
1.016400
 20
0.972600
  0
VERTEX
  8
gg1
 10
1.016400
 20
1.014600
  0
SEQEND
  8
gg1
  0
POLYLINE
  8
gg1
 62
1
 40
0.000000
 41
0.000000
 66
  1
  0
VERTEX
  8
gg1
 10
0.924700
 20
1.064300
  0
VERTEX
  8
gg1
 10
0.966700
 20
1.064300
  0
SEQEND
  8
gg1
  0
POLYLINE
  8
gg1
 62
1
 40
0.000000
 41
0.000000
 66
  1
  0
VERTEX
  8
gg1
 10
0.945700
 20
1.043300
  0
VERTEX
  8
gg1
 10
0.945700
 20
1.085300
  0
SEQEND
  8
gg1
  0
POLYLINE
  8
gg1
 62
1
 40
0.000000
 41
0.000000
 66
  1
  0
VERTEX
  8
gg1
 10
0.854000
 20
1.135000
  0
VERTEX
  8
gg1
 10
0.896000
 20
1.135000
  0
SEQEND
  8
gg1
  0
POLYLINE
  8
gg1
 62
1
 40
0.000000
 41
0.000000
 66
  1
  0
VERTEX
  8
gg1
 10
0.875000
 20
1.114000
  0
VERTEX
  8
gg1
 10
0.875000
 20
1.156000
  0
SEQEND
  8
gg1
  0
POLYLINE
  8
gg1
 62
1
 40
0.000000
 41
0.000000
 66
  1
  0
VERTEX
  8
gg1
 10
0.799000
 20
0.375000
  0
VERTEX
  8
gg1
 10
0.841000
 20
0.375000
  0
SEQEND
  8
gg1
  0
POLYLINE
  8
gg1
 62
1
 40
0.000000
 41
0.000000
 66
  1
  0
VERTEX
  8
gg1
 10
0.820000
 20
0.354000
  0
VERTEX
  8
gg1
 10
0.820000
 20
0.396000
  0
SEQEND
  8
gg1
  0
POLYLINE
  8
gg1
 62
1
 40
0.000000
 41
0.000000
 66
  1
  0
VERTEX
  8
gg1
 10
0.699000
 20
0.375000
  0
VERTEX
  8
gg1
 10
0.741000
 20
0.375000
  0
SEQEND
  8
gg1
  0
POLYLINE
  8
gg1
 62
1
 40
0.000000
 41
0.000000
 66
  1
  0
VERTEX
  8
gg1
 10
0.720000
 20
0.354000
  0
VERTEX
  8
gg1
 10
0.720000
 20
0.396000
  0
SEQEND
  8
gg1
  0
POLYLINE
  8
gg1
 62
1
 40
0.000000
 41
0.000000
 66
  1
  0
VERTEX
  8
gg1
 10
0.599000
 20
0.375000
  0
VERTEX
  8
gg1
 10
0.641000
 20
0.375000
  0
SEQEND
  8
gg1
  0
POLYLINE
  8
gg1
 62
1
 40
0.000000
 41
0.000000
 66
  1
  0
VERTEX
  8
gg1
 10
0.620000
 20
0.354000
  0
VERTEX
  8
gg1
 10
0.620000
 20
0.396000
  0
SEQEND
  8
gg1
  0
POLYLINE
  8
gg1
 62
1
 40
0.000000
 41
0.000000
 66
  1
  0
VERTEX
  8
gg1
 10
0.499000
 20
0.375000
  0
VERTEX
  8
gg1
 10
0.541000
 20
0.375000
  0
SEQEND
  8
gg1
  0
POLYLINE
  8
gg1
 62
1
 40
0.000000
 41
0.000000
 66
  1
  0
VERTEX
  8
gg1
 10
0.520000
 20
0.354000
  0
VERTEX
  8
gg1
 10
0.520000
 20
0.396000
  0
SEQEND
  8
gg1
  0
POLYLINE
  8
gg1
 62
1
 40
0.000000
 41
0.000000
 66
  1
  0
VERTEX
  8
gg1
 10
0.499000
 20
0.275000
  0
VERTEX
  8
gg1
 10
0.541000
 20
0.275000
  0
SEQEND
  8
gg1
  0
POLYLINE
  8
gg1
 62
1
 40
0.000000
 41
0.000000
 66
  1
  0
VERTEX
  8
gg1
 10
0.520000
 20
0.254000
  0
VERTEX
  8
gg1
 10
0.520000
 20
0.296000
  0
SEQEND
  8
gg1
  0
POLYLINE
  8
gg1
 62
1
 40
0.000000
 41
0.000000
 66
  1
  0
VERTEX
  8
gg1
 10
0.599000
 20
0.275000
  0
VERTEX
  8
gg1
 10
0.641000
 20
0.275000
  0
SEQEND
  8
gg1
  0
POLYLINE
  8
gg1
 62
1
 40
0.000000
 41
0.000000
 66
  1
  0
VERTEX
  8
gg1
 10
0.620000
 20
0.254000
  0
VERTEX
  8
gg1
 10
0.620000
 20
0.296000
  0
SEQEND
  8
gg1
  0
POLYLINE
  8
gg1
 62
1
 40
0.000000
 41
0.000000
 66
  1
  0
VERTEX
  8
gg1
 10
0.699000
 20
0.275000
  0
VERTEX
  8
gg1
 10
0.741000
 20
0.275000
  0
SEQEND
  8
gg1
  0
POLYLINE
  8
gg1
 62
1
 40
0.000000
 41
0.000000
 66
  1
  0
VERTEX
  8
gg1
 10
0.720000
 20
0.254000
  0
VERTEX
  8
gg1
 10
0.720000
 20
0.296000
  0
SEQEND
  8
gg1
  0
POLYLINE
  8
gg1
 62
1
 40
0.000000
 41
0.000000
 66
  1
  0
VERTEX
  8
gg1
 10
0.799000
 20
0.275000
  0
VERTEX
  8
gg1
 10
0.841000
 20
0.275000
  0
SEQEND
  8
gg1
  0
POLYLINE
  8
gg1
 62
1
 40
0.000000
 41
0.000000
 66
  1
  0
VERTEX
  8
gg1
 10
0.820000
 20
0.254000
  0
VERTEX
  8
gg1
 10
0.820000
 20
0.296000
  0
SEQEND
  8
gg1
  0
POLYLINE
  8
gg1
 62
1
 40
0.000000
 41
0.000000
 66
  1
  0
VERTEX
  8
gg1
 10
1.229000
 20
0.575000
  0
VERTEX
  8
gg1
 10
1.271000
 20
0.575000
  0
SEQEND
  8
gg1
  0
POLYLINE
  8
gg1
 62
1
 40
0.000000
 41
0.000000
 66
  1
  0
VERTEX
  8
gg1
 10
1.250000
 20
0.554000
  0
VERTEX
  8
gg1
 10
1.250000
 20
0.596000
  0
SEQEND
  8
gg1
  0
POLYLINE
  8
gg1
 62
1
 40
0.000000
 41
0.000000
 66
  1
  0
VERTEX
  8
gg1
 10
1.229000
 20
0.675000
  0
VERTEX
  8
gg1
 10
1.271000
 20
0.675000
  0
SEQEND
  8
gg1
  0
POLYLINE
  8
gg1
 62
1
 40
0.000000
 41
0.000000
 66
  1
  0
VERTEX
  8
gg1
 10
1.250000
 20
0.654000
  0
VERTEX
  8
gg1
 10
1.250000
 20
0.696000
  0
SEQEND
  8
gg1
  0
POLYLINE
  8
gg1
 62
1
 40
0.000000
 41
0.000000
 66
  1
  0
VERTEX
  8
gg1
 10
1.229000
 20
0.775000
  0
VERTEX
  8
gg1
 10
1.271000
 20
0.775000
  0
SEQEND
  8
gg1
  0
POLYLINE
  8
gg1
 62
1
 40
0.000000
 41
0.000000
 66
  1
  0
VERTEX
  8
gg1
 10
1.250000
 20
0.754000
  0
VERTEX
  8
gg1
 10
1.250000
 20
0.796000
  0
SEQEND
  8
gg1
  0
POLYLINE
  8
gg1
 62
1
 40
0.000000
 41
0.000000
 66
  1
  0
VERTEX
  8
gg1
 10
0.554000
 20
0.100000
  0
VERTEX
  8
gg1
 10
0.596000
 20
0.100000
  0
SEQEND
  8
gg1
  0
POLYLINE
  8
gg1
 62
1
 40
0.000000
 41
0.000000
 66
  1
  0
VERTEX
  8
gg1
 10
0.575000
 20
0.079000
  0
VERTEX
  8
gg1
 10
0.575000
 20
0.121000
  0
SEQEND
  8
gg1
  0
POLYLINE
  8
gg1
 62
1
 40
0.000000
 41
0.000000
 66
  1
  0
VERTEX
  8
gg1
 10
0.654000
 20
0.100000
  0
VERTEX
  8
gg1
 10
0.696000
 20
0.100000
  0
SEQEND
  8
gg1
  0
POLYLINE
  8
gg1
 62
1
 40
0.000000
 41
0.000000
 66
  1
  0
VERTEX
  8
gg1
 10
0.675000
 20
0.079000
  0
VERTEX
  8
gg1
 10
0.675000
 20
0.121000
  0
SEQEND
  8
gg1
  0
POLYLINE
  8
gg1
 62
1
 40
0.000000
 41
0.000000
 66
  1
  0
VERTEX
  8
gg1
 10
0.754000
 20
0.100000
  0
VERTEX
  8
gg1
 10
0.796000
 20
0.100000
  0
SEQEND
  8
gg1
  0
POLYLINE
  8
gg1
 62
1
 40
0.000000
 41
0.000000
 66
  1
  0
VERTEX
  8
gg1
 10
0.775000
 20
0.079000
  0
VERTEX
  8
gg1
 10
0.775000
 20
0.121000
  0
SEQEND
  8
gg1
  0
POLYLINE
  8
gg1
 62
1
 40
0.000000
 41
0.000000
 66
  1
  0
VERTEX
  8
gg1
 10
0.079000
 20
0.775000
  0
VERTEX
  8
gg1
 10
0.121000
 20
0.775000
  0
SEQEND
  8
gg1
  0
POLYLINE
  8
gg1
 62
1
 40
0.000000
 41
0.000000
 66
  1
  0
VERTEX
  8
gg1
 10
0.100000
 20
0.754000
  0
VERTEX
  8
gg1
 10
0.100000
 20
0.796000
  0
SEQEND
  8
gg1
  0
POLYLINE
  8
gg1
 62
1
 40
0.000000
 41
0.000000
 66
  1
  0
VERTEX
  8
gg1
 10
0.079000
 20
0.675000
  0
VERTEX
  8
gg1
 10
0.121000
 20
0.675000
  0
SEQEND
  8
gg1
  0
POLYLINE
  8
gg1
 62
1
 40
0.000000
 41
0.000000
 66
  1
  0
VERTEX
  8
gg1
 10
0.100000
 20
0.654000
  0
VERTEX
  8
gg1
 10
0.100000
 20
0.696000
  0
SEQEND
  8
gg1
  0
POLYLINE
  8
gg1
 62
1
 40
0.000000
 41
0.000000
 66
  1
  0
VERTEX
  8
gg1
 10
0.079000
 20
0.575000
  0
VERTEX
  8
gg1
 10
0.121000
 20
0.575000
  0
SEQEND
  8
gg1
  0
POLYLINE
  8
gg1
 62
1
 40
0.000000
 41
0.000000
 66
  1
  0
VERTEX
  8
gg1
 10
0.100000
 20
0.554000
  0
VERTEX
  8
gg1
 10
0.100000
 20
0.596000
  0
SEQEND
  8
gg1
  0
POLYLINE
  8
gg1
 62
1
 40
0.000000
 41
0.000000
 66
  1
  0
VERTEX
  8
gg1
 10
0.554000
 20
1.250000
  0
VERTEX
  8
gg1
 10
0.596000
 20
1.250000
  0
SEQEND
  8
gg1
  0
POLYLINE
  8
gg1
 62
1
 40
0.000000
 41
0.000000
 66
  1
  0
VERTEX
  8
gg1
 10
0.575000
 20
1.229000
  0
VERTEX
  8
gg1
 10
0.575000
 20
1.271000
  0
SEQEND
  8
gg1
  0
POLYLINE
  8
gg1
 62
1
 40
0.000000
 41
0.000000
 66
  1
  0
VERTEX
  8
gg1
 10
0.654000
 20
1.250000
  0
VERTEX
  8
gg1
 10
0.696000
 20
1.250000
  0
SEQEND
  8
gg1
  0
POLYLINE
  8
gg1
 62
1
 40
0.000000
 41
0.000000
 66
  1
  0
VERTEX
  8
gg1
 10
0.675000
 20
1.229000
  0
VERTEX
  8
gg1
 10
0.675000
 20
1.271000
  0
SEQEND
  8
gg1
  0
POLYLINE
  8
gg1
 62
1
 40
0.000000
 41
0.000000
 66
  1
  0
VERTEX
  8
gg1
 10
0.754000
 20
1.250000
  0
VERTEX
  8
gg1
 10
0.796000
 20
1.250000
  0
SEQEND
  8
gg1
  0
POLYLINE
  8
gg1
 62
1
 40
0.000000
 41
0.000000
 66
  1
  0
VERTEX
  8
gg1
 10
0.775000
 20
1.229000
  0
VERTEX
  8
gg1
 10
0.775000
 20
1.271000
  0
SEQEND
  8
gg1
  0
POLYLINE
  8
gg1
 62
1
 40
0.000000
 41
0.000000
 66
  1
  0
VERTEX
  8
gg1
 10
0.410000
 20
0.425000
  0
VERTEX
  8
gg1
 10
0.430000
 20
0.425000
  0
SEQEND
  8
gg1
  0
POLYLINE
  8
gg1
 62
1
 40
0.000000
 41
0.000000
 66
  1
  0
VERTEX
  8
gg1
 10
0.420000
 20
0.415000
  0
VERTEX
  8
gg1
 10
0.420000
 20
0.435000
  0
SEQEND
  8
gg1
  0
POLYLINE
  8
gg1
 62
1
 40
0.000000
 41
0.000000
 66
  1
  0
VERTEX
  8
gg1
 10
0.630000
 20
1.170000
  0
VERTEX
  8
gg1
 10
0.650000
 20
1.170000
  0
SEQEND
  8
gg1
  0
POLYLINE
  8
gg1
 62
1
 40
0.000000
 41
0.000000
 66
  1
  0
VERTEX
  8
gg1
 10
0.640000
 20
1.160000
  0
VERTEX
  8
gg1
 10
0.640000
 20
1.180000
  0
SEQEND
  8
gg1
  0
POLYLINE
  8
gg1
 62
1
 40
0.000000
 41
0.000000
 66
  1
  0
VERTEX
  8
gg1
 10
0.835000
 20
0.845000
  0
VERTEX
  8
gg1
 10
0.855000
 20
0.845000
  0
SEQEND
  8
gg1
  0
POLYLINE
  8
gg1
 62
1
 40
0.000000
 41
0.000000
 66
  1
  0
VERTEX
  8
gg1
 10
0.845000
 20
0.835000
  0
VERTEX
  8
gg1
 10
0.845000
 20
0.855000
  0
SEQEND
  8
gg1
  0
POLYLINE
  8
gg1
 62
1
 40
0.000000
 41
0.000000
 66
  1
  0
VERTEX
  8
gg1
 10
0.365000
 20
0.160000
  0
VERTEX
  8
gg1
 10
0.385000
 20
0.160000
  0
SEQEND
  8
gg1
  0
POLYLINE
  8
gg1
 62
1
 40
0.000000
 41
0.000000
 66
  1
  0
VERTEX
  8
gg1
 10
0.375000
 20
0.150000
  0
VERTEX
  8
gg1
 10
0.375000
 20
0.170000
  0
SEQEND
  8
gg1
  0
POLYLINE
  8
gg1
 62
1
 40
0.000000
 41
0.000000
 66
  1
  0
VERTEX
  8
gg1
 10
1.005000
 20
0.430000
  0
VERTEX
  8
gg1
 10
1.025000
 20
0.430000
  0
SEQEND
  8
gg1
  0
POLYLINE
  8
gg1
 62
1
 40
0.000000
 41
0.000000
 66
  1
  0
VERTEX
  8
gg1
 10
1.015000
 20
0.420000
  0
VERTEX
  8
gg1
 10
1.015000
 20
0.440000
  0
SEQEND
  8
gg1
  0
POLYLINE
  8
gg1
 62
1
 40
0.000000
 41
0.000000
 66
  1
  0
VERTEX
  8
gg1
 10
0.960000
 20
0.575000
  0
VERTEX
  8
gg1
 10
0.980000
 20
0.575000
  0
SEQEND
  8
gg1
  0
POLYLINE
  8
gg1
 62
1
 40
0.000000
 41
0.000000
 66
  1
  0
VERTEX
  8
gg1
 10
0.970000
 20
0.565000
  0
VERTEX
  8
gg1
 10
0.970000
 20
0.585000
  0
SEQEND
  8
gg1
  0
POLYLINE
  8
gg1
 62
1
 40
0.000000
 41
0.000000
 66
  1
  0
VERTEX
  8
gg1
 10
0.975000
 20
0.235000
  0
VERTEX
  8
gg1
 10
0.995000
 20
0.235000
  0
SEQEND
  8
gg1
  0
POLYLINE
  8
gg1
 62
1
 40
0.000000
 41
0.000000
 66
  1
  0
VERTEX
  8
gg1
 10
0.985000
 20
0.225000
  0
VERTEX
  8
gg1
 10
0.985000
 20
0.245000
  0
SEQEND
  8
gg1
  0
POLYLINE
  8
gg1
 62
1
 40
0.000000
 41
0.000000
 66
  1
  0
VERTEX
  8
gg1
 10
0.965000
 20
0.390000
  0
VERTEX
  8
gg1
 10
0.985000
 20
0.390000
  0
SEQEND
  8
gg1
  0
POLYLINE
  8
gg1
 62
1
 40
0.000000
 41
0.000000
 66
  1
  0
VERTEX
  8
gg1
 10
0.975000
 20
0.380000
  0
VERTEX
  8
gg1
 10
0.975000
 20
0.400000
  0
SEQEND
  8
gg1
  0
POLYLINE
  8
gg1
 62
1
 40
0.000000
 41
0.000000
 66
  1
  0
VERTEX
  8
gg1
 10
0.750000
 20
0.480000
  0
VERTEX
  8
gg1
 10
0.770000
 20
0.480000
  0
SEQEND
  8
gg1
  0
POLYLINE
  8
gg1
 62
1
 40
0.000000
 41
0.000000
 66
  1
  0
VERTEX
  8
gg1
 10
0.760000
 20
0.470000
  0
VERTEX
  8
gg1
 10
0.760000
 20
0.490000
  0
SEQEND
  8
gg1
  0
POLYLINE
  8
gg1
 62
1
 40
0.000000
 41
0.000000
 66
  1
  0
VERTEX
  8
gg1
 10
0.765000
 20
0.550000
  0
VERTEX
  8
gg1
 10
0.785000
 20
0.550000
  0
SEQEND
  8
gg1
  0
POLYLINE
  8
gg1
 62
1
 40
0.000000
 41
0.000000
 66
  1
  0
VERTEX
  8
gg1
 10
0.775000
 20
0.540000
  0
VERTEX
  8
gg1
 10
0.775000
 20
0.560000
  0
SEQEND
  8
gg1
  0
POLYLINE
  8
gg1
 62
1
 40
0.000000
 41
0.000000
 66
  1
  0
VERTEX
  8
gg1
 10
0.840000
 20
0.450000
  0
VERTEX
  8
gg1
 10
0.860000
 20
0.450000
  0
SEQEND
  8
gg1
  0
POLYLINE
  8
gg1
 62
1
 40
0.000000
 41
0.000000
 66
  1
  0
VERTEX
  8
gg1
 10
0.850000
 20
0.440000
  0
VERTEX
  8
gg1
 10
0.850000
 20
0.460000
  0
SEQEND
  8
gg1
  0
POLYLINE
  8
gg1
 62
1
 40
0.000000
 41
0.000000
 66
  1
  0
VERTEX
  8
gg1
 10
0.740000
 20
0.890000
  0
VERTEX
  8
gg1
 10
0.760000
 20
0.890000
  0
SEQEND
  8
gg1
  0
POLYLINE
  8
gg1
 62
1
 40
0.000000
 41
0.000000
 66
  1
  0
VERTEX
  8
gg1
 10
0.750000
 20
0.880000
  0
VERTEX
  8
gg1
 10
0.750000
 20
0.900000
  0
SEQEND
  8
gg1
  0
POLYLINE
  8
gg1
 62
1
 40
0.000000
 41
0.000000
 66
  1
  0
VERTEX
  8
gg1
 10
0.730000
 20
1.020000
  0
VERTEX
  8
gg1
 10
0.750000
 20
1.020000
  0
SEQEND
  8
gg1
  0
POLYLINE
  8
gg1
 62
1
 40
0.000000
 41
0.000000
 66
  1
  0
VERTEX
  8
gg1
 10
0.740000
 20
1.010000
  0
VERTEX
  8
gg1
 10
0.740000
 20
1.030000
  0
SEQEND
  8
gg1
  0
POLYLINE
  8
gg1
 62
1
 40
0.000000
 41
0.000000
 66
  1
  0
VERTEX
  8
gg1
 10
0.920000
 20
0.240000
  0
VERTEX
  8
gg1
 10
0.940000
 20
0.240000
  0
SEQEND
  8
gg1
  0
POLYLINE
  8
gg1
 62
1
 40
0.000000
 41
0.000000
 66
  1
  0
VERTEX
  8
gg1
 10
0.930000
 20
0.230000
  0
VERTEX
  8
gg1
 10
0.930000
 20
0.250000
  0
SEQEND
  8
gg1
  0
POLYLINE
  8
gg1
 62
1
 40
0.000000
 41
0.000000
 66
  1
  0
VERTEX
  8
gg1
 10
0.435000
 20
0.245000
  0
VERTEX
  8
gg1
 10
0.455000
 20
0.245000
  0
SEQEND
  8
gg1
  0
POLYLINE
  8
gg1
 62
1
 40
0.000000
 41
0.000000
 66
  1
  0
VERTEX
  8
gg1
 10
0.445000
 20
0.235000
  0
VERTEX
  8
gg1
 10
0.445000
 20
0.255000
  0
SEQEND
  8
gg1
  0
ENDSEC
  0
EOF
