  0
SECTION
  2
HEADER
  9
$EXTMIN
 10
-0.187000
 20
-0.179000
  9
$EXTMAX
 10
0.915000
 20
0.915000
  9
$LIMMIN
 10
-0.187000
 20
-0.179000
  9
$LIMMAX
 10
0.915000
 20
0.915000
  9
$FILLMODE
 70
  1
  0
ENDSEC
  0
SECTION
  2
TABLES
  0
TABLE
  2
LTYPE
 70
  1
  0
LTYPE
  2
CONTINUOUS
 70
 64
  3
Solid line
 72
 65
 73
  0
 40
0.0
  0
ENDTAB
  0
TABLE
  2
LAYER
 70
 1
  0
LAYER
  2
0
 70
  0
 62
7
  6
CONTINUOUS
  0
LAYER
  2
gg1
 70
  0
 62
1
  6
CONTINUOUS
  0
ENDTAB
  0
TABLE
  2
STYLE
 70
  1
  0
STYLE
  2
STANDARD
 70
  0
 40
0.0
 41
1.0
 50
0.0
 71
  0
 42
0.2
  3
txt
  4

  0
ENDTAB
  0
ENDSEC
  0
SECTION
  2
BLOCKS
  0
BLOCK
  8
0
  2
D10
 70
64
 10
0.0
 20
0.0
  3
D10
  0
CIRCLE
  8
0
 10
0.000000
 20
0.000000
 40
0.005000
 0
ENDBLK
  8
0
  0
BLOCK
  8
0
  2
D11
 70
64
 10
0.0
 20
0.0
  3
D11
  0
CIRCLE
  8
0
 10
0.000000
 20
0.000000
 40
0.003000
 0
ENDBLK
  8
0
  0
BLOCK
  8
0
  2
D12
 70
64
 10
0.0
 20
0.0
  3
D12
  0
CIRCLE
  8
0
 10
0.000000
 20
0.000000
 40
0.002500
 0
ENDBLK
  8
0
  0
ENDSEC
  0
SECTION
  2
ENTITIES
  0
POLYLINE
  8
gg1
 62
1
 40
0.000000
 41
0.000000
 66
  1
  0
VERTEX
  8
gg1
 10
0.910000
 20
-0.150000
  0
VERTEX
  8
gg1
 10
0.910000
 20
-0.015000
  0
SEQEND
  8
gg1
  0
POLYLINE
  8
gg1
 62
1
 40
0.000000
 41
0.000000
 66
  1
  0
VERTEX
  8
gg1
 10
0.000000
 20
-0.150000
  0
VERTEX
  8
gg1
 10
0.000000
 20
-0.015000
  0
SEQEND
  8
gg1
  0
POLYLINE
  8
gg1
 62
1
 40
0.000000
 41
0.000000
 66
  1
  0
VERTEX
  8
gg1
 10
0.605000
 20
-0.140000
  0
VERTEX
  8
gg1
 10
0.910000
 20
-0.140000
  0
SEQEND
  8
gg1
  0
POLYLINE
  8
gg1
 62
1
 40
0.000000
 41
0.000000
 66
  1
  0
VERTEX
  8
gg1
 10
0.000000
 20
-0.140000
  0
VERTEX
  8
gg1
 10
0.273000
 20
-0.140000
  0
SEQEND
  8
gg1
  0
POLYLINE
  8
gg1
 62
1
 40
0.000000
 41
0.000000
 66
  1
  0
VERTEX
  8
gg1
 10
0.850000
 20
-0.120000
  0
VERTEX
  8
gg1
 10
0.910000
 20
-0.140000
  0
SEQEND
  8
gg1
  0
POLYLINE
  8
gg1
 62
1
 40
0.000000
 41
0.000000
 66
  1
  0
VERTEX
  8
gg1
 10
0.850000
 20
-0.160000
  0
VERTEX
  8
gg1
 10
0.910000
 20
-0.140000
  0
SEQEND
  8
gg1
  0
POLYLINE
  8
gg1
 62
1
 40
0.000000
 41
0.000000
 66
  1
  0
VERTEX
  8
gg1
 10
0.000000
 20
-0.140000
  0
VERTEX
  8
gg1
 10
0.060000
 20
-0.160000
  0
SEQEND
  8
gg1
  0
POLYLINE
  8
gg1
 62
1
 40
0.000000
 41
0.000000
 66
  1
  0
VERTEX
  8
gg1
 10
0.000000
 20
-0.140000
  0
VERTEX
  8
gg1
 10
0.060000
 20
-0.120000
  0
SEQEND
  8
gg1
  0
POLYLINE
  8
gg1
 62
1
 40
0.000000
 41
0.000000
 66
  1
  0
VERTEX
  8
gg1
 10
-0.170000
 20
0.910000
  0
VERTEX
  8
gg1
 10
-0.030000
 20
0.910000
  0
SEQEND
  8
gg1
  0
POLYLINE
  8
gg1
 62
1
 40
0.000000
 41
0.000000
 66
  1
  0
VERTEX
  8
gg1
 10
-0.170000
 20
0.000000
  0
VERTEX
  8
gg1
 10
-0.015000
 20
0.000000
  0
SEQEND
  8
gg1
  0
POLYLINE
  8
gg1
 62
1
 40
0.000000
 41
0.000000
 66
  1
  0
VERTEX
  8
gg1
 10
-0.160000
 20
0.605000
  0
VERTEX
  8
gg1
 10
-0.160000
 20
0.910000
  0
SEQEND
  8
gg1
  0
POLYLINE
  8
gg1
 62
1
 40
0.000000
 41
0.000000
 66
  1
  0
VERTEX
  8
gg1
 10
-0.160000
 20
0.000000
  0
VERTEX
  8
gg1
 10
-0.160000
 20
0.273000
  0
SEQEND
  8
gg1
  0
POLYLINE
  8
gg1
 62
1
 40
0.000000
 41
0.000000
 66
  1
  0
VERTEX
  8
gg1
 10
-0.180000
 20
0.850000
  0
VERTEX
  8
gg1
 10
-0.160000
 20
0.910000
  0
VERTEX
  8
gg1
 10
-0.140000
 20
0.850000
  0
SEQEND
  8
gg1
  0
POLYLINE
  8
gg1
 62
1
 40
0.000000
 41
0.000000
 66
  1
  0
VERTEX
  8
gg1
 10
-0.160000
 20
0.000000
  0
VERTEX
  8
gg1
 10
-0.140000
 20
0.060000
  0
SEQEND
  8
gg1
  0
POLYLINE
  8
gg1
 62
1
 40
0.000000
 41
0.000000
 66
  1
  0
VERTEX
  8
gg1
 10
-0.180000
 20
0.060000
  0
VERTEX
  8
gg1
 10
-0.160000
 20
0.000000
  0
SEQEND
  8
gg1
  0
POLYLINE
  8
gg1
 62
1
 40
0.000000
 41
0.000000
 66
  1
  0
VERTEX
  8
gg1
 10
0.000000
 20
0.000000
  0
VERTEX
  8
gg1
 10
0.910000
 20
0.000000
  0
VERTEX
  8
gg1
 10
0.910000
 20
0.910000
  0
SEQEND
  8
gg1
  0
POLYLINE
  8
gg1
 62
1
 40
0.000000
 41
0.000000
 66
  1
  0
VERTEX
  8
gg1
 10
0.000000
 20
0.910000
  0
VERTEX
  8
gg1
 10
0.910000
 20
0.910000
  0
SEQEND
  8
gg1
  0
POLYLINE
  8
gg1
 62
1
 40
0.000000
 41
0.000000
 66
  1
  0
VERTEX
  8
gg1
 10
0.000000
 20
0.000000
  0
VERTEX
  8
gg1
 10
0.000000
 20
0.910000
  0
SEQEND
  8
gg1
  0
POLYLINE
  8
gg1
 62
1
 40
0.000000
 41
0.000000
 66
  1
  0
VERTEX
  8
gg1
 10
0.289000
 20
-0.166000
  0
VERTEX
  8
gg1
 10
0.299000
 20
-0.176000
  0
VERTEX
  8
gg1
 10
0.319000
 20
-0.176000
  0
VERTEX
  8
gg1
 10
0.329000
 20
-0.166000
  0
VERTEX
  8
gg1
 10
0.329000
 20
-0.126000
  0
VERTEX
  8
gg1
 10
0.319000
 20
-0.116000
  0
VERTEX
  8
gg1
 10
0.299000
 20
-0.116000
  0
VERTEX
  8
gg1
 10
0.289000
 20
-0.126000
  0
VERTEX
  8
gg1
 10
0.289000
 20
-0.136000
  0
VERTEX
  8
gg1
 10
0.299000
 20
-0.146000
  0
VERTEX
  8
gg1
 10
0.329000
 20
-0.146000
  0
SEQEND
  8
gg1
  0
POLYLINE
  8
gg1
 62
1
 40
0.000000
 41
0.000000
 66
  1
  0
VERTEX
  8
gg1
 10
0.349000
 20
-0.176000
  0
VERTEX
  8
gg1
 10
0.369000
 20
-0.176000
  0
VERTEX
  8
gg1
 10
0.359000
 20
-0.176000
  0
VERTEX
  8
gg1
 10
0.359000
 20
-0.116000
  0
VERTEX
  8
gg1
 10
0.349000
 20
-0.126000
  0
SEQEND
  8
gg1
  0
POLYLINE
  8
gg1
 62
1
 40
0.000000
 41
0.000000
 66
  1
  0
VERTEX
  8
gg1
 10
0.399000
 20
-0.126000
  0
VERTEX
  8
gg1
 10
0.409000
 20
-0.116000
  0
VERTEX
  8
gg1
 10
0.429000
 20
-0.116000
  0
VERTEX
  8
gg1
 10
0.439000
 20
-0.126000
  0
VERTEX
  8
gg1
 10
0.439000
 20
-0.166000
  0
VERTEX
  8
gg1
 10
0.429000
 20
-0.176000
  0
VERTEX
  8
gg1
 10
0.409000
 20
-0.176000
  0
VERTEX
  8
gg1
 10
0.399000
 20
-0.166000
  0
VERTEX
  8
gg1
 10
0.399000
 20
-0.126000
  0
SEQEND
  8
gg1
  0
POLYLINE
  8
gg1
 62
1
 40
0.000000
 41
0.000000
 66
  1
  0
VERTEX
  8
gg1
 10
0.459000
 20
-0.176000
  0
VERTEX
  8
gg1
 10
0.459000
 20
-0.136000
  0
VERTEX
  8
gg1
 10
0.469000
 20
-0.136000
  0
VERTEX
  8
gg1
 10
0.479000
 20
-0.146000
  0
VERTEX
  8
gg1
 10
0.479000
 20
-0.176000
  0
VERTEX
  8
gg1
 10
0.479000
 20
-0.146000
  0
VERTEX
  8
gg1
 10
0.489000
 20
-0.136000
  0
VERTEX
  8
gg1
 10
0.499000
 20
-0.146000
  0
VERTEX
  8
gg1
 10
0.499000
 20
-0.176000
  0
SEQEND
  8
gg1
  0
POLYLINE
  8
gg1
 62
1
 40
0.000000
 41
0.000000
 66
  1
  0
VERTEX
  8
gg1
 10
0.519000
 20
-0.176000
  0
VERTEX
  8
gg1
 10
0.539000
 20
-0.176000
  0
VERTEX
  8
gg1
 10
0.529000
 20
-0.176000
  0
VERTEX
  8
gg1
 10
0.529000
 20
-0.136000
  0
VERTEX
  8
gg1
 10
0.519000
 20
-0.136000
  0
SEQEND
  8
gg1
  0
POLYLINE
  8
gg1
 62
1
 40
0.000000
 41
0.000000
 66
  1
  0
VERTEX
  8
gg1
 10
0.569000
 20
-0.176000
  0
VERTEX
  8
gg1
 10
0.589000
 20
-0.176000
  0
VERTEX
  8
gg1
 10
0.579000
 20
-0.176000
  0
VERTEX
  8
gg1
 10
0.579000
 20
-0.116000
  0
VERTEX
  8
gg1
 10
0.569000
 20
-0.116000
  0
SEQEND
  8
gg1
  0
POLYLINE
  8
gg1
 62
1
 40
0.000000
 41
0.000000
 66
  1
  0
VERTEX
  8
gg1
 10
-0.134000
 20
0.289000
  0
VERTEX
  8
gg1
 10
-0.124000
 20
0.299000
  0
VERTEX
  8
gg1
 10
-0.124000
 20
0.319000
  0
VERTEX
  8
gg1
 10
-0.134000
 20
0.329000
  0
VERTEX
  8
gg1
 10
-0.174000
 20
0.329000
  0
VERTEX
  8
gg1
 10
-0.184000
 20
0.319000
  0
VERTEX
  8
gg1
 10
-0.184000
 20
0.299000
  0
VERTEX
  8
gg1
 10
-0.174000
 20
0.289000
  0
VERTEX
  8
gg1
 10
-0.164000
 20
0.289000
  0
VERTEX
  8
gg1
 10
-0.154000
 20
0.299000
  0
VERTEX
  8
gg1
 10
-0.154000
 20
0.329000
  0
SEQEND
  8
gg1
  0
POLYLINE
  8
gg1
 62
1
 40
0.000000
 41
0.000000
 66
  1
  0
VERTEX
  8
gg1
 10
-0.124000
 20
0.349000
  0
VERTEX
  8
gg1
 10
-0.124000
 20
0.369000
  0
VERTEX
  8
gg1
 10
-0.124000
 20
0.359000
  0
VERTEX
  8
gg1
 10
-0.184000
 20
0.359000
  0
VERTEX
  8
gg1
 10
-0.174000
 20
0.349000
  0
SEQEND
  8
gg1
  0
POLYLINE
  8
gg1
 62
1
 40
0.000000
 41
0.000000
 66
  1
  0
VERTEX
  8
gg1
 10
-0.174000
 20
0.399000
  0
VERTEX
  8
gg1
 10
-0.184000
 20
0.409000
  0
VERTEX
  8
gg1
 10
-0.184000
 20
0.429000
  0
VERTEX
  8
gg1
 10
-0.174000
 20
0.439000
  0
VERTEX
  8
gg1
 10
-0.134000
 20
0.439000
  0
VERTEX
  8
gg1
 10
-0.124000
 20
0.429000
  0
VERTEX
  8
gg1
 10
-0.124000
 20
0.409000
  0
VERTEX
  8
gg1
 10
-0.134000
 20
0.399000
  0
VERTEX
  8
gg1
 10
-0.174000
 20
0.399000
  0
SEQEND
  8
gg1
  0
POLYLINE
  8
gg1
 62
1
 40
0.000000
 41
0.000000
 66
  1
  0
VERTEX
  8
gg1
 10
-0.124000
 20
0.459000
  0
VERTEX
  8
gg1
 10
-0.164000
 20
0.459000
  0
VERTEX
  8
gg1
 10
-0.164000
 20
0.469000
  0
VERTEX
  8
gg1
 10
-0.154000
 20
0.479000
  0
VERTEX
  8
gg1
 10
-0.124000
 20
0.479000
  0
VERTEX
  8
gg1
 10
-0.154000
 20
0.479000
  0
VERTEX
  8
gg1
 10
-0.164000
 20
0.489000
  0
VERTEX
  8
gg1
 10
-0.154000
 20
0.499000
  0
VERTEX
  8
gg1
 10
-0.124000
 20
0.499000
  0
SEQEND
  8
gg1
  0
POLYLINE
  8
gg1
 62
1
 40
0.000000
 41
0.000000
 66
  1
  0
VERTEX
  8
gg1
 10
-0.124000
 20
0.519000
  0
VERTEX
  8
gg1
 10
-0.124000
 20
0.539000
  0
VERTEX
  8
gg1
 10
-0.124000
 20
0.529000
  0
VERTEX
  8
gg1
 10
-0.164000
 20
0.529000
  0
VERTEX
  8
gg1
 10
-0.164000
 20
0.519000
  0
SEQEND
  8
gg1
  0
POLYLINE
  8
gg1
 62
1
 40
0.000000
 41
0.000000
 66
  1
  0
VERTEX
  8
gg1
 10
-0.124000
 20
0.569000
  0
VERTEX
  8
gg1
 10
-0.124000
 20
0.589000
  0
VERTEX
  8
gg1
 10
-0.124000
 20
0.579000
  0
VERTEX
  8
gg1
 10
-0.184000
 20
0.579000
  0
VERTEX
  8
gg1
 10
-0.184000
 20
0.569000
  0
SEQEND
  8
gg1
  0
POLYLINE
  8
gg1
 62
1
 40
0.000000
 41
0.000000
 66
  1
  0
VERTEX
  8
gg1
 10
0.467000
 20
0.080000
  0
VERTEX
  8
gg1
 10
0.553000
 20
0.080000
  0
SEQEND
  8
gg1
  0
POLYLINE
  8
gg1
 62
1
 40
0.000000
 41
0.000000
 66
  1
  0
VERTEX
  8
gg1
 10
0.510000
 20
0.037000
  0
VERTEX
  8
gg1
 10
0.510000
 20
0.123000
  0
SEQEND
  8
gg1
  0
POLYLINE
  8
gg1
 62
1
 40
0.000000
 41
0.000000
 66
  1
  0
VERTEX
  8
gg1
 10
0.037000
 20
0.830000
  0
VERTEX
  8
gg1
 10
0.123000
 20
0.830000
  0
SEQEND
  8
gg1
  0
POLYLINE
  8
gg1
 62
1
 40
0.000000
 41
0.000000
 66
  1
  0
VERTEX
  8
gg1
 10
0.080000
 20
0.787000
  0
VERTEX
  8
gg1
 10
0.080000
 20
0.873000
  0
SEQEND
  8
gg1
  0
POLYLINE
  8
gg1
 62
1
 40
0.000000
 41
0.000000
 66
  1
  0
VERTEX
  8
gg1
 10
0.409000
 20
0.855000
  0
VERTEX
  8
gg1
 10
0.451000
 20
0.855000
  0
SEQEND
  8
gg1
  0
POLYLINE
  8
gg1
 62
1
 40
0.000000
 41
0.000000
 66
  1
  0
VERTEX
  8
gg1
 10
0.430000
 20
0.834000
  0
VERTEX
  8
gg1
 10
0.430000
 20
0.876000
  0
SEQEND
  8
gg1
  0
POLYLINE
  8
gg1
 62
1
 40
0.000000
 41
0.000000
 66
  1
  0
VERTEX
  8
gg1
 10
0.309000
 20
0.855000
  0
VERTEX
  8
gg1
 10
0.351000
 20
0.855000
  0
SEQEND
  8
gg1
  0
POLYLINE
  8
gg1
 62
1
 40
0.000000
 41
0.000000
 66
  1
  0
VERTEX
  8
gg1
 10
0.330000
 20
0.834000
  0
VERTEX
  8
gg1
 10
0.330000
 20
0.876000
  0
SEQEND
  8
gg1
  0
POLYLINE
  8
gg1
 62
1
 40
0.000000
 41
0.000000
 66
  1
  0
VERTEX
  8
gg1
 10
0.034000
 20
0.680000
  0
VERTEX
  8
gg1
 10
0.076000
 20
0.680000
  0
SEQEND
  8
gg1
  0
POLYLINE
  8
gg1
 62
1
 40
0.000000
 41
0.000000
 66
  1
  0
VERTEX
  8
gg1
 10
0.055000
 20
0.659000
  0
VERTEX
  8
gg1
 10
0.055000
 20
0.701000
  0
SEQEND
  8
gg1
  0
POLYLINE
  8
gg1
 62
1
 40
0.000000
 41
0.000000
 66
  1
  0
VERTEX
  8
gg1
 10
0.034000
 20
0.580000
  0
VERTEX
  8
gg1
 10
0.076000
 20
0.580000
  0
SEQEND
  8
gg1
  0
POLYLINE
  8
gg1
 62
1
 40
0.000000
 41
0.000000
 66
  1
  0
VERTEX
  8
gg1
 10
0.055000
 20
0.559000
  0
VERTEX
  8
gg1
 10
0.055000
 20
0.601000
  0
SEQEND
  8
gg1
  0
POLYLINE
  8
gg1
 62
1
 40
0.000000
 41
0.000000
 66
  1
  0
VERTEX
  8
gg1
 10
0.034000
 20
0.455000
  0
VERTEX
  8
gg1
 10
0.076000
 20
0.455000
  0
SEQEND
  8
gg1
  0
POLYLINE
  8
gg1
 62
1
 40
0.000000
 41
0.000000
 66
  1
  0
VERTEX
  8
gg1
 10
0.055000
 20
0.434000
  0
VERTEX
  8
gg1
 10
0.055000
 20
0.476000
  0
SEQEND
  8
gg1
  0
POLYLINE
  8
gg1
 62
1
 40
0.000000
 41
0.000000
 66
  1
  0
VERTEX
  8
gg1
 10
0.034000
 20
0.355000
  0
VERTEX
  8
gg1
 10
0.076000
 20
0.355000
  0
SEQEND
  8
gg1
  0
POLYLINE
  8
gg1
 62
1
 40
0.000000
 41
0.000000
 66
  1
  0
VERTEX
  8
gg1
 10
0.055000
 20
0.334000
  0
VERTEX
  8
gg1
 10
0.055000
 20
0.376000
  0
SEQEND
  8
gg1
  0
POLYLINE
  8
gg1
 62
1
 40
0.000000
 41
0.000000
 66
  1
  0
VERTEX
  8
gg1
 10
0.034000
 20
0.255000
  0
VERTEX
  8
gg1
 10
0.076000
 20
0.255000
  0
SEQEND
  8
gg1
  0
POLYLINE
  8
gg1
 62
1
 40
0.000000
 41
0.000000
 66
  1
  0
VERTEX
  8
gg1
 10
0.055000
 20
0.234000
  0
VERTEX
  8
gg1
 10
0.055000
 20
0.276000
  0
SEQEND
  8
gg1
  0
POLYLINE
  8
gg1
 62
1
 40
0.000000
 41
0.000000
 66
  1
  0
VERTEX
  8
gg1
 10
0.034000
 20
0.155000
  0
VERTEX
  8
gg1
 10
0.076000
 20
0.155000
  0
SEQEND
  8
gg1
  0
POLYLINE
  8
gg1
 62
1
 40
0.000000
 41
0.000000
 66
  1
  0
VERTEX
  8
gg1
 10
0.055000
 20
0.134000
  0
VERTEX
  8
gg1
 10
0.055000
 20
0.176000
  0
SEQEND
  8
gg1
  0
POLYLINE
  8
gg1
 62
1
 40
0.000000
 41
0.000000
 66
  1
  0
VERTEX
  8
gg1
 10
0.034000
 20
0.055000
  0
VERTEX
  8
gg1
 10
0.076000
 20
0.055000
  0
SEQEND
  8
gg1
  0
POLYLINE
  8
gg1
 62
1
 40
0.000000
 41
0.000000
 66
  1
  0
VERTEX
  8
gg1
 10
0.055000
 20
0.034000
  0
VERTEX
  8
gg1
 10
0.055000
 20
0.076000
  0
SEQEND
  8
gg1
  0
POLYLINE
  8
gg1
 62
1
 40
0.000000
 41
0.000000
 66
  1
  0
VERTEX
  8
gg1
 10
0.634000
 20
0.055000
  0
VERTEX
  8
gg1
 10
0.676000
 20
0.055000
  0
SEQEND
  8
gg1
  0
POLYLINE
  8
gg1
 62
1
 40
0.000000
 41
0.000000
 66
  1
  0
VERTEX
  8
gg1
 10
0.655000
 20
0.034000
  0
VERTEX
  8
gg1
 10
0.655000
 20
0.076000
  0
SEQEND
  8
gg1
  0
POLYLINE
  8
gg1
 62
1
 40
0.000000
 41
0.000000
 66
  1
  0
VERTEX
  8
gg1
 10
0.734000
 20
0.055000
  0
VERTEX
  8
gg1
 10
0.776000
 20
0.055000
  0
SEQEND
  8
gg1
  0
POLYLINE
  8
gg1
 62
1
 40
0.000000
 41
0.000000
 66
  1
  0
VERTEX
  8
gg1
 10
0.755000
 20
0.034000
  0
VERTEX
  8
gg1
 10
0.755000
 20
0.076000
  0
SEQEND
  8
gg1
  0
POLYLINE
  8
gg1
 62
1
 40
0.000000
 41
0.000000
 66
  1
  0
VERTEX
  8
gg1
 10
0.834000
 20
0.055000
  0
VERTEX
  8
gg1
 10
0.876000
 20
0.055000
  0
SEQEND
  8
gg1
  0
POLYLINE
  8
gg1
 62
1
 40
0.000000
 41
0.000000
 66
  1
  0
VERTEX
  8
gg1
 10
0.855000
 20
0.034000
  0
VERTEX
  8
gg1
 10
0.855000
 20
0.076000
  0
SEQEND
  8
gg1
  0
POLYLINE
  8
gg1
 62
1
 40
0.000000
 41
0.000000
 66
  1
  0
VERTEX
  8
gg1
 10
0.834000
 20
0.155000
  0
VERTEX
  8
gg1
 10
0.876000
 20
0.155000
  0
SEQEND
  8
gg1
  0
POLYLINE
  8
gg1
 62
1
 40
0.000000
 41
0.000000
 66
  1
  0
VERTEX
  8
gg1
 10
0.855000
 20
0.134000
  0
VERTEX
  8
gg1
 10
0.855000
 20
0.176000
  0
SEQEND
  8
gg1
  0
POLYLINE
  8
gg1
 62
1
 40
0.000000
 41
0.000000
 66
  1
  0
VERTEX
  8
gg1
 10
0.734000
 20
0.155000
  0
VERTEX
  8
gg1
 10
0.776000
 20
0.155000
  0
SEQEND
  8
gg1
  0
POLYLINE
  8
gg1
 62
1
 40
0.000000
 41
0.000000
 66
  1
  0
VERTEX
  8
gg1
 10
0.755000
 20
0.134000
  0
VERTEX
  8
gg1
 10
0.755000
 20
0.176000
  0
SEQEND
  8
gg1
  0
POLYLINE
  8
gg1
 62
1
 40
0.000000
 41
0.000000
 66
  1
  0
VERTEX
  8
gg1
 10
0.634000
 20
0.155000
  0
VERTEX
  8
gg1
 10
0.676000
 20
0.155000
  0
SEQEND
  8
gg1
  0
POLYLINE
  8
gg1
 62
1
 40
0.000000
 41
0.000000
 66
  1
  0
VERTEX
  8
gg1
 10
0.655000
 20
0.134000
  0
VERTEX
  8
gg1
 10
0.655000
 20
0.176000
  0
SEQEND
  8
gg1
  0
POLYLINE
  8
gg1
 62
1
 40
0.000000
 41
0.000000
 66
  1
  0
VERTEX
  8
gg1
 10
0.634000
 20
0.255000
  0
VERTEX
  8
gg1
 10
0.676000
 20
0.255000
  0
SEQEND
  8
gg1
  0
POLYLINE
  8
gg1
 62
1
 40
0.000000
 41
0.000000
 66
  1
  0
VERTEX
  8
gg1
 10
0.655000
 20
0.234000
  0
VERTEX
  8
gg1
 10
0.655000
 20
0.276000
  0
SEQEND
  8
gg1
  0
POLYLINE
  8
gg1
 62
1
 40
0.000000
 41
0.000000
 66
  1
  0
VERTEX
  8
gg1
 10
0.734000
 20
0.255000
  0
VERTEX
  8
gg1
 10
0.776000
 20
0.255000
  0
SEQEND
  8
gg1
  0
POLYLINE
  8
gg1
 62
1
 40
0.000000
 41
0.000000
 66
  1
  0
VERTEX
  8
gg1
 10
0.755000
 20
0.234000
  0
VERTEX
  8
gg1
 10
0.755000
 20
0.276000
  0
SEQEND
  8
gg1
  0
POLYLINE
  8
gg1
 62
1
 40
0.000000
 41
0.000000
 66
  1
  0
VERTEX
  8
gg1
 10
0.834000
 20
0.255000
  0
VERTEX
  8
gg1
 10
0.876000
 20
0.255000
  0
SEQEND
  8
gg1
  0
POLYLINE
  8
gg1
 62
1
 40
0.000000
 41
0.000000
 66
  1
  0
VERTEX
  8
gg1
 10
0.855000
 20
0.234000
  0
VERTEX
  8
gg1
 10
0.855000
 20
0.276000
  0
SEQEND
  8
gg1
  0
POLYLINE
  8
gg1
 62
1
 40
0.000000
 41
0.000000
 66
  1
  0
VERTEX
  8
gg1
 10
0.634000
 20
0.355000
  0
VERTEX
  8
gg1
 10
0.676000
 20
0.355000
  0
SEQEND
  8
gg1
  0
POLYLINE
  8
gg1
 62
1
 40
0.000000
 41
0.000000
 66
  1
  0
VERTEX
  8
gg1
 10
0.655000
 20
0.334000
  0
VERTEX
  8
gg1
 10
0.655000
 20
0.376000
  0
SEQEND
  8
gg1
  0
POLYLINE
  8
gg1
 62
1
 40
0.000000
 41
0.000000
 66
  1
  0
VERTEX
  8
gg1
 10
0.734000
 20
0.355000
  0
VERTEX
  8
gg1
 10
0.776000
 20
0.355000
  0
SEQEND
  8
gg1
  0
POLYLINE
  8
gg1
 62
1
 40
0.000000
 41
0.000000
 66
  1
  0
VERTEX
  8
gg1
 10
0.755000
 20
0.334000
  0
VERTEX
  8
gg1
 10
0.755000
 20
0.376000
  0
SEQEND
  8
gg1
  0
POLYLINE
  8
gg1
 62
1
 40
0.000000
 41
0.000000
 66
  1
  0
VERTEX
  8
gg1
 10
0.834000
 20
0.355000
  0
VERTEX
  8
gg1
 10
0.876000
 20
0.355000
  0
SEQEND
  8
gg1
  0
POLYLINE
  8
gg1
 62
1
 40
0.000000
 41
0.000000
 66
  1
  0
VERTEX
  8
gg1
 10
0.855000
 20
0.334000
  0
VERTEX
  8
gg1
 10
0.855000
 20
0.376000
  0
SEQEND
  8
gg1
  0
POLYLINE
  8
gg1
 62
1
 40
0.000000
 41
0.000000
 66
  1
  0
VERTEX
  8
gg1
 10
0.634000
 20
0.455000
  0
VERTEX
  8
gg1
 10
0.676000
 20
0.455000
  0
SEQEND
  8
gg1
  0
POLYLINE
  8
gg1
 62
1
 40
0.000000
 41
0.000000
 66
  1
  0
VERTEX
  8
gg1
 10
0.655000
 20
0.434000
  0
VERTEX
  8
gg1
 10
0.655000
 20
0.476000
  0
SEQEND
  8
gg1
  0
POLYLINE
  8
gg1
 62
1
 40
0.000000
 41
0.000000
 66
  1
  0
VERTEX
  8
gg1
 10
0.734000
 20
0.455000
  0
VERTEX
  8
gg1
 10
0.776000
 20
0.455000
  0
SEQEND
  8
gg1
  0
POLYLINE
  8
gg1
 62
1
 40
0.000000
 41
0.000000
 66
  1
  0
VERTEX
  8
gg1
 10
0.755000
 20
0.434000
  0
VERTEX
  8
gg1
 10
0.755000
 20
0.476000
  0
SEQEND
  8
gg1
  0
POLYLINE
  8
gg1
 62
1
 40
0.000000
 41
0.000000
 66
  1
  0
VERTEX
  8
gg1
 10
0.834000
 20
0.455000
  0
VERTEX
  8
gg1
 10
0.876000
 20
0.455000
  0
SEQEND
  8
gg1
  0
POLYLINE
  8
gg1
 62
1
 40
0.000000
 41
0.000000
 66
  1
  0
VERTEX
  8
gg1
 10
0.855000
 20
0.434000
  0
VERTEX
  8
gg1
 10
0.855000
 20
0.476000
  0
SEQEND
  8
gg1
  0
POLYLINE
  8
gg1
 62
1
 40
0.000000
 41
0.000000
 66
  1
  0
VERTEX
  8
gg1
 10
0.834000
 20
0.555000
  0
VERTEX
  8
gg1
 10
0.876000
 20
0.555000
  0
SEQEND
  8
gg1
  0
POLYLINE
  8
gg1
 62
1
 40
0.000000
 41
0.000000
 66
  1
  0
VERTEX
  8
gg1
 10
0.855000
 20
0.534000
  0
VERTEX
  8
gg1
 10
0.855000
 20
0.576000
  0
SEQEND
  8
gg1
  0
POLYLINE
  8
gg1
 62
1
 40
0.000000
 41
0.000000
 66
  1
  0
VERTEX
  8
gg1
 10
0.734000
 20
0.555000
  0
VERTEX
  8
gg1
 10
0.776000
 20
0.555000
  0
SEQEND
  8
gg1
  0
POLYLINE
  8
gg1
 62
1
 40
0.000000
 41
0.000000
 66
  1
  0
VERTEX
  8
gg1
 10
0.755000
 20
0.534000
  0
VERTEX
  8
gg1
 10
0.755000
 20
0.576000
  0
SEQEND
  8
gg1
  0
POLYLINE
  8
gg1
 62
1
 40
0.000000
 41
0.000000
 66
  1
  0
VERTEX
  8
gg1
 10
0.634000
 20
0.555000
  0
VERTEX
  8
gg1
 10
0.676000
 20
0.555000
  0
SEQEND
  8
gg1
  0
POLYLINE
  8
gg1
 62
1
 40
0.000000
 41
0.000000
 66
  1
  0
VERTEX
  8
gg1
 10
0.655000
 20
0.534000
  0
VERTEX
  8
gg1
 10
0.655000
 20
0.576000
  0
SEQEND
  8
gg1
  0
POLYLINE
  8
gg1
 62
1
 40
0.000000
 41
0.000000
 66
  1
  0
VERTEX
  8
gg1
 10
0.634000
 20
0.655000
  0
VERTEX
  8
gg1
 10
0.676000
 20
0.655000
  0
SEQEND
  8
gg1
  0
POLYLINE
  8
gg1
 62
1
 40
0.000000
 41
0.000000
 66
  1
  0
VERTEX
  8
gg1
 10
0.655000
 20
0.634000
  0
VERTEX
  8
gg1
 10
0.655000
 20
0.676000
  0
SEQEND
  8
gg1
  0
POLYLINE
  8
gg1
 62
1
 40
0.000000
 41
0.000000
 66
  1
  0
VERTEX
  8
gg1
 10
0.734000
 20
0.655000
  0
VERTEX
  8
gg1
 10
0.776000
 20
0.655000
  0
SEQEND
  8
gg1
  0
POLYLINE
  8
gg1
 62
1
 40
0.000000
 41
0.000000
 66
  1
  0
VERTEX
  8
gg1
 10
0.755000
 20
0.634000
  0
VERTEX
  8
gg1
 10
0.755000
 20
0.676000
  0
SEQEND
  8
gg1
  0
POLYLINE
  8
gg1
 62
1
 40
0.000000
 41
0.000000
 66
  1
  0
VERTEX
  8
gg1
 10
0.834000
 20
0.655000
  0
VERTEX
  8
gg1
 10
0.876000
 20
0.655000
  0
SEQEND
  8
gg1
  0
POLYLINE
  8
gg1
 62
1
 40
0.000000
 41
0.000000
 66
  1
  0
VERTEX
  8
gg1
 10
0.855000
 20
0.634000
  0
VERTEX
  8
gg1
 10
0.855000
 20
0.676000
  0
SEQEND
  8
gg1
  0
POLYLINE
  8
gg1
 62
1
 40
0.000000
 41
0.000000
 66
  1
  0
VERTEX
  8
gg1
 10
0.834000
 20
0.755000
  0
VERTEX
  8
gg1
 10
0.876000
 20
0.755000
  0
SEQEND
  8
gg1
  0
POLYLINE
  8
gg1
 62
1
 40
0.000000
 41
0.000000
 66
  1
  0
VERTEX
  8
gg1
 10
0.855000
 20
0.734000
  0
VERTEX
  8
gg1
 10
0.855000
 20
0.776000
  0
SEQEND
  8
gg1
  0
POLYLINE
  8
gg1
 62
1
 40
0.000000
 41
0.000000
 66
  1
  0
VERTEX
  8
gg1
 10
0.734000
 20
0.755000
  0
VERTEX
  8
gg1
 10
0.776000
 20
0.755000
  0
SEQEND
  8
gg1
  0
POLYLINE
  8
gg1
 62
1
 40
0.000000
 41
0.000000
 66
  1
  0
VERTEX
  8
gg1
 10
0.755000
 20
0.734000
  0
VERTEX
  8
gg1
 10
0.755000
 20
0.776000
  0
SEQEND
  8
gg1
  0
POLYLINE
  8
gg1
 62
1
 40
0.000000
 41
0.000000
 66
  1
  0
VERTEX
  8
gg1
 10
0.634000
 20
0.755000
  0
VERTEX
  8
gg1
 10
0.676000
 20
0.755000
  0
SEQEND
  8
gg1
  0
POLYLINE
  8
gg1
 62
1
 40
0.000000
 41
0.000000
 66
  1
  0
VERTEX
  8
gg1
 10
0.655000
 20
0.734000
  0
VERTEX
  8
gg1
 10
0.655000
 20
0.776000
  0
SEQEND
  8
gg1
  0
POLYLINE
  8
gg1
 62
1
 40
0.000000
 41
0.000000
 66
  1
  0
VERTEX
  8
gg1
 10
0.534000
 20
0.855000
  0
VERTEX
  8
gg1
 10
0.576000
 20
0.855000
  0
SEQEND
  8
gg1
  0
POLYLINE
  8
gg1
 62
1
 40
0.000000
 41
0.000000
 66
  1
  0
VERTEX
  8
gg1
 10
0.555000
 20
0.834000
  0
VERTEX
  8
gg1
 10
0.555000
 20
0.876000
  0
SEQEND
  8
gg1
  0
POLYLINE
  8
gg1
 62
1
 40
0.000000
 41
0.000000
 66
  1
  0
VERTEX
  8
gg1
 10
0.634000
 20
0.855000
  0
VERTEX
  8
gg1
 10
0.676000
 20
0.855000
  0
SEQEND
  8
gg1
  0
POLYLINE
  8
gg1
 62
1
 40
0.000000
 41
0.000000
 66
  1
  0
VERTEX
  8
gg1
 10
0.655000
 20
0.834000
  0
VERTEX
  8
gg1
 10
0.655000
 20
0.876000
  0
SEQEND
  8
gg1
  0
POLYLINE
  8
gg1
 62
1
 40
0.000000
 41
0.000000
 66
  1
  0
VERTEX
  8
gg1
 10
0.834000
 20
0.855000
  0
VERTEX
  8
gg1
 10
0.876000
 20
0.855000
  0
SEQEND
  8
gg1
  0
POLYLINE
  8
gg1
 62
1
 40
0.000000
 41
0.000000
 66
  1
  0
VERTEX
  8
gg1
 10
0.855000
 20
0.834000
  0
VERTEX
  8
gg1
 10
0.855000
 20
0.876000
  0
SEQEND
  8
gg1
  0
POLYLINE
  8
gg1
 62
1
 40
0.000000
 41
0.000000
 66
  1
  0
VERTEX
  8
gg1
 10
0.734000
 20
0.855000
  0
VERTEX
  8
gg1
 10
0.776000
 20
0.855000
  0
SEQEND
  8
gg1
  0
POLYLINE
  8
gg1
 62
1
 40
0.000000
 41
0.000000
 66
  1
  0
VERTEX
  8
gg1
 10
0.755000
 20
0.834000
  0
VERTEX
  8
gg1
 10
0.755000
 20
0.876000
  0
SEQEND
  8
gg1
  0
POLYLINE
  8
gg1
 62
1
 40
0.000000
 41
0.000000
 66
  1
  0
VERTEX
  8
gg1
 10
0.482000
 20
0.415000
  0
VERTEX
  8
gg1
 10
0.502000
 20
0.415000
  0
SEQEND
  8
gg1
  0
POLYLINE
  8
gg1
 62
1
 40
0.000000
 41
0.000000
 66
  1
  0
VERTEX
  8
gg1
 10
0.492000
 20
0.405000
  0
VERTEX
  8
gg1
 10
0.492000
 20
0.425000
  0
SEQEND
  8
gg1
  0
POLYLINE
  8
gg1
 62
1
 40
0.000000
 41
0.000000
 66
  1
  0
VERTEX
  8
gg1
 10
0.195000
 20
0.355000
  0
VERTEX
  8
gg1
 10
0.215000
 20
0.355000
  0
SEQEND
  8
gg1
  0
POLYLINE
  8
gg1
 62
1
 40
0.000000
 41
0.000000
 66
  1
  0
VERTEX
  8
gg1
 10
0.205000
 20
0.345000
  0
VERTEX
  8
gg1
 10
0.205000
 20
0.365000
  0
SEQEND
  8
gg1
  0
POLYLINE
  8
gg1
 62
1
 40
0.000000
 41
0.000000
 66
  1
  0
VERTEX
  8
gg1
 10
0.130000
 20
0.465000
  0
VERTEX
  8
gg1
 10
0.150000
 20
0.465000
  0
SEQEND
  8
gg1
  0
POLYLINE
  8
gg1
 62
1
 40
0.000000
 41
0.000000
 66
  1
  0
VERTEX
  8
gg1
 10
0.140000
 20
0.455000
  0
VERTEX
  8
gg1
 10
0.140000
 20
0.475000
  0
SEQEND
  8
gg1
  0
POLYLINE
  8
gg1
 62
1
 40
0.000000
 41
0.000000
 66
  1
  0
VERTEX
  8
gg1
 10
0.175000
 20
0.641000
  0
VERTEX
  8
gg1
 10
0.195000
 20
0.641000
  0
SEQEND
  8
gg1
  0
POLYLINE
  8
gg1
 62
1
 40
0.000000
 41
0.000000
 66
  1
  0
VERTEX
  8
gg1
 10
0.185000
 20
0.631000
  0
VERTEX
  8
gg1
 10
0.185000
 20
0.651000
  0
SEQEND
  8
gg1
  0
POLYLINE
  8
gg1
 62
1
 40
0.000000
 41
0.000000
 66
  1
  0
VERTEX
  8
gg1
 10
0.145000
 20
0.200000
  0
VERTEX
  8
gg1
 10
0.165000
 20
0.200000
  0
SEQEND
  8
gg1
  0
POLYLINE
  8
gg1
 62
1
 40
0.000000
 41
0.000000
 66
  1
  0
VERTEX
  8
gg1
 10
0.155000
 20
0.190000
  0
VERTEX
  8
gg1
 10
0.155000
 20
0.210000
  0
SEQEND
  8
gg1
  0
POLYLINE
  8
gg1
 62
1
 40
0.000000
 41
0.000000
 66
  1
  0
VERTEX
  8
gg1
 10
0.695000
 20
0.105000
  0
VERTEX
  8
gg1
 10
0.715000
 20
0.105000
  0
SEQEND
  8
gg1
  0
POLYLINE
  8
gg1
 62
1
 40
0.000000
 41
0.000000
 66
  1
  0
VERTEX
  8
gg1
 10
0.705000
 20
0.095000
  0
VERTEX
  8
gg1
 10
0.705000
 20
0.115000
  0
SEQEND
  8
gg1
  0
POLYLINE
  8
gg1
 62
1
 40
0.000000
 41
0.000000
 66
  1
  0
VERTEX
  8
gg1
 10
0.317300
 20
0.755300
  0
VERTEX
  8
gg1
 10
0.337300
 20
0.755300
  0
SEQEND
  8
gg1
  0
POLYLINE
  8
gg1
 62
1
 40
0.000000
 41
0.000000
 66
  1
  0
VERTEX
  8
gg1
 10
0.327300
 20
0.745300
  0
VERTEX
  8
gg1
 10
0.327300
 20
0.765300
  0
SEQEND
  8
gg1
  0
POLYLINE
  8
gg1
 62
1
 40
0.000000
 41
0.000000
 66
  1
  0
VERTEX
  8
gg1
 10
0.223000
 20
0.737000
  0
VERTEX
  8
gg1
 10
0.243000
 20
0.737000
  0
SEQEND
  8
gg1
  0
POLYLINE
  8
gg1
 62
1
 40
0.000000
 41
0.000000
 66
  1
  0
VERTEX
  8
gg1
 10
0.233000
 20
0.727000
  0
VERTEX
  8
gg1
 10
0.233000
 20
0.747000
  0
SEQEND
  8
gg1
  0
ENDSEC
  0
EOF
