  0
SECTION
  2
HEADER
  9
$EXTMIN
 10
-0.227000
 20
-0.214000
  9
$EXTMAX
 10
1.865000
 20
1.865000
  9
$LIMMIN
 10
-0.227000
 20
-0.214000
  9
$LIMMAX
 10
1.865000
 20
1.865000
  9
$FILLMODE
 70
  1
  0
ENDSEC
  0
SECTION
  2
TABLES
  0
TABLE
  2
LTYPE
 70
  1
  0
LTYPE
  2
CONTINUOUS
 70
 64
  3
Solid line
 72
 65
 73
  0
 40
0.0
  0
ENDTAB
  0
TABLE
  2
LAYER
 70
 1
  0
LAYER
  2
0
 70
  0
 62
7
  6
CONTINUOUS
  0
LAYER
  2
gg1
 70
  0
 62
1
  6
CONTINUOUS
  0
ENDTAB
  0
TABLE
  2
STYLE
 70
  1
  0
STYLE
  2
STANDARD
 70
  0
 40
0.0
 41
1.0
 50
0.0
 71
  0
 42
0.2
  3
txt
  4

  0
ENDTAB
  0
ENDSEC
  0
SECTION
  2
BLOCKS
  0
BLOCK
  8
0
  2
D10
 70
64
 10
0.0
 20
0.0
  3
D10
  0
CIRCLE
  8
0
 10
0.000000
 20
0.000000
 40
0.005000
 0
ENDBLK
  8
0
  0
BLOCK
  8
0
  2
D11
 70
64
 10
0.0
 20
0.0
  3
D11
  0
CIRCLE
  8
0
 10
0.000000
 20
0.000000
 40
0.003000
 0
ENDBLK
  8
0
  0
BLOCK
  8
0
  2
D12
 70
64
 10
0.0
 20
0.0
  3
D12
  0
CIRCLE
  8
0
 10
0.000000
 20
0.000000
 40
0.002500
 0
ENDBLK
  8
0
  0
ENDSEC
  0
SECTION
  2
ENTITIES
  0
POLYLINE
  8
gg1
 62
1
 40
0.000000
 41
0.000000
 66
  1
  0
VERTEX
  8
gg1
 10
1.860000
 20
-0.185000
  0
VERTEX
  8
gg1
 10
1.860000
 20
-0.015000
  0
SEQEND
  8
gg1
  0
POLYLINE
  8
gg1
 62
1
 40
0.000000
 41
0.000000
 66
  1
  0
VERTEX
  8
gg1
 10
0.000000
 20
-0.185000
  0
VERTEX
  8
gg1
 10
0.000000
 20
-0.015000
  0
SEQEND
  8
gg1
  0
POLYLINE
  8
gg1
 62
1
 40
0.000000
 41
0.000000
 66
  1
  0
VERTEX
  8
gg1
 10
1.109900
 20
-0.175000
  0
VERTEX
  8
gg1
 10
1.860000
 20
-0.175000
  0
SEQEND
  8
gg1
  0
POLYLINE
  8
gg1
 62
1
 40
0.000000
 41
0.000000
 66
  1
  0
VERTEX
  8
gg1
 10
0.000000
 20
-0.175000
  0
VERTEX
  8
gg1
 10
0.718100
 20
-0.175000
  0
SEQEND
  8
gg1
  0
POLYLINE
  8
gg1
 62
1
 40
0.000000
 41
0.000000
 66
  1
  0
VERTEX
  8
gg1
 10
1.800000
 20
-0.155000
  0
VERTEX
  8
gg1
 10
1.860000
 20
-0.175000
  0
SEQEND
  8
gg1
  0
POLYLINE
  8
gg1
 62
1
 40
0.000000
 41
0.000000
 66
  1
  0
VERTEX
  8
gg1
 10
1.800000
 20
-0.195000
  0
VERTEX
  8
gg1
 10
1.860000
 20
-0.175000
  0
SEQEND
  8
gg1
  0
POLYLINE
  8
gg1
 62
1
 40
0.000000
 41
0.000000
 66
  1
  0
VERTEX
  8
gg1
 10
0.000000
 20
-0.175000
  0
VERTEX
  8
gg1
 10
0.060000
 20
-0.195000
  0
SEQEND
  8
gg1
  0
POLYLINE
  8
gg1
 62
1
 40
0.000000
 41
0.000000
 66
  1
  0
VERTEX
  8
gg1
 10
0.000000
 20
-0.175000
  0
VERTEX
  8
gg1
 10
0.060000
 20
-0.155000
  0
SEQEND
  8
gg1
  0
POLYLINE
  8
gg1
 62
1
 40
0.000000
 41
0.000000
 66
  1
  0
VERTEX
  8
gg1
 10
-0.210000
 20
1.860000
  0
VERTEX
  8
gg1
 10
-0.015000
 20
1.860000
  0
SEQEND
  8
gg1
  0
POLYLINE
  8
gg1
 62
1
 40
0.000000
 41
0.000000
 66
  1
  0
VERTEX
  8
gg1
 10
-0.210000
 20
0.000000
  0
VERTEX
  8
gg1
 10
-0.015000
 20
0.000000
  0
SEQEND
  8
gg1
  0
POLYLINE
  8
gg1
 62
1
 40
0.000000
 41
0.000000
 66
  1
  0
VERTEX
  8
gg1
 10
-0.200000
 20
1.109900
  0
VERTEX
  8
gg1
 10
-0.200000
 20
1.860000
  0
SEQEND
  8
gg1
  0
POLYLINE
  8
gg1
 62
1
 40
0.000000
 41
0.000000
 66
  1
  0
VERTEX
  8
gg1
 10
-0.200000
 20
0.000000
  0
VERTEX
  8
gg1
 10
-0.200000
 20
0.718100
  0
SEQEND
  8
gg1
  0
POLYLINE
  8
gg1
 62
1
 40
0.000000
 41
0.000000
 66
  1
  0
VERTEX
  8
gg1
 10
-0.220000
 20
1.800000
  0
VERTEX
  8
gg1
 10
-0.200000
 20
1.860000
  0
VERTEX
  8
gg1
 10
-0.180000
 20
1.800000
  0
SEQEND
  8
gg1
  0
POLYLINE
  8
gg1
 62
1
 40
0.000000
 41
0.000000
 66
  1
  0
VERTEX
  8
gg1
 10
-0.200000
 20
0.000000
  0
VERTEX
  8
gg1
 10
-0.180000
 20
0.060000
  0
SEQEND
  8
gg1
  0
POLYLINE
  8
gg1
 62
1
 40
0.000000
 41
0.000000
 66
  1
  0
VERTEX
  8
gg1
 10
-0.220000
 20
0.060000
  0
VERTEX
  8
gg1
 10
-0.200000
 20
0.000000
  0
SEQEND
  8
gg1
  0
POLYLINE
  8
gg1
 62
1
 40
0.000000
 41
0.000000
 66
  1
  0
VERTEX
  8
gg1
 10
0.000000
 20
0.000000
  0
VERTEX
  8
gg1
 10
1.860000
 20
0.000000
  0
SEQEND
  8
gg1
  0
POLYLINE
  8
gg1
 62
1
 40
0.000000
 41
0.000000
 66
  1
  0
VERTEX
  8
gg1
 10
0.000000
 20
0.000000
  0
VERTEX
  8
gg1
 10
0.000000
 20
1.860000
  0
VERTEX
  8
gg1
 10
1.860000
 20
1.860000
  0
SEQEND
  8
gg1
  0
POLYLINE
  8
gg1
 62
1
 40
0.000000
 41
0.000000
 66
  1
  0
VERTEX
  8
gg1
 10
1.860000
 20
0.000000
  0
VERTEX
  8
gg1
 10
1.860000
 20
1.860000
  0
SEQEND
  8
gg1
  0
POLYLINE
  8
gg1
 62
1
 40
0.000000
 41
0.000000
 66
  1
  0
VERTEX
  8
gg1
 10
0.734100
 20
-0.211000
  0
VERTEX
  8
gg1
 10
0.754100
 20
-0.211000
  0
VERTEX
  8
gg1
 10
0.744100
 20
-0.211000
  0
VERTEX
  8
gg1
 10
0.744100
 20
-0.151000
  0
VERTEX
  8
gg1
 10
0.734100
 20
-0.161000
  0
SEQEND
  8
gg1
  0
POLYLINE
  8
gg1
 62
1
 40
0.000000
 41
0.000000
 66
  1
  0
VERTEX
  8
gg1
 10
0.784000
 20
-0.161000
  0
VERTEX
  8
gg1
 10
0.794000
 20
-0.151000
  0
VERTEX
  8
gg1
 10
0.814000
 20
-0.151000
  0
VERTEX
  8
gg1
 10
0.824000
 20
-0.161000
  0
VERTEX
  8
gg1
 10
0.824000
 20
-0.171000
  0
VERTEX
  8
gg1
 10
0.814000
 20
-0.181000
  0
VERTEX
  8
gg1
 10
0.824000
 20
-0.191000
  0
VERTEX
  8
gg1
 10
0.824000
 20
-0.201000
  0
VERTEX
  8
gg1
 10
0.814000
 20
-0.211000
  0
VERTEX
  8
gg1
 10
0.794000
 20
-0.211000
  0
VERTEX
  8
gg1
 10
0.784000
 20
-0.201000
  0
VERTEX
  8
gg1
 10
0.784000
 20
-0.191000
  0
VERTEX
  8
gg1
 10
0.794000
 20
-0.181000
  0
VERTEX
  8
gg1
 10
0.784000
 20
-0.171000
  0
VERTEX
  8
gg1
 10
0.784000
 20
-0.161000
  0
SEQEND
  8
gg1
  0
POLYLINE
  8
gg1
 62
1
 40
0.000000
 41
0.000000
 66
  1
  0
VERTEX
  8
gg1
 10
0.794000
 20
-0.181000
  0
VERTEX
  8
gg1
 10
0.814000
 20
-0.181000
  0
SEQEND
  8
gg1
  0
POLYLINE
  8
gg1
 62
1
 40
0.000000
 41
0.000000
 66
  1
  0
VERTEX
  8
gg1
 10
0.884000
 20
-0.151000
  0
VERTEX
  8
gg1
 10
0.864000
 20
-0.161000
  0
VERTEX
  8
gg1
 10
0.844000
 20
-0.181000
  0
VERTEX
  8
gg1
 10
0.844000
 20
-0.201000
  0
VERTEX
  8
gg1
 10
0.854000
 20
-0.211000
  0
VERTEX
  8
gg1
 10
0.874000
 20
-0.211000
  0
VERTEX
  8
gg1
 10
0.884000
 20
-0.201000
  0
VERTEX
  8
gg1
 10
0.884000
 20
-0.191000
  0
VERTEX
  8
gg1
 10
0.874000
 20
-0.181000
  0
VERTEX
  8
gg1
 10
0.844000
 20
-0.181000
  0
SEQEND
  8
gg1
  0
POLYLINE
  8
gg1
 62
1
 40
0.000000
 41
0.000000
 66
  1
  0
VERTEX
  8
gg1
 10
0.904000
 20
-0.161000
  0
VERTEX
  8
gg1
 10
0.914000
 20
-0.151000
  0
VERTEX
  8
gg1
 10
0.934000
 20
-0.151000
  0
VERTEX
  8
gg1
 10
0.944000
 20
-0.161000
  0
VERTEX
  8
gg1
 10
0.944000
 20
-0.201000
  0
VERTEX
  8
gg1
 10
0.934000
 20
-0.211000
  0
VERTEX
  8
gg1
 10
0.914000
 20
-0.211000
  0
VERTEX
  8
gg1
 10
0.904000
 20
-0.201000
  0
VERTEX
  8
gg1
 10
0.904000
 20
-0.161000
  0
SEQEND
  8
gg1
  0
POLYLINE
  8
gg1
 62
1
 40
0.000000
 41
0.000000
 66
  1
  0
VERTEX
  8
gg1
 10
0.964000
 20
-0.211000
  0
VERTEX
  8
gg1
 10
0.964000
 20
-0.171000
  0
VERTEX
  8
gg1
 10
0.974000
 20
-0.171000
  0
VERTEX
  8
gg1
 10
0.984000
 20
-0.181000
  0
VERTEX
  8
gg1
 10
0.984000
 20
-0.211000
  0
VERTEX
  8
gg1
 10
0.984000
 20
-0.181000
  0
VERTEX
  8
gg1
 10
0.994000
 20
-0.171000
  0
VERTEX
  8
gg1
 10
1.004000
 20
-0.181000
  0
VERTEX
  8
gg1
 10
1.004000
 20
-0.211000
  0
SEQEND
  8
gg1
  0
POLYLINE
  8
gg1
 62
1
 40
0.000000
 41
0.000000
 66
  1
  0
VERTEX
  8
gg1
 10
1.024000
 20
-0.211000
  0
VERTEX
  8
gg1
 10
1.044000
 20
-0.211000
  0
VERTEX
  8
gg1
 10
1.034000
 20
-0.211000
  0
VERTEX
  8
gg1
 10
1.034000
 20
-0.171000
  0
VERTEX
  8
gg1
 10
1.024000
 20
-0.171000
  0
SEQEND
  8
gg1
  0
POLYLINE
  8
gg1
 62
1
 40
0.000000
 41
0.000000
 66
  1
  0
VERTEX
  8
gg1
 10
1.073900
 20
-0.211000
  0
VERTEX
  8
gg1
 10
1.093900
 20
-0.211000
  0
VERTEX
  8
gg1
 10
1.083900
 20
-0.211000
  0
VERTEX
  8
gg1
 10
1.083900
 20
-0.151000
  0
VERTEX
  8
gg1
 10
1.073900
 20
-0.151000
  0
SEQEND
  8
gg1
  0
POLYLINE
  8
gg1
 62
1
 40
0.000000
 41
0.000000
 66
  1
  0
VERTEX
  8
gg1
 10
-0.164000
 20
0.734100
  0
VERTEX
  8
gg1
 10
-0.164000
 20
0.754100
  0
VERTEX
  8
gg1
 10
-0.164000
 20
0.744100
  0
VERTEX
  8
gg1
 10
-0.224000
 20
0.744100
  0
VERTEX
  8
gg1
 10
-0.214000
 20
0.734100
  0
SEQEND
  8
gg1
  0
POLYLINE
  8
gg1
 62
1
 40
0.000000
 41
0.000000
 66
  1
  0
VERTEX
  8
gg1
 10
-0.214000
 20
0.784000
  0
VERTEX
  8
gg1
 10
-0.224000
 20
0.794000
  0
VERTEX
  8
gg1
 10
-0.224000
 20
0.814000
  0
VERTEX
  8
gg1
 10
-0.214000
 20
0.824000
  0
VERTEX
  8
gg1
 10
-0.204000
 20
0.824000
  0
VERTEX
  8
gg1
 10
-0.194000
 20
0.814000
  0
VERTEX
  8
gg1
 10
-0.184000
 20
0.824000
  0
VERTEX
  8
gg1
 10
-0.174000
 20
0.824000
  0
VERTEX
  8
gg1
 10
-0.164000
 20
0.814000
  0
VERTEX
  8
gg1
 10
-0.164000
 20
0.794000
  0
VERTEX
  8
gg1
 10
-0.174000
 20
0.784000
  0
VERTEX
  8
gg1
 10
-0.184000
 20
0.784000
  0
VERTEX
  8
gg1
 10
-0.194000
 20
0.794000
  0
VERTEX
  8
gg1
 10
-0.204000
 20
0.784000
  0
VERTEX
  8
gg1
 10
-0.214000
 20
0.784000
  0
SEQEND
  8
gg1
  0
POLYLINE
  8
gg1
 62
1
 40
0.000000
 41
0.000000
 66
  1
  0
VERTEX
  8
gg1
 10
-0.194000
 20
0.794000
  0
VERTEX
  8
gg1
 10
-0.194000
 20
0.814000
  0
SEQEND
  8
gg1
  0
POLYLINE
  8
gg1
 62
1
 40
0.000000
 41
0.000000
 66
  1
  0
VERTEX
  8
gg1
 10
-0.224000
 20
0.884000
  0
VERTEX
  8
gg1
 10
-0.214000
 20
0.864000
  0
VERTEX
  8
gg1
 10
-0.194000
 20
0.844000
  0
VERTEX
  8
gg1
 10
-0.174000
 20
0.844000
  0
VERTEX
  8
gg1
 10
-0.164000
 20
0.854000
  0
VERTEX
  8
gg1
 10
-0.164000
 20
0.874000
  0
VERTEX
  8
gg1
 10
-0.174000
 20
0.884000
  0
VERTEX
  8
gg1
 10
-0.184000
 20
0.884000
  0
VERTEX
  8
gg1
 10
-0.194000
 20
0.874000
  0
VERTEX
  8
gg1
 10
-0.194000
 20
0.844000
  0
SEQEND
  8
gg1
  0
POLYLINE
  8
gg1
 62
1
 40
0.000000
 41
0.000000
 66
  1
  0
VERTEX
  8
gg1
 10
-0.214000
 20
0.904000
  0
VERTEX
  8
gg1
 10
-0.224000
 20
0.914000
  0
VERTEX
  8
gg1
 10
-0.224000
 20
0.934000
  0
VERTEX
  8
gg1
 10
-0.214000
 20
0.944000
  0
VERTEX
  8
gg1
 10
-0.174000
 20
0.944000
  0
VERTEX
  8
gg1
 10
-0.164000
 20
0.934000
  0
VERTEX
  8
gg1
 10
-0.164000
 20
0.914000
  0
VERTEX
  8
gg1
 10
-0.174000
 20
0.904000
  0
VERTEX
  8
gg1
 10
-0.214000
 20
0.904000
  0
SEQEND
  8
gg1
  0
POLYLINE
  8
gg1
 62
1
 40
0.000000
 41
0.000000
 66
  1
  0
VERTEX
  8
gg1
 10
-0.164000
 20
0.964000
  0
VERTEX
  8
gg1
 10
-0.204000
 20
0.964000
  0
VERTEX
  8
gg1
 10
-0.204000
 20
0.974000
  0
VERTEX
  8
gg1
 10
-0.194000
 20
0.984000
  0
VERTEX
  8
gg1
 10
-0.164000
 20
0.984000
  0
VERTEX
  8
gg1
 10
-0.194000
 20
0.984000
  0
VERTEX
  8
gg1
 10
-0.204000
 20
0.994000
  0
VERTEX
  8
gg1
 10
-0.194000
 20
1.004000
  0
VERTEX
  8
gg1
 10
-0.164000
 20
1.004000
  0
SEQEND
  8
gg1
  0
POLYLINE
  8
gg1
 62
1
 40
0.000000
 41
0.000000
 66
  1
  0
VERTEX
  8
gg1
 10
-0.164000
 20
1.024000
  0
VERTEX
  8
gg1
 10
-0.164000
 20
1.044000
  0
VERTEX
  8
gg1
 10
-0.164000
 20
1.034000
  0
VERTEX
  8
gg1
 10
-0.204000
 20
1.034000
  0
VERTEX
  8
gg1
 10
-0.204000
 20
1.024000
  0
SEQEND
  8
gg1
  0
POLYLINE
  8
gg1
 62
1
 40
0.000000
 41
0.000000
 66
  1
  0
VERTEX
  8
gg1
 10
-0.164000
 20
1.073900
  0
VERTEX
  8
gg1
 10
-0.164000
 20
1.093900
  0
VERTEX
  8
gg1
 10
-0.164000
 20
1.083900
  0
VERTEX
  8
gg1
 10
-0.224000
 20
1.083900
  0
VERTEX
  8
gg1
 10
-0.224000
 20
1.073900
  0
SEQEND
  8
gg1
  0
POLYLINE
  8
gg1
 62
1
 40
0.000000
 41
0.000000
 66
  1
  0
VERTEX
  8
gg1
 10
0.067500
 20
0.130000
  0
VERTEX
  8
gg1
 10
0.192500
 20
0.130000
  0
SEQEND
  8
gg1
  0
POLYLINE
  8
gg1
 62
1
 40
0.000000
 41
0.000000
 66
  1
  0
VERTEX
  8
gg1
 10
0.130000
 20
0.067500
  0
VERTEX
  8
gg1
 10
0.130000
 20
0.192500
  0
SEQEND
  8
gg1
  0
POLYLINE
  8
gg1
 62
1
 40
0.000000
 41
0.000000
 66
  1
  0
VERTEX
  8
gg1
 10
1.667500
 20
0.130000
  0
VERTEX
  8
gg1
 10
1.792500
 20
0.130000
  0
SEQEND
  8
gg1
  0
POLYLINE
  8
gg1
 62
1
 40
0.000000
 41
0.000000
 66
  1
  0
VERTEX
  8
gg1
 10
1.730000
 20
0.067500
  0
VERTEX
  8
gg1
 10
1.730000
 20
0.192500
  0
SEQEND
  8
gg1
  0
POLYLINE
  8
gg1
 62
1
 40
0.000000
 41
0.000000
 66
  1
  0
VERTEX
  8
gg1
 10
0.159000
 20
0.535000
  0
VERTEX
  8
gg1
 10
0.201000
 20
0.535000
  0
SEQEND
  8
gg1
  0
POLYLINE
  8
gg1
 62
1
 40
0.000000
 41
0.000000
 66
  1
  0
VERTEX
  8
gg1
 10
0.180000
 20
0.514000
  0
VERTEX
  8
gg1
 10
0.180000
 20
0.556000
  0
SEQEND
  8
gg1
  0
POLYLINE
  8
gg1
 62
1
 40
0.000000
 41
0.000000
 66
  1
  0
VERTEX
  8
gg1
 10
1.659000
 20
0.535000
  0
VERTEX
  8
gg1
 10
1.701000
 20
0.535000
  0
SEQEND
  8
gg1
  0
POLYLINE
  8
gg1
 62
1
 40
0.000000
 41
0.000000
 66
  1
  0
VERTEX
  8
gg1
 10
1.680000
 20
0.514000
  0
VERTEX
  8
gg1
 10
1.680000
 20
0.556000
  0
SEQEND
  8
gg1
  0
POLYLINE
  8
gg1
 62
1
 40
0.000000
 41
0.000000
 66
  1
  0
VERTEX
  8
gg1
 10
1.009000
 20
1.344000
  0
VERTEX
  8
gg1
 10
1.051000
 20
1.344000
  0
SEQEND
  8
gg1
  0
POLYLINE
  8
gg1
 62
1
 40
0.000000
 41
0.000000
 66
  1
  0
VERTEX
  8
gg1
 10
1.030000
 20
1.323000
  0
VERTEX
  8
gg1
 10
1.030000
 20
1.365000
  0
SEQEND
  8
gg1
  0
POLYLINE
  8
gg1
 62
1
 40
0.000000
 41
0.000000
 66
  1
  0
VERTEX
  8
gg1
 10
0.809000
 20
1.344000
  0
VERTEX
  8
gg1
 10
0.851000
 20
1.344000
  0
SEQEND
  8
gg1
  0
POLYLINE
  8
gg1
 62
1
 40
0.000000
 41
0.000000
 66
  1
  0
VERTEX
  8
gg1
 10
0.830000
 20
1.323000
  0
VERTEX
  8
gg1
 10
0.830000
 20
1.365000
  0
SEQEND
  8
gg1
  0
POLYLINE
  8
gg1
 62
1
 40
0.000000
 41
0.000000
 66
  1
  0
VERTEX
  8
gg1
 10
0.809000
 20
0.919000
  0
VERTEX
  8
gg1
 10
0.851000
 20
0.919000
  0
SEQEND
  8
gg1
  0
POLYLINE
  8
gg1
 62
1
 40
0.000000
 41
0.000000
 66
  1
  0
VERTEX
  8
gg1
 10
0.830000
 20
0.898000
  0
VERTEX
  8
gg1
 10
0.830000
 20
0.940000
  0
SEQEND
  8
gg1
  0
POLYLINE
  8
gg1
 62
1
 40
0.000000
 41
0.000000
 66
  1
  0
VERTEX
  8
gg1
 10
1.009000
 20
0.919000
  0
VERTEX
  8
gg1
 10
1.051000
 20
0.919000
  0
SEQEND
  8
gg1
  0
POLYLINE
  8
gg1
 62
1
 40
0.000000
 41
0.000000
 66
  1
  0
VERTEX
  8
gg1
 10
1.030000
 20
0.898000
  0
VERTEX
  8
gg1
 10
1.030000
 20
0.940000
  0
SEQEND
  8
gg1
  0
POLYLINE
  8
gg1
 62
1
 40
0.000000
 41
0.000000
 66
  1
  0
VERTEX
  8
gg1
 10
1.609000
 20
1.782500
  0
VERTEX
  8
gg1
 10
1.651000
 20
1.782500
  0
SEQEND
  8
gg1
  0
POLYLINE
  8
gg1
 62
1
 40
0.000000
 41
0.000000
 66
  1
  0
VERTEX
  8
gg1
 10
1.630000
 20
1.761500
  0
VERTEX
  8
gg1
 10
1.630000
 20
1.803500
  0
SEQEND
  8
gg1
  0
POLYLINE
  8
gg1
 62
1
 40
0.000000
 41
0.000000
 66
  1
  0
VERTEX
  8
gg1
 10
1.509000
 20
1.782500
  0
VERTEX
  8
gg1
 10
1.551000
 20
1.782500
  0
SEQEND
  8
gg1
  0
POLYLINE
  8
gg1
 62
1
 40
0.000000
 41
0.000000
 66
  1
  0
VERTEX
  8
gg1
 10
1.530000
 20
1.761500
  0
VERTEX
  8
gg1
 10
1.530000
 20
1.803500
  0
SEQEND
  8
gg1
  0
POLYLINE
  8
gg1
 62
1
 40
0.000000
 41
0.000000
 66
  1
  0
VERTEX
  8
gg1
 10
1.409000
 20
1.782500
  0
VERTEX
  8
gg1
 10
1.451000
 20
1.782500
  0
SEQEND
  8
gg1
  0
POLYLINE
  8
gg1
 62
1
 40
0.000000
 41
0.000000
 66
  1
  0
VERTEX
  8
gg1
 10
1.430000
 20
1.761500
  0
VERTEX
  8
gg1
 10
1.430000
 20
1.803500
  0
SEQEND
  8
gg1
  0
POLYLINE
  8
gg1
 62
1
 40
0.000000
 41
0.000000
 66
  1
  0
VERTEX
  8
gg1
 10
1.309000
 20
1.782500
  0
VERTEX
  8
gg1
 10
1.351000
 20
1.782500
  0
SEQEND
  8
gg1
  0
POLYLINE
  8
gg1
 62
1
 40
0.000000
 41
0.000000
 66
  1
  0
VERTEX
  8
gg1
 10
1.330000
 20
1.761500
  0
VERTEX
  8
gg1
 10
1.330000
 20
1.803500
  0
SEQEND
  8
gg1
  0
POLYLINE
  8
gg1
 62
1
 40
0.000000
 41
0.000000
 66
  1
  0
VERTEX
  8
gg1
 10
1.209000
 20
1.782500
  0
VERTEX
  8
gg1
 10
1.251000
 20
1.782500
  0
SEQEND
  8
gg1
  0
POLYLINE
  8
gg1
 62
1
 40
0.000000
 41
0.000000
 66
  1
  0
VERTEX
  8
gg1
 10
1.230000
 20
1.761500
  0
VERTEX
  8
gg1
 10
1.230000
 20
1.803500
  0
SEQEND
  8
gg1
  0
POLYLINE
  8
gg1
 62
1
 40
0.000000
 41
0.000000
 66
  1
  0
VERTEX
  8
gg1
 10
1.109000
 20
1.782500
  0
VERTEX
  8
gg1
 10
1.151000
 20
1.782500
  0
SEQEND
  8
gg1
  0
POLYLINE
  8
gg1
 62
1
 40
0.000000
 41
0.000000
 66
  1
  0
VERTEX
  8
gg1
 10
1.130000
 20
1.761500
  0
VERTEX
  8
gg1
 10
1.130000
 20
1.803500
  0
SEQEND
  8
gg1
  0
POLYLINE
  8
gg1
 62
1
 40
0.000000
 41
0.000000
 66
  1
  0
VERTEX
  8
gg1
 10
1.009000
 20
1.782500
  0
VERTEX
  8
gg1
 10
1.051000
 20
1.782500
  0
SEQEND
  8
gg1
  0
POLYLINE
  8
gg1
 62
1
 40
0.000000
 41
0.000000
 66
  1
  0
VERTEX
  8
gg1
 10
1.030000
 20
1.761500
  0
VERTEX
  8
gg1
 10
1.030000
 20
1.803500
  0
SEQEND
  8
gg1
  0
POLYLINE
  8
gg1
 62
1
 40
0.000000
 41
0.000000
 66
  1
  0
VERTEX
  8
gg1
 10
0.909000
 20
1.782500
  0
VERTEX
  8
gg1
 10
0.951000
 20
1.782500
  0
SEQEND
  8
gg1
  0
POLYLINE
  8
gg1
 62
1
 40
0.000000
 41
0.000000
 66
  1
  0
VERTEX
  8
gg1
 10
0.930000
 20
1.761500
  0
VERTEX
  8
gg1
 10
0.930000
 20
1.803500
  0
SEQEND
  8
gg1
  0
POLYLINE
  8
gg1
 62
1
 40
0.000000
 41
0.000000
 66
  1
  0
VERTEX
  8
gg1
 10
0.809000
 20
1.782500
  0
VERTEX
  8
gg1
 10
0.851000
 20
1.782500
  0
SEQEND
  8
gg1
  0
POLYLINE
  8
gg1
 62
1
 40
0.000000
 41
0.000000
 66
  1
  0
VERTEX
  8
gg1
 10
0.830000
 20
1.761500
  0
VERTEX
  8
gg1
 10
0.830000
 20
1.803500
  0
SEQEND
  8
gg1
  0
POLYLINE
  8
gg1
 62
1
 40
0.000000
 41
0.000000
 66
  1
  0
VERTEX
  8
gg1
 10
0.709000
 20
1.782500
  0
VERTEX
  8
gg1
 10
0.751000
 20
1.782500
  0
SEQEND
  8
gg1
  0
POLYLINE
  8
gg1
 62
1
 40
0.000000
 41
0.000000
 66
  1
  0
VERTEX
  8
gg1
 10
0.730000
 20
1.761500
  0
VERTEX
  8
gg1
 10
0.730000
 20
1.803500
  0
SEQEND
  8
gg1
  0
POLYLINE
  8
gg1
 62
1
 40
0.000000
 41
0.000000
 66
  1
  0
VERTEX
  8
gg1
 10
0.209000
 20
1.782500
  0
VERTEX
  8
gg1
 10
0.251000
 20
1.782500
  0
SEQEND
  8
gg1
  0
POLYLINE
  8
gg1
 62
1
 40
0.000000
 41
0.000000
 66
  1
  0
VERTEX
  8
gg1
 10
0.230000
 20
1.761500
  0
VERTEX
  8
gg1
 10
0.230000
 20
1.803500
  0
SEQEND
  8
gg1
  0
POLYLINE
  8
gg1
 62
1
 40
0.000000
 41
0.000000
 66
  1
  0
VERTEX
  8
gg1
 10
0.309000
 20
1.782500
  0
VERTEX
  8
gg1
 10
0.351000
 20
1.782500
  0
SEQEND
  8
gg1
  0
POLYLINE
  8
gg1
 62
1
 40
0.000000
 41
0.000000
 66
  1
  0
VERTEX
  8
gg1
 10
0.330000
 20
1.761500
  0
VERTEX
  8
gg1
 10
0.330000
 20
1.803500
  0
SEQEND
  8
gg1
  0
POLYLINE
  8
gg1
 62
1
 40
0.000000
 41
0.000000
 66
  1
  0
VERTEX
  8
gg1
 10
0.409000
 20
1.782500
  0
VERTEX
  8
gg1
 10
0.451000
 20
1.782500
  0
SEQEND
  8
gg1
  0
POLYLINE
  8
gg1
 62
1
 40
0.000000
 41
0.000000
 66
  1
  0
VERTEX
  8
gg1
 10
0.430000
 20
1.761500
  0
VERTEX
  8
gg1
 10
0.430000
 20
1.803500
  0
SEQEND
  8
gg1
  0
POLYLINE
  8
gg1
 62
1
 40
0.000000
 41
0.000000
 66
  1
  0
VERTEX
  8
gg1
 10
0.509000
 20
1.782500
  0
VERTEX
  8
gg1
 10
0.551000
 20
1.782500
  0
SEQEND
  8
gg1
  0
POLYLINE
  8
gg1
 62
1
 40
0.000000
 41
0.000000
 66
  1
  0
VERTEX
  8
gg1
 10
0.530000
 20
1.761500
  0
VERTEX
  8
gg1
 10
0.530000
 20
1.803500
  0
SEQEND
  8
gg1
  0
POLYLINE
  8
gg1
 62
1
 40
0.000000
 41
0.000000
 66
  1
  0
VERTEX
  8
gg1
 10
0.609000
 20
1.782500
  0
VERTEX
  8
gg1
 10
0.651000
 20
1.782500
  0
SEQEND
  8
gg1
  0
POLYLINE
  8
gg1
 62
1
 40
0.000000
 41
0.000000
 66
  1
  0
VERTEX
  8
gg1
 10
0.630000
 20
1.761500
  0
VERTEX
  8
gg1
 10
0.630000
 20
1.803500
  0
SEQEND
  8
gg1
  0
POLYLINE
  8
gg1
 62
1
 40
0.000000
 41
0.000000
 66
  1
  0
VERTEX
  8
gg1
 10
1.269300
 20
1.680000
  0
VERTEX
  8
gg1
 10
1.299300
 20
1.680000
  0
SEQEND
  8
gg1
  0
POLYLINE
  8
gg1
 62
1
 40
0.000000
 41
0.000000
 66
  1
  0
VERTEX
  8
gg1
 10
1.284300
 20
1.665000
  0
VERTEX
  8
gg1
 10
1.284300
 20
1.695000
  0
SEQEND
  8
gg1
  0
POLYLINE
  8
gg1
 62
1
 40
0.000000
 41
0.000000
 66
  1
  0
VERTEX
  8
gg1
 10
1.190600
 20
1.680000
  0
VERTEX
  8
gg1
 10
1.220600
 20
1.680000
  0
SEQEND
  8
gg1
  0
POLYLINE
  8
gg1
 62
1
 40
0.000000
 41
0.000000
 66
  1
  0
VERTEX
  8
gg1
 10
1.205600
 20
1.665000
  0
VERTEX
  8
gg1
 10
1.205600
 20
1.695000
  0
SEQEND
  8
gg1
  0
POLYLINE
  8
gg1
 62
1
 40
0.000000
 41
0.000000
 66
  1
  0
VERTEX
  8
gg1
 10
1.111900
 20
1.680000
  0
VERTEX
  8
gg1
 10
1.141900
 20
1.680000
  0
SEQEND
  8
gg1
  0
POLYLINE
  8
gg1
 62
1
 40
0.000000
 41
0.000000
 66
  1
  0
VERTEX
  8
gg1
 10
1.126900
 20
1.665000
  0
VERTEX
  8
gg1
 10
1.126900
 20
1.695000
  0
SEQEND
  8
gg1
  0
POLYLINE
  8
gg1
 62
1
 40
0.000000
 41
0.000000
 66
  1
  0
VERTEX
  8
gg1
 10
1.033100
 20
1.680000
  0
VERTEX
  8
gg1
 10
1.063100
 20
1.680000
  0
SEQEND
  8
gg1
  0
POLYLINE
  8
gg1
 62
1
 40
0.000000
 41
0.000000
 66
  1
  0
VERTEX
  8
gg1
 10
1.048100
 20
1.665000
  0
VERTEX
  8
gg1
 10
1.048100
 20
1.695000
  0
SEQEND
  8
gg1
  0
POLYLINE
  8
gg1
 62
1
 40
0.000000
 41
0.000000
 66
  1
  0
VERTEX
  8
gg1
 10
0.954400
 20
1.680000
  0
VERTEX
  8
gg1
 10
0.984400
 20
1.680000
  0
SEQEND
  8
gg1
  0
POLYLINE
  8
gg1
 62
1
 40
0.000000
 41
0.000000
 66
  1
  0
VERTEX
  8
gg1
 10
0.969400
 20
1.665000
  0
VERTEX
  8
gg1
 10
0.969400
 20
1.695000
  0
SEQEND
  8
gg1
  0
POLYLINE
  8
gg1
 62
1
 40
0.000000
 41
0.000000
 66
  1
  0
VERTEX
  8
gg1
 10
1.269300
 20
1.601300
  0
VERTEX
  8
gg1
 10
1.299300
 20
1.601300
  0
SEQEND
  8
gg1
  0
POLYLINE
  8
gg1
 62
1
 40
0.000000
 41
0.000000
 66
  1
  0
VERTEX
  8
gg1
 10
1.284300
 20
1.586300
  0
VERTEX
  8
gg1
 10
1.284300
 20
1.616300
  0
SEQEND
  8
gg1
  0
POLYLINE
  8
gg1
 62
1
 40
0.000000
 41
0.000000
 66
  1
  0
VERTEX
  8
gg1
 10
1.190600
 20
1.601300
  0
VERTEX
  8
gg1
 10
1.220600
 20
1.601300
  0
SEQEND
  8
gg1
  0
POLYLINE
  8
gg1
 62
1
 40
0.000000
 41
0.000000
 66
  1
  0
VERTEX
  8
gg1
 10
1.205600
 20
1.586300
  0
VERTEX
  8
gg1
 10
1.205600
 20
1.616300
  0
SEQEND
  8
gg1
  0
POLYLINE
  8
gg1
 62
1
 40
0.000000
 41
0.000000
 66
  1
  0
VERTEX
  8
gg1
 10
1.111900
 20
1.601300
  0
VERTEX
  8
gg1
 10
1.141900
 20
1.601300
  0
SEQEND
  8
gg1
  0
POLYLINE
  8
gg1
 62
1
 40
0.000000
 41
0.000000
 66
  1
  0
VERTEX
  8
gg1
 10
1.126900
 20
1.586300
  0
VERTEX
  8
gg1
 10
1.126900
 20
1.616300
  0
SEQEND
  8
gg1
  0
POLYLINE
  8
gg1
 62
1
 40
0.000000
 41
0.000000
 66
  1
  0
VERTEX
  8
gg1
 10
1.033100
 20
1.601300
  0
VERTEX
  8
gg1
 10
1.063100
 20
1.601300
  0
SEQEND
  8
gg1
  0
POLYLINE
  8
gg1
 62
1
 40
0.000000
 41
0.000000
 66
  1
  0
VERTEX
  8
gg1
 10
1.048100
 20
1.586300
  0
VERTEX
  8
gg1
 10
1.048100
 20
1.616300
  0
SEQEND
  8
gg1
  0
POLYLINE
  8
gg1
 62
1
 40
0.000000
 41
0.000000
 66
  1
  0
VERTEX
  8
gg1
 10
0.954400
 20
1.601300
  0
VERTEX
  8
gg1
 10
0.984400
 20
1.601300
  0
SEQEND
  8
gg1
  0
POLYLINE
  8
gg1
 62
1
 40
0.000000
 41
0.000000
 66
  1
  0
VERTEX
  8
gg1
 10
0.969400
 20
1.586300
  0
VERTEX
  8
gg1
 10
0.969400
 20
1.616300
  0
SEQEND
  8
gg1
  0
POLYLINE
  8
gg1
 62
1
 40
0.000000
 41
0.000000
 66
  1
  0
VERTEX
  8
gg1
 10
0.560700
 20
1.601300
  0
VERTEX
  8
gg1
 10
0.590700
 20
1.601300
  0
SEQEND
  8
gg1
  0
POLYLINE
  8
gg1
 62
1
 40
0.000000
 41
0.000000
 66
  1
  0
VERTEX
  8
gg1
 10
0.575700
 20
1.586300
  0
VERTEX
  8
gg1
 10
0.575700
 20
1.616300
  0
SEQEND
  8
gg1
  0
POLYLINE
  8
gg1
 62
1
 40
0.000000
 41
0.000000
 66
  1
  0
VERTEX
  8
gg1
 10
0.639400
 20
1.601300
  0
VERTEX
  8
gg1
 10
0.669400
 20
1.601300
  0
SEQEND
  8
gg1
  0
POLYLINE
  8
gg1
 62
1
 40
0.000000
 41
0.000000
 66
  1
  0
VERTEX
  8
gg1
 10
0.654400
 20
1.586300
  0
VERTEX
  8
gg1
 10
0.654400
 20
1.616300
  0
SEQEND
  8
gg1
  0
POLYLINE
  8
gg1
 62
1
 40
0.000000
 41
0.000000
 66
  1
  0
VERTEX
  8
gg1
 10
0.718200
 20
1.601300
  0
VERTEX
  8
gg1
 10
0.748100
 20
1.601300
  0
SEQEND
  8
gg1
  0
POLYLINE
  8
gg1
 62
1
 40
0.000000
 41
0.000000
 66
  1
  0
VERTEX
  8
gg1
 10
0.733200
 20
1.586300
  0
VERTEX
  8
gg1
 10
0.733200
 20
1.616300
  0
SEQEND
  8
gg1
  0
POLYLINE
  8
gg1
 62
1
 40
0.000000
 41
0.000000
 66
  1
  0
VERTEX
  8
gg1
 10
0.796900
 20
1.601300
  0
VERTEX
  8
gg1
 10
0.826900
 20
1.601300
  0
SEQEND
  8
gg1
  0
POLYLINE
  8
gg1
 62
1
 40
0.000000
 41
0.000000
 66
  1
  0
VERTEX
  8
gg1
 10
0.811900
 20
1.586300
  0
VERTEX
  8
gg1
 10
0.811900
 20
1.616300
  0
SEQEND
  8
gg1
  0
POLYLINE
  8
gg1
 62
1
 40
0.000000
 41
0.000000
 66
  1
  0
VERTEX
  8
gg1
 10
0.875600
 20
1.601300
  0
VERTEX
  8
gg1
 10
0.905600
 20
1.601300
  0
SEQEND
  8
gg1
  0
POLYLINE
  8
gg1
 62
1
 40
0.000000
 41
0.000000
 66
  1
  0
VERTEX
  8
gg1
 10
0.890600
 20
1.586300
  0
VERTEX
  8
gg1
 10
0.890600
 20
1.616300
  0
SEQEND
  8
gg1
  0
POLYLINE
  8
gg1
 62
1
 40
0.000000
 41
0.000000
 66
  1
  0
VERTEX
  8
gg1
 10
0.560700
 20
1.680000
  0
VERTEX
  8
gg1
 10
0.590700
 20
1.680000
  0
SEQEND
  8
gg1
  0
POLYLINE
  8
gg1
 62
1
 40
0.000000
 41
0.000000
 66
  1
  0
VERTEX
  8
gg1
 10
0.575700
 20
1.665000
  0
VERTEX
  8
gg1
 10
0.575700
 20
1.695000
  0
SEQEND
  8
gg1
  0
POLYLINE
  8
gg1
 62
1
 40
0.000000
 41
0.000000
 66
  1
  0
VERTEX
  8
gg1
 10
0.639400
 20
1.680000
  0
VERTEX
  8
gg1
 10
0.669400
 20
1.680000
  0
SEQEND
  8
gg1
  0
POLYLINE
  8
gg1
 62
1
 40
0.000000
 41
0.000000
 66
  1
  0
VERTEX
  8
gg1
 10
0.654400
 20
1.665000
  0
VERTEX
  8
gg1
 10
0.654400
 20
1.695000
  0
SEQEND
  8
gg1
  0
POLYLINE
  8
gg1
 62
1
 40
0.000000
 41
0.000000
 66
  1
  0
VERTEX
  8
gg1
 10
0.718200
 20
1.680000
  0
VERTEX
  8
gg1
 10
0.748100
 20
1.680000
  0
SEQEND
  8
gg1
  0
POLYLINE
  8
gg1
 62
1
 40
0.000000
 41
0.000000
 66
  1
  0
VERTEX
  8
gg1
 10
0.733200
 20
1.665000
  0
VERTEX
  8
gg1
 10
0.733200
 20
1.695000
  0
SEQEND
  8
gg1
  0
POLYLINE
  8
gg1
 62
1
 40
0.000000
 41
0.000000
 66
  1
  0
VERTEX
  8
gg1
 10
0.796900
 20
1.680000
  0
VERTEX
  8
gg1
 10
0.826900
 20
1.680000
  0
SEQEND
  8
gg1
  0
POLYLINE
  8
gg1
 62
1
 40
0.000000
 41
0.000000
 66
  1
  0
VERTEX
  8
gg1
 10
0.811900
 20
1.665000
  0
VERTEX
  8
gg1
 10
0.811900
 20
1.695000
  0
SEQEND
  8
gg1
  0
POLYLINE
  8
gg1
 62
1
 40
0.000000
 41
0.000000
 66
  1
  0
VERTEX
  8
gg1
 10
0.875600
 20
1.680000
  0
VERTEX
  8
gg1
 10
0.905600
 20
1.680000
  0
SEQEND
  8
gg1
  0
POLYLINE
  8
gg1
 62
1
 40
0.000000
 41
0.000000
 66
  1
  0
VERTEX
  8
gg1
 10
0.890600
 20
1.665000
  0
VERTEX
  8
gg1
 10
0.890600
 20
1.695000
  0
SEQEND
  8
gg1
  0
POLYLINE
  8
gg1
 62
1
 40
0.000000
 41
0.000000
 66
  1
  0
VERTEX
  8
gg1
 10
1.187000
 20
0.160000
  0
VERTEX
  8
gg1
 10
1.273000
 20
0.160000
  0
SEQEND
  8
gg1
  0
POLYLINE
  8
gg1
 62
1
 40
0.000000
 41
0.000000
 66
  1
  0
VERTEX
  8
gg1
 10
1.230000
 20
0.117000
  0
VERTEX
  8
gg1
 10
1.230000
 20
0.203000
  0
SEQEND
  8
gg1
  0
POLYLINE
  8
gg1
 62
1
 40
0.000000
 41
0.000000
 66
  1
  0
VERTEX
  8
gg1
 10
1.387000
 20
0.160000
  0
VERTEX
  8
gg1
 10
1.473000
 20
0.160000
  0
SEQEND
  8
gg1
  0
POLYLINE
  8
gg1
 62
1
 40
0.000000
 41
0.000000
 66
  1
  0
VERTEX
  8
gg1
 10
1.430000
 20
0.117000
  0
VERTEX
  8
gg1
 10
1.430000
 20
0.203000
  0
SEQEND
  8
gg1
  0
POLYLINE
  8
gg1
 62
1
 40
0.000000
 41
0.000000
 66
  1
  0
VERTEX
  8
gg1
 10
0.387000
 20
0.160000
  0
VERTEX
  8
gg1
 10
0.473000
 20
0.160000
  0
SEQEND
  8
gg1
  0
POLYLINE
  8
gg1
 62
1
 40
0.000000
 41
0.000000
 66
  1
  0
VERTEX
  8
gg1
 10
0.430000
 20
0.117000
  0
VERTEX
  8
gg1
 10
0.430000
 20
0.203000
  0
SEQEND
  8
gg1
  0
POLYLINE
  8
gg1
 62
1
 40
0.000000
 41
0.000000
 66
  1
  0
VERTEX
  8
gg1
 10
0.587000
 20
0.160000
  0
VERTEX
  8
gg1
 10
0.673000
 20
0.160000
  0
SEQEND
  8
gg1
  0
POLYLINE
  8
gg1
 62
1
 40
0.000000
 41
0.000000
 66
  1
  0
VERTEX
  8
gg1
 10
0.630000
 20
0.117000
  0
VERTEX
  8
gg1
 10
0.630000
 20
0.203000
  0
SEQEND
  8
gg1
  0
POLYLINE
  8
gg1
 62
1
 40
0.000000
 41
0.000000
 66
  1
  0
VERTEX
  8
gg1
 10
0.787000
 20
0.160000
  0
VERTEX
  8
gg1
 10
0.873000
 20
0.160000
  0
SEQEND
  8
gg1
  0
POLYLINE
  8
gg1
 62
1
 40
0.000000
 41
0.000000
 66
  1
  0
VERTEX
  8
gg1
 10
0.830000
 20
0.117000
  0
VERTEX
  8
gg1
 10
0.830000
 20
0.203000
  0
SEQEND
  8
gg1
  0
POLYLINE
  8
gg1
 62
1
 40
0.000000
 41
0.000000
 66
  1
  0
VERTEX
  8
gg1
 10
0.987000
 20
0.160000
  0
VERTEX
  8
gg1
 10
1.073000
 20
0.160000
  0
SEQEND
  8
gg1
  0
POLYLINE
  8
gg1
 62
1
 40
0.000000
 41
0.000000
 66
  1
  0
VERTEX
  8
gg1
 10
1.030000
 20
0.117000
  0
VERTEX
  8
gg1
 10
1.030000
 20
0.203000
  0
SEQEND
  8
gg1
  0
POLYLINE
  8
gg1
 62
1
 40
0.000000
 41
0.000000
 66
  1
  0
VERTEX
  8
gg1
 10
1.090000
 20
0.640000
  0
VERTEX
  8
gg1
 10
1.110000
 20
0.640000
  0
SEQEND
  8
gg1
  0
POLYLINE
  8
gg1
 62
1
 40
0.000000
 41
0.000000
 66
  1
  0
VERTEX
  8
gg1
 10
1.100000
 20
0.630000
  0
VERTEX
  8
gg1
 10
1.100000
 20
0.650000
  0
SEQEND
  8
gg1
  0
POLYLINE
  8
gg1
 62
1
 40
0.000000
 41
0.000000
 66
  1
  0
VERTEX
  8
gg1
 10
1.138000
 20
1.546000
  0
VERTEX
  8
gg1
 10
1.158000
 20
1.546000
  0
SEQEND
  8
gg1
  0
POLYLINE
  8
gg1
 62
1
 40
0.000000
 41
0.000000
 66
  1
  0
VERTEX
  8
gg1
 10
1.148000
 20
1.536000
  0
VERTEX
  8
gg1
 10
1.148000
 20
1.556000
  0
SEQEND
  8
gg1
  0
POLYLINE
  8
gg1
 62
1
 40
0.000000
 41
0.000000
 66
  1
  0
VERTEX
  8
gg1
 10
1.695000
 20
1.736000
  0
VERTEX
  8
gg1
 10
1.715000
 20
1.736000
  0
SEQEND
  8
gg1
  0
POLYLINE
  8
gg1
 62
1
 40
0.000000
 41
0.000000
 66
  1
  0
VERTEX
  8
gg1
 10
1.705000
 20
1.726000
  0
VERTEX
  8
gg1
 10
1.705000
 20
1.746000
  0
SEQEND
  8
gg1
  0
POLYLINE
  8
gg1
 62
1
 40
0.000000
 41
0.000000
 66
  1
  0
VERTEX
  8
gg1
 10
0.820000
 20
0.400000
  0
VERTEX
  8
gg1
 10
0.840000
 20
0.400000
  0
SEQEND
  8
gg1
  0
POLYLINE
  8
gg1
 62
1
 40
0.000000
 41
0.000000
 66
  1
  0
VERTEX
  8
gg1
 10
0.830000
 20
0.390000
  0
VERTEX
  8
gg1
 10
0.830000
 20
0.410000
  0
SEQEND
  8
gg1
  0
POLYLINE
  8
gg1
 62
1
 40
0.000000
 41
0.000000
 66
  1
  0
VERTEX
  8
gg1
 10
0.820000
 20
0.475000
  0
VERTEX
  8
gg1
 10
0.840000
 20
0.475000
  0
SEQEND
  8
gg1
  0
POLYLINE
  8
gg1
 62
1
 40
0.000000
 41
0.000000
 66
  1
  0
VERTEX
  8
gg1
 10
0.830000
 20
0.465000
  0
VERTEX
  8
gg1
 10
0.830000
 20
0.485000
  0
SEQEND
  8
gg1
  0
POLYLINE
  8
gg1
 62
1
 40
0.000000
 41
0.000000
 66
  1
  0
VERTEX
  8
gg1
 10
0.820000
 20
0.550000
  0
VERTEX
  8
gg1
 10
0.840000
 20
0.550000
  0
SEQEND
  8
gg1
  0
POLYLINE
  8
gg1
 62
1
 40
0.000000
 41
0.000000
 66
  1
  0
VERTEX
  8
gg1
 10
0.830000
 20
0.540000
  0
VERTEX
  8
gg1
 10
0.830000
 20
0.560000
  0
SEQEND
  8
gg1
  0
POLYLINE
  8
gg1
 62
1
 40
0.000000
 41
0.000000
 66
  1
  0
VERTEX
  8
gg1
 10
1.665000
 20
1.325000
  0
VERTEX
  8
gg1
 10
1.685000
 20
1.325000
  0
SEQEND
  8
gg1
  0
POLYLINE
  8
gg1
 62
1
 40
0.000000
 41
0.000000
 66
  1
  0
VERTEX
  8
gg1
 10
1.675000
 20
1.315000
  0
VERTEX
  8
gg1
 10
1.675000
 20
1.335000
  0
SEQEND
  8
gg1
  0
POLYLINE
  8
gg1
 62
1
 40
0.000000
 41
0.000000
 66
  1
  0
VERTEX
  8
gg1
 10
1.615000
 20
1.325000
  0
VERTEX
  8
gg1
 10
1.635000
 20
1.325000
  0
SEQEND
  8
gg1
  0
POLYLINE
  8
gg1
 62
1
 40
0.000000
 41
0.000000
 66
  1
  0
VERTEX
  8
gg1
 10
1.625000
 20
1.315000
  0
VERTEX
  8
gg1
 10
1.625000
 20
1.335000
  0
SEQEND
  8
gg1
  0
POLYLINE
  8
gg1
 62
1
 40
0.000000
 41
0.000000
 66
  1
  0
VERTEX
  8
gg1
 10
1.565000
 20
1.325000
  0
VERTEX
  8
gg1
 10
1.585000
 20
1.325000
  0
SEQEND
  8
gg1
  0
POLYLINE
  8
gg1
 62
1
 40
0.000000
 41
0.000000
 66
  1
  0
VERTEX
  8
gg1
 10
1.575000
 20
1.315000
  0
VERTEX
  8
gg1
 10
1.575000
 20
1.335000
  0
SEQEND
  8
gg1
  0
POLYLINE
  8
gg1
 62
1
 40
0.000000
 41
0.000000
 66
  1
  0
VERTEX
  8
gg1
 10
1.515000
 20
1.325000
  0
VERTEX
  8
gg1
 10
1.535000
 20
1.325000
  0
SEQEND
  8
gg1
  0
POLYLINE
  8
gg1
 62
1
 40
0.000000
 41
0.000000
 66
  1
  0
VERTEX
  8
gg1
 10
1.525000
 20
1.315000
  0
VERTEX
  8
gg1
 10
1.525000
 20
1.335000
  0
SEQEND
  8
gg1
  0
POLYLINE
  8
gg1
 62
1
 40
0.000000
 41
0.000000
 66
  1
  0
VERTEX
  8
gg1
 10
1.465000
 20
1.325000
  0
VERTEX
  8
gg1
 10
1.485000
 20
1.325000
  0
SEQEND
  8
gg1
  0
POLYLINE
  8
gg1
 62
1
 40
0.000000
 41
0.000000
 66
  1
  0
VERTEX
  8
gg1
 10
1.475000
 20
1.315000
  0
VERTEX
  8
gg1
 10
1.475000
 20
1.335000
  0
SEQEND
  8
gg1
  0
POLYLINE
  8
gg1
 62
1
 40
0.000000
 41
0.000000
 66
  1
  0
VERTEX
  8
gg1
 10
1.415000
 20
1.325000
  0
VERTEX
  8
gg1
 10
1.435000
 20
1.325000
  0
SEQEND
  8
gg1
  0
POLYLINE
  8
gg1
 62
1
 40
0.000000
 41
0.000000
 66
  1
  0
VERTEX
  8
gg1
 10
1.425000
 20
1.315000
  0
VERTEX
  8
gg1
 10
1.425000
 20
1.335000
  0
SEQEND
  8
gg1
  0
POLYLINE
  8
gg1
 62
1
 40
0.000000
 41
0.000000
 66
  1
  0
VERTEX
  8
gg1
 10
1.365000
 20
1.325000
  0
VERTEX
  8
gg1
 10
1.385000
 20
1.325000
  0
SEQEND
  8
gg1
  0
POLYLINE
  8
gg1
 62
1
 40
0.000000
 41
0.000000
 66
  1
  0
VERTEX
  8
gg1
 10
1.375000
 20
1.315000
  0
VERTEX
  8
gg1
 10
1.375000
 20
1.335000
  0
SEQEND
  8
gg1
  0
POLYLINE
  8
gg1
 62
1
 40
0.000000
 41
0.000000
 66
  1
  0
VERTEX
  8
gg1
 10
1.315000
 20
1.325000
  0
VERTEX
  8
gg1
 10
1.335000
 20
1.325000
  0
SEQEND
  8
gg1
  0
POLYLINE
  8
gg1
 62
1
 40
0.000000
 41
0.000000
 66
  1
  0
VERTEX
  8
gg1
 10
1.325000
 20
1.315000
  0
VERTEX
  8
gg1
 10
1.325000
 20
1.335000
  0
SEQEND
  8
gg1
  0
POLYLINE
  8
gg1
 62
1
 40
0.000000
 41
0.000000
 66
  1
  0
VERTEX
  8
gg1
 10
1.315000
 20
1.275000
  0
VERTEX
  8
gg1
 10
1.335000
 20
1.275000
  0
SEQEND
  8
gg1
  0
POLYLINE
  8
gg1
 62
1
 40
0.000000
 41
0.000000
 66
  1
  0
VERTEX
  8
gg1
 10
1.325000
 20
1.265000
  0
VERTEX
  8
gg1
 10
1.325000
 20
1.285000
  0
SEQEND
  8
gg1
  0
POLYLINE
  8
gg1
 62
1
 40
0.000000
 41
0.000000
 66
  1
  0
VERTEX
  8
gg1
 10
1.365000
 20
1.275000
  0
VERTEX
  8
gg1
 10
1.385000
 20
1.275000
  0
SEQEND
  8
gg1
  0
POLYLINE
  8
gg1
 62
1
 40
0.000000
 41
0.000000
 66
  1
  0
VERTEX
  8
gg1
 10
1.375000
 20
1.265000
  0
VERTEX
  8
gg1
 10
1.375000
 20
1.285000
  0
SEQEND
  8
gg1
  0
POLYLINE
  8
gg1
 62
1
 40
0.000000
 41
0.000000
 66
  1
  0
VERTEX
  8
gg1
 10
1.415000
 20
1.275000
  0
VERTEX
  8
gg1
 10
1.435000
 20
1.275000
  0
SEQEND
  8
gg1
  0
POLYLINE
  8
gg1
 62
1
 40
0.000000
 41
0.000000
 66
  1
  0
VERTEX
  8
gg1
 10
1.425000
 20
1.265000
  0
VERTEX
  8
gg1
 10
1.425000
 20
1.285000
  0
SEQEND
  8
gg1
  0
POLYLINE
  8
gg1
 62
1
 40
0.000000
 41
0.000000
 66
  1
  0
VERTEX
  8
gg1
 10
1.465000
 20
1.275000
  0
VERTEX
  8
gg1
 10
1.485000
 20
1.275000
  0
SEQEND
  8
gg1
  0
POLYLINE
  8
gg1
 62
1
 40
0.000000
 41
0.000000
 66
  1
  0
VERTEX
  8
gg1
 10
1.475000
 20
1.265000
  0
VERTEX
  8
gg1
 10
1.475000
 20
1.285000
  0
SEQEND
  8
gg1
  0
POLYLINE
  8
gg1
 62
1
 40
0.000000
 41
0.000000
 66
  1
  0
VERTEX
  8
gg1
 10
1.515000
 20
1.275000
  0
VERTEX
  8
gg1
 10
1.535000
 20
1.275000
  0
SEQEND
  8
gg1
  0
POLYLINE
  8
gg1
 62
1
 40
0.000000
 41
0.000000
 66
  1
  0
VERTEX
  8
gg1
 10
1.525000
 20
1.265000
  0
VERTEX
  8
gg1
 10
1.525000
 20
1.285000
  0
SEQEND
  8
gg1
  0
POLYLINE
  8
gg1
 62
1
 40
0.000000
 41
0.000000
 66
  1
  0
VERTEX
  8
gg1
 10
1.565000
 20
1.275000
  0
VERTEX
  8
gg1
 10
1.585000
 20
1.275000
  0
SEQEND
  8
gg1
  0
POLYLINE
  8
gg1
 62
1
 40
0.000000
 41
0.000000
 66
  1
  0
VERTEX
  8
gg1
 10
1.575000
 20
1.265000
  0
VERTEX
  8
gg1
 10
1.575000
 20
1.285000
  0
SEQEND
  8
gg1
  0
POLYLINE
  8
gg1
 62
1
 40
0.000000
 41
0.000000
 66
  1
  0
VERTEX
  8
gg1
 10
1.615000
 20
1.275000
  0
VERTEX
  8
gg1
 10
1.635000
 20
1.275000
  0
SEQEND
  8
gg1
  0
POLYLINE
  8
gg1
 62
1
 40
0.000000
 41
0.000000
 66
  1
  0
VERTEX
  8
gg1
 10
1.625000
 20
1.265000
  0
VERTEX
  8
gg1
 10
1.625000
 20
1.285000
  0
SEQEND
  8
gg1
  0
POLYLINE
  8
gg1
 62
1
 40
0.000000
 41
0.000000
 66
  1
  0
VERTEX
  8
gg1
 10
1.665000
 20
1.275000
  0
VERTEX
  8
gg1
 10
1.685000
 20
1.275000
  0
SEQEND
  8
gg1
  0
POLYLINE
  8
gg1
 62
1
 40
0.000000
 41
0.000000
 66
  1
  0
VERTEX
  8
gg1
 10
1.675000
 20
1.265000
  0
VERTEX
  8
gg1
 10
1.675000
 20
1.285000
  0
SEQEND
  8
gg1
  0
POLYLINE
  8
gg1
 62
1
 40
0.000000
 41
0.000000
 66
  1
  0
VERTEX
  8
gg1
 10
1.665000
 20
1.225000
  0
VERTEX
  8
gg1
 10
1.685000
 20
1.225000
  0
SEQEND
  8
gg1
  0
POLYLINE
  8
gg1
 62
1
 40
0.000000
 41
0.000000
 66
  1
  0
VERTEX
  8
gg1
 10
1.675000
 20
1.215000
  0
VERTEX
  8
gg1
 10
1.675000
 20
1.235000
  0
SEQEND
  8
gg1
  0
POLYLINE
  8
gg1
 62
1
 40
0.000000
 41
0.000000
 66
  1
  0
VERTEX
  8
gg1
 10
1.615000
 20
1.225000
  0
VERTEX
  8
gg1
 10
1.635000
 20
1.225000
  0
SEQEND
  8
gg1
  0
POLYLINE
  8
gg1
 62
1
 40
0.000000
 41
0.000000
 66
  1
  0
VERTEX
  8
gg1
 10
1.625000
 20
1.215000
  0
VERTEX
  8
gg1
 10
1.625000
 20
1.235000
  0
SEQEND
  8
gg1
  0
POLYLINE
  8
gg1
 62
1
 40
0.000000
 41
0.000000
 66
  1
  0
VERTEX
  8
gg1
 10
1.565000
 20
1.225000
  0
VERTEX
  8
gg1
 10
1.585000
 20
1.225000
  0
SEQEND
  8
gg1
  0
POLYLINE
  8
gg1
 62
1
 40
0.000000
 41
0.000000
 66
  1
  0
VERTEX
  8
gg1
 10
1.575000
 20
1.215000
  0
VERTEX
  8
gg1
 10
1.575000
 20
1.235000
  0
SEQEND
  8
gg1
  0
POLYLINE
  8
gg1
 62
1
 40
0.000000
 41
0.000000
 66
  1
  0
VERTEX
  8
gg1
 10
1.515000
 20
1.225000
  0
VERTEX
  8
gg1
 10
1.535000
 20
1.225000
  0
SEQEND
  8
gg1
  0
POLYLINE
  8
gg1
 62
1
 40
0.000000
 41
0.000000
 66
  1
  0
VERTEX
  8
gg1
 10
1.525000
 20
1.215000
  0
VERTEX
  8
gg1
 10
1.525000
 20
1.235000
  0
SEQEND
  8
gg1
  0
POLYLINE
  8
gg1
 62
1
 40
0.000000
 41
0.000000
 66
  1
  0
VERTEX
  8
gg1
 10
1.465000
 20
1.225000
  0
VERTEX
  8
gg1
 10
1.485000
 20
1.225000
  0
SEQEND
  8
gg1
  0
POLYLINE
  8
gg1
 62
1
 40
0.000000
 41
0.000000
 66
  1
  0
VERTEX
  8
gg1
 10
1.475000
 20
1.215000
  0
VERTEX
  8
gg1
 10
1.475000
 20
1.235000
  0
SEQEND
  8
gg1
  0
POLYLINE
  8
gg1
 62
1
 40
0.000000
 41
0.000000
 66
  1
  0
VERTEX
  8
gg1
 10
1.415000
 20
1.225000
  0
VERTEX
  8
gg1
 10
1.435000
 20
1.225000
  0
SEQEND
  8
gg1
  0
POLYLINE
  8
gg1
 62
1
 40
0.000000
 41
0.000000
 66
  1
  0
VERTEX
  8
gg1
 10
1.425000
 20
1.215000
  0
VERTEX
  8
gg1
 10
1.425000
 20
1.235000
  0
SEQEND
  8
gg1
  0
POLYLINE
  8
gg1
 62
1
 40
0.000000
 41
0.000000
 66
  1
  0
VERTEX
  8
gg1
 10
1.365000
 20
1.225000
  0
VERTEX
  8
gg1
 10
1.385000
 20
1.225000
  0
SEQEND
  8
gg1
  0
POLYLINE
  8
gg1
 62
1
 40
0.000000
 41
0.000000
 66
  1
  0
VERTEX
  8
gg1
 10
1.375000
 20
1.215000
  0
VERTEX
  8
gg1
 10
1.375000
 20
1.235000
  0
SEQEND
  8
gg1
  0
POLYLINE
  8
gg1
 62
1
 40
0.000000
 41
0.000000
 66
  1
  0
VERTEX
  8
gg1
 10
1.315000
 20
1.225000
  0
VERTEX
  8
gg1
 10
1.335000
 20
1.225000
  0
SEQEND
  8
gg1
  0
POLYLINE
  8
gg1
 62
1
 40
0.000000
 41
0.000000
 66
  1
  0
VERTEX
  8
gg1
 10
1.325000
 20
1.215000
  0
VERTEX
  8
gg1
 10
1.325000
 20
1.235000
  0
SEQEND
  8
gg1
  0
POLYLINE
  8
gg1
 62
1
 40
0.000000
 41
0.000000
 66
  1
  0
VERTEX
  8
gg1
 10
1.315000
 20
1.175000
  0
VERTEX
  8
gg1
 10
1.335000
 20
1.175000
  0
SEQEND
  8
gg1
  0
POLYLINE
  8
gg1
 62
1
 40
0.000000
 41
0.000000
 66
  1
  0
VERTEX
  8
gg1
 10
1.325000
 20
1.165000
  0
VERTEX
  8
gg1
 10
1.325000
 20
1.185000
  0
SEQEND
  8
gg1
  0
POLYLINE
  8
gg1
 62
1
 40
0.000000
 41
0.000000
 66
  1
  0
VERTEX
  8
gg1
 10
1.365000
 20
1.175000
  0
VERTEX
  8
gg1
 10
1.385000
 20
1.175000
  0
SEQEND
  8
gg1
  0
POLYLINE
  8
gg1
 62
1
 40
0.000000
 41
0.000000
 66
  1
  0
VERTEX
  8
gg1
 10
1.375000
 20
1.165000
  0
VERTEX
  8
gg1
 10
1.375000
 20
1.185000
  0
SEQEND
  8
gg1
  0
POLYLINE
  8
gg1
 62
1
 40
0.000000
 41
0.000000
 66
  1
  0
VERTEX
  8
gg1
 10
1.415000
 20
1.175000
  0
VERTEX
  8
gg1
 10
1.435000
 20
1.175000
  0
SEQEND
  8
gg1
  0
POLYLINE
  8
gg1
 62
1
 40
0.000000
 41
0.000000
 66
  1
  0
VERTEX
  8
gg1
 10
1.425000
 20
1.165000
  0
VERTEX
  8
gg1
 10
1.425000
 20
1.185000
  0
SEQEND
  8
gg1
  0
POLYLINE
  8
gg1
 62
1
 40
0.000000
 41
0.000000
 66
  1
  0
VERTEX
  8
gg1
 10
1.465000
 20
1.175000
  0
VERTEX
  8
gg1
 10
1.485000
 20
1.175000
  0
SEQEND
  8
gg1
  0
POLYLINE
  8
gg1
 62
1
 40
0.000000
 41
0.000000
 66
  1
  0
VERTEX
  8
gg1
 10
1.475000
 20
1.165000
  0
VERTEX
  8
gg1
 10
1.475000
 20
1.185000
  0
SEQEND
  8
gg1
  0
POLYLINE
  8
gg1
 62
1
 40
0.000000
 41
0.000000
 66
  1
  0
VERTEX
  8
gg1
 10
1.515000
 20
1.175000
  0
VERTEX
  8
gg1
 10
1.535000
 20
1.175000
  0
SEQEND
  8
gg1
  0
POLYLINE
  8
gg1
 62
1
 40
0.000000
 41
0.000000
 66
  1
  0
VERTEX
  8
gg1
 10
1.525000
 20
1.165000
  0
VERTEX
  8
gg1
 10
1.525000
 20
1.185000
  0
SEQEND
  8
gg1
  0
POLYLINE
  8
gg1
 62
1
 40
0.000000
 41
0.000000
 66
  1
  0
VERTEX
  8
gg1
 10
1.565000
 20
1.175000
  0
VERTEX
  8
gg1
 10
1.585000
 20
1.175000
  0
SEQEND
  8
gg1
  0
POLYLINE
  8
gg1
 62
1
 40
0.000000
 41
0.000000
 66
  1
  0
VERTEX
  8
gg1
 10
1.575000
 20
1.165000
  0
VERTEX
  8
gg1
 10
1.575000
 20
1.185000
  0
SEQEND
  8
gg1
  0
POLYLINE
  8
gg1
 62
1
 40
0.000000
 41
0.000000
 66
  1
  0
VERTEX
  8
gg1
 10
1.615000
 20
1.175000
  0
VERTEX
  8
gg1
 10
1.635000
 20
1.175000
  0
SEQEND
  8
gg1
  0
POLYLINE
  8
gg1
 62
1
 40
0.000000
 41
0.000000
 66
  1
  0
VERTEX
  8
gg1
 10
1.625000
 20
1.165000
  0
VERTEX
  8
gg1
 10
1.625000
 20
1.185000
  0
SEQEND
  8
gg1
  0
POLYLINE
  8
gg1
 62
1
 40
0.000000
 41
0.000000
 66
  1
  0
VERTEX
  8
gg1
 10
1.665000
 20
1.175000
  0
VERTEX
  8
gg1
 10
1.685000
 20
1.175000
  0
SEQEND
  8
gg1
  0
POLYLINE
  8
gg1
 62
1
 40
0.000000
 41
0.000000
 66
  1
  0
VERTEX
  8
gg1
 10
1.675000
 20
1.165000
  0
VERTEX
  8
gg1
 10
1.675000
 20
1.185000
  0
SEQEND
  8
gg1
  0
POLYLINE
  8
gg1
 62
1
 40
0.000000
 41
0.000000
 66
  1
  0
VERTEX
  8
gg1
 10
0.540000
 20
1.325000
  0
VERTEX
  8
gg1
 10
0.560000
 20
1.325000
  0
SEQEND
  8
gg1
  0
POLYLINE
  8
gg1
 62
1
 40
0.000000
 41
0.000000
 66
  1
  0
VERTEX
  8
gg1
 10
0.550000
 20
1.315000
  0
VERTEX
  8
gg1
 10
0.550000
 20
1.335000
  0
SEQEND
  8
gg1
  0
POLYLINE
  8
gg1
 62
1
 40
0.000000
 41
0.000000
 66
  1
  0
VERTEX
  8
gg1
 10
0.490000
 20
1.325000
  0
VERTEX
  8
gg1
 10
0.510000
 20
1.325000
  0
SEQEND
  8
gg1
  0
POLYLINE
  8
gg1
 62
1
 40
0.000000
 41
0.000000
 66
  1
  0
VERTEX
  8
gg1
 10
0.500000
 20
1.315000
  0
VERTEX
  8
gg1
 10
0.500000
 20
1.335000
  0
SEQEND
  8
gg1
  0
POLYLINE
  8
gg1
 62
1
 40
0.000000
 41
0.000000
 66
  1
  0
VERTEX
  8
gg1
 10
0.440000
 20
1.325000
  0
VERTEX
  8
gg1
 10
0.460000
 20
1.325000
  0
SEQEND
  8
gg1
  0
POLYLINE
  8
gg1
 62
1
 40
0.000000
 41
0.000000
 66
  1
  0
VERTEX
  8
gg1
 10
0.450000
 20
1.315000
  0
VERTEX
  8
gg1
 10
0.450000
 20
1.335000
  0
SEQEND
  8
gg1
  0
POLYLINE
  8
gg1
 62
1
 40
0.000000
 41
0.000000
 66
  1
  0
VERTEX
  8
gg1
 10
0.390000
 20
1.325000
  0
VERTEX
  8
gg1
 10
0.410000
 20
1.325000
  0
SEQEND
  8
gg1
  0
POLYLINE
  8
gg1
 62
1
 40
0.000000
 41
0.000000
 66
  1
  0
VERTEX
  8
gg1
 10
0.400000
 20
1.315000
  0
VERTEX
  8
gg1
 10
0.400000
 20
1.335000
  0
SEQEND
  8
gg1
  0
POLYLINE
  8
gg1
 62
1
 40
0.000000
 41
0.000000
 66
  1
  0
VERTEX
  8
gg1
 10
0.340000
 20
1.325000
  0
VERTEX
  8
gg1
 10
0.360000
 20
1.325000
  0
SEQEND
  8
gg1
  0
POLYLINE
  8
gg1
 62
1
 40
0.000000
 41
0.000000
 66
  1
  0
VERTEX
  8
gg1
 10
0.350000
 20
1.315000
  0
VERTEX
  8
gg1
 10
0.350000
 20
1.335000
  0
SEQEND
  8
gg1
  0
POLYLINE
  8
gg1
 62
1
 40
0.000000
 41
0.000000
 66
  1
  0
VERTEX
  8
gg1
 10
0.290000
 20
1.325000
  0
VERTEX
  8
gg1
 10
0.310000
 20
1.325000
  0
SEQEND
  8
gg1
  0
POLYLINE
  8
gg1
 62
1
 40
0.000000
 41
0.000000
 66
  1
  0
VERTEX
  8
gg1
 10
0.300000
 20
1.315000
  0
VERTEX
  8
gg1
 10
0.300000
 20
1.335000
  0
SEQEND
  8
gg1
  0
POLYLINE
  8
gg1
 62
1
 40
0.000000
 41
0.000000
 66
  1
  0
VERTEX
  8
gg1
 10
0.240000
 20
1.325000
  0
VERTEX
  8
gg1
 10
0.260000
 20
1.325000
  0
SEQEND
  8
gg1
  0
POLYLINE
  8
gg1
 62
1
 40
0.000000
 41
0.000000
 66
  1
  0
VERTEX
  8
gg1
 10
0.250000
 20
1.315000
  0
VERTEX
  8
gg1
 10
0.250000
 20
1.335000
  0
SEQEND
  8
gg1
  0
POLYLINE
  8
gg1
 62
1
 40
0.000000
 41
0.000000
 66
  1
  0
VERTEX
  8
gg1
 10
0.190000
 20
1.325000
  0
VERTEX
  8
gg1
 10
0.210000
 20
1.325000
  0
SEQEND
  8
gg1
  0
POLYLINE
  8
gg1
 62
1
 40
0.000000
 41
0.000000
 66
  1
  0
VERTEX
  8
gg1
 10
0.200000
 20
1.315000
  0
VERTEX
  8
gg1
 10
0.200000
 20
1.335000
  0
SEQEND
  8
gg1
  0
POLYLINE
  8
gg1
 62
1
 40
0.000000
 41
0.000000
 66
  1
  0
VERTEX
  8
gg1
 10
0.190000
 20
1.275000
  0
VERTEX
  8
gg1
 10
0.210000
 20
1.275000
  0
SEQEND
  8
gg1
  0
POLYLINE
  8
gg1
 62
1
 40
0.000000
 41
0.000000
 66
  1
  0
VERTEX
  8
gg1
 10
0.200000
 20
1.265000
  0
VERTEX
  8
gg1
 10
0.200000
 20
1.285000
  0
SEQEND
  8
gg1
  0
POLYLINE
  8
gg1
 62
1
 40
0.000000
 41
0.000000
 66
  1
  0
VERTEX
  8
gg1
 10
0.240000
 20
1.275000
  0
VERTEX
  8
gg1
 10
0.260000
 20
1.275000
  0
SEQEND
  8
gg1
  0
POLYLINE
  8
gg1
 62
1
 40
0.000000
 41
0.000000
 66
  1
  0
VERTEX
  8
gg1
 10
0.250000
 20
1.265000
  0
VERTEX
  8
gg1
 10
0.250000
 20
1.285000
  0
SEQEND
  8
gg1
  0
POLYLINE
  8
gg1
 62
1
 40
0.000000
 41
0.000000
 66
  1
  0
VERTEX
  8
gg1
 10
0.290000
 20
1.275000
  0
VERTEX
  8
gg1
 10
0.310000
 20
1.275000
  0
SEQEND
  8
gg1
  0
POLYLINE
  8
gg1
 62
1
 40
0.000000
 41
0.000000
 66
  1
  0
VERTEX
  8
gg1
 10
0.300000
 20
1.265000
  0
VERTEX
  8
gg1
 10
0.300000
 20
1.285000
  0
SEQEND
  8
gg1
  0
POLYLINE
  8
gg1
 62
1
 40
0.000000
 41
0.000000
 66
  1
  0
VERTEX
  8
gg1
 10
0.340000
 20
1.275000
  0
VERTEX
  8
gg1
 10
0.360000
 20
1.275000
  0
SEQEND
  8
gg1
  0
POLYLINE
  8
gg1
 62
1
 40
0.000000
 41
0.000000
 66
  1
  0
VERTEX
  8
gg1
 10
0.350000
 20
1.265000
  0
VERTEX
  8
gg1
 10
0.350000
 20
1.285000
  0
SEQEND
  8
gg1
  0
POLYLINE
  8
gg1
 62
1
 40
0.000000
 41
0.000000
 66
  1
  0
VERTEX
  8
gg1
 10
0.390000
 20
1.275000
  0
VERTEX
  8
gg1
 10
0.410000
 20
1.275000
  0
SEQEND
  8
gg1
  0
POLYLINE
  8
gg1
 62
1
 40
0.000000
 41
0.000000
 66
  1
  0
VERTEX
  8
gg1
 10
0.400000
 20
1.265000
  0
VERTEX
  8
gg1
 10
0.400000
 20
1.285000
  0
SEQEND
  8
gg1
  0
POLYLINE
  8
gg1
 62
1
 40
0.000000
 41
0.000000
 66
  1
  0
VERTEX
  8
gg1
 10
0.440000
 20
1.275000
  0
VERTEX
  8
gg1
 10
0.460000
 20
1.275000
  0
SEQEND
  8
gg1
  0
POLYLINE
  8
gg1
 62
1
 40
0.000000
 41
0.000000
 66
  1
  0
VERTEX
  8
gg1
 10
0.450000
 20
1.265000
  0
VERTEX
  8
gg1
 10
0.450000
 20
1.285000
  0
SEQEND
  8
gg1
  0
POLYLINE
  8
gg1
 62
1
 40
0.000000
 41
0.000000
 66
  1
  0
VERTEX
  8
gg1
 10
0.490000
 20
1.275000
  0
VERTEX
  8
gg1
 10
0.510000
 20
1.275000
  0
SEQEND
  8
gg1
  0
POLYLINE
  8
gg1
 62
1
 40
0.000000
 41
0.000000
 66
  1
  0
VERTEX
  8
gg1
 10
0.500000
 20
1.265000
  0
VERTEX
  8
gg1
 10
0.500000
 20
1.285000
  0
SEQEND
  8
gg1
  0
POLYLINE
  8
gg1
 62
1
 40
0.000000
 41
0.000000
 66
  1
  0
VERTEX
  8
gg1
 10
0.540000
 20
1.275000
  0
VERTEX
  8
gg1
 10
0.560000
 20
1.275000
  0
SEQEND
  8
gg1
  0
POLYLINE
  8
gg1
 62
1
 40
0.000000
 41
0.000000
 66
  1
  0
VERTEX
  8
gg1
 10
0.550000
 20
1.265000
  0
VERTEX
  8
gg1
 10
0.550000
 20
1.285000
  0
SEQEND
  8
gg1
  0
POLYLINE
  8
gg1
 62
1
 40
0.000000
 41
0.000000
 66
  1
  0
VERTEX
  8
gg1
 10
0.540000
 20
1.225000
  0
VERTEX
  8
gg1
 10
0.560000
 20
1.225000
  0
SEQEND
  8
gg1
  0
POLYLINE
  8
gg1
 62
1
 40
0.000000
 41
0.000000
 66
  1
  0
VERTEX
  8
gg1
 10
0.550000
 20
1.215000
  0
VERTEX
  8
gg1
 10
0.550000
 20
1.235000
  0
SEQEND
  8
gg1
  0
POLYLINE
  8
gg1
 62
1
 40
0.000000
 41
0.000000
 66
  1
  0
VERTEX
  8
gg1
 10
0.490000
 20
1.225000
  0
VERTEX
  8
gg1
 10
0.510000
 20
1.225000
  0
SEQEND
  8
gg1
  0
POLYLINE
  8
gg1
 62
1
 40
0.000000
 41
0.000000
 66
  1
  0
VERTEX
  8
gg1
 10
0.500000
 20
1.215000
  0
VERTEX
  8
gg1
 10
0.500000
 20
1.235000
  0
SEQEND
  8
gg1
  0
POLYLINE
  8
gg1
 62
1
 40
0.000000
 41
0.000000
 66
  1
  0
VERTEX
  8
gg1
 10
0.440000
 20
1.225000
  0
VERTEX
  8
gg1
 10
0.460000
 20
1.225000
  0
SEQEND
  8
gg1
  0
POLYLINE
  8
gg1
 62
1
 40
0.000000
 41
0.000000
 66
  1
  0
VERTEX
  8
gg1
 10
0.450000
 20
1.215000
  0
VERTEX
  8
gg1
 10
0.450000
 20
1.235000
  0
SEQEND
  8
gg1
  0
POLYLINE
  8
gg1
 62
1
 40
0.000000
 41
0.000000
 66
  1
  0
VERTEX
  8
gg1
 10
0.390000
 20
1.225000
  0
VERTEX
  8
gg1
 10
0.410000
 20
1.225000
  0
SEQEND
  8
gg1
  0
POLYLINE
  8
gg1
 62
1
 40
0.000000
 41
0.000000
 66
  1
  0
VERTEX
  8
gg1
 10
0.400000
 20
1.215000
  0
VERTEX
  8
gg1
 10
0.400000
 20
1.235000
  0
SEQEND
  8
gg1
  0
POLYLINE
  8
gg1
 62
1
 40
0.000000
 41
0.000000
 66
  1
  0
VERTEX
  8
gg1
 10
0.340000
 20
1.225000
  0
VERTEX
  8
gg1
 10
0.360000
 20
1.225000
  0
SEQEND
  8
gg1
  0
POLYLINE
  8
gg1
 62
1
 40
0.000000
 41
0.000000
 66
  1
  0
VERTEX
  8
gg1
 10
0.350000
 20
1.215000
  0
VERTEX
  8
gg1
 10
0.350000
 20
1.235000
  0
SEQEND
  8
gg1
  0
POLYLINE
  8
gg1
 62
1
 40
0.000000
 41
0.000000
 66
  1
  0
VERTEX
  8
gg1
 10
0.290000
 20
1.225000
  0
VERTEX
  8
gg1
 10
0.310000
 20
1.225000
  0
SEQEND
  8
gg1
  0
POLYLINE
  8
gg1
 62
1
 40
0.000000
 41
0.000000
 66
  1
  0
VERTEX
  8
gg1
 10
0.300000
 20
1.215000
  0
VERTEX
  8
gg1
 10
0.300000
 20
1.235000
  0
SEQEND
  8
gg1
  0
POLYLINE
  8
gg1
 62
1
 40
0.000000
 41
0.000000
 66
  1
  0
VERTEX
  8
gg1
 10
0.240000
 20
1.225000
  0
VERTEX
  8
gg1
 10
0.260000
 20
1.225000
  0
SEQEND
  8
gg1
  0
POLYLINE
  8
gg1
 62
1
 40
0.000000
 41
0.000000
 66
  1
  0
VERTEX
  8
gg1
 10
0.250000
 20
1.215000
  0
VERTEX
  8
gg1
 10
0.250000
 20
1.235000
  0
SEQEND
  8
gg1
  0
POLYLINE
  8
gg1
 62
1
 40
0.000000
 41
0.000000
 66
  1
  0
VERTEX
  8
gg1
 10
0.190000
 20
1.225000
  0
VERTEX
  8
gg1
 10
0.210000
 20
1.225000
  0
SEQEND
  8
gg1
  0
POLYLINE
  8
gg1
 62
1
 40
0.000000
 41
0.000000
 66
  1
  0
VERTEX
  8
gg1
 10
0.200000
 20
1.215000
  0
VERTEX
  8
gg1
 10
0.200000
 20
1.235000
  0
SEQEND
  8
gg1
  0
POLYLINE
  8
gg1
 62
1
 40
0.000000
 41
0.000000
 66
  1
  0
VERTEX
  8
gg1
 10
0.190000
 20
1.175000
  0
VERTEX
  8
gg1
 10
0.210000
 20
1.175000
  0
SEQEND
  8
gg1
  0
POLYLINE
  8
gg1
 62
1
 40
0.000000
 41
0.000000
 66
  1
  0
VERTEX
  8
gg1
 10
0.200000
 20
1.165000
  0
VERTEX
  8
gg1
 10
0.200000
 20
1.185000
  0
SEQEND
  8
gg1
  0
POLYLINE
  8
gg1
 62
1
 40
0.000000
 41
0.000000
 66
  1
  0
VERTEX
  8
gg1
 10
0.240000
 20
1.175000
  0
VERTEX
  8
gg1
 10
0.260000
 20
1.175000
  0
SEQEND
  8
gg1
  0
POLYLINE
  8
gg1
 62
1
 40
0.000000
 41
0.000000
 66
  1
  0
VERTEX
  8
gg1
 10
0.250000
 20
1.165000
  0
VERTEX
  8
gg1
 10
0.250000
 20
1.185000
  0
SEQEND
  8
gg1
  0
POLYLINE
  8
gg1
 62
1
 40
0.000000
 41
0.000000
 66
  1
  0
VERTEX
  8
gg1
 10
0.290000
 20
1.175000
  0
VERTEX
  8
gg1
 10
0.310000
 20
1.175000
  0
SEQEND
  8
gg1
  0
POLYLINE
  8
gg1
 62
1
 40
0.000000
 41
0.000000
 66
  1
  0
VERTEX
  8
gg1
 10
0.300000
 20
1.165000
  0
VERTEX
  8
gg1
 10
0.300000
 20
1.185000
  0
SEQEND
  8
gg1
  0
POLYLINE
  8
gg1
 62
1
 40
0.000000
 41
0.000000
 66
  1
  0
VERTEX
  8
gg1
 10
0.340000
 20
1.175000
  0
VERTEX
  8
gg1
 10
0.360000
 20
1.175000
  0
SEQEND
  8
gg1
  0
POLYLINE
  8
gg1
 62
1
 40
0.000000
 41
0.000000
 66
  1
  0
VERTEX
  8
gg1
 10
0.350000
 20
1.165000
  0
VERTEX
  8
gg1
 10
0.350000
 20
1.185000
  0
SEQEND
  8
gg1
  0
POLYLINE
  8
gg1
 62
1
 40
0.000000
 41
0.000000
 66
  1
  0
VERTEX
  8
gg1
 10
0.390000
 20
1.175000
  0
VERTEX
  8
gg1
 10
0.410000
 20
1.175000
  0
SEQEND
  8
gg1
  0
POLYLINE
  8
gg1
 62
1
 40
0.000000
 41
0.000000
 66
  1
  0
VERTEX
  8
gg1
 10
0.400000
 20
1.165000
  0
VERTEX
  8
gg1
 10
0.400000
 20
1.185000
  0
SEQEND
  8
gg1
  0
POLYLINE
  8
gg1
 62
1
 40
0.000000
 41
0.000000
 66
  1
  0
VERTEX
  8
gg1
 10
0.440000
 20
1.175000
  0
VERTEX
  8
gg1
 10
0.460000
 20
1.175000
  0
SEQEND
  8
gg1
  0
POLYLINE
  8
gg1
 62
1
 40
0.000000
 41
0.000000
 66
  1
  0
VERTEX
  8
gg1
 10
0.450000
 20
1.165000
  0
VERTEX
  8
gg1
 10
0.450000
 20
1.185000
  0
SEQEND
  8
gg1
  0
POLYLINE
  8
gg1
 62
1
 40
0.000000
 41
0.000000
 66
  1
  0
VERTEX
  8
gg1
 10
0.490000
 20
1.175000
  0
VERTEX
  8
gg1
 10
0.510000
 20
1.175000
  0
SEQEND
  8
gg1
  0
POLYLINE
  8
gg1
 62
1
 40
0.000000
 41
0.000000
 66
  1
  0
VERTEX
  8
gg1
 10
0.500000
 20
1.165000
  0
VERTEX
  8
gg1
 10
0.500000
 20
1.185000
  0
SEQEND
  8
gg1
  0
POLYLINE
  8
gg1
 62
1
 40
0.000000
 41
0.000000
 66
  1
  0
VERTEX
  8
gg1
 10
0.540000
 20
1.175000
  0
VERTEX
  8
gg1
 10
0.560000
 20
1.175000
  0
SEQEND
  8
gg1
  0
POLYLINE
  8
gg1
 62
1
 40
0.000000
 41
0.000000
 66
  1
  0
VERTEX
  8
gg1
 10
0.550000
 20
1.165000
  0
VERTEX
  8
gg1
 10
0.550000
 20
1.185000
  0
SEQEND
  8
gg1
  0
POLYLINE
  8
gg1
 62
1
 40
0.000000
 41
0.000000
 66
  1
  0
VERTEX
  8
gg1
 10
1.715000
 20
1.100000
  0
VERTEX
  8
gg1
 10
1.735000
 20
1.100000
  0
SEQEND
  8
gg1
  0
POLYLINE
  8
gg1
 62
1
 40
0.000000
 41
0.000000
 66
  1
  0
VERTEX
  8
gg1
 10
1.725000
 20
1.090000
  0
VERTEX
  8
gg1
 10
1.725000
 20
1.110000
  0
SEQEND
  8
gg1
  0
POLYLINE
  8
gg1
 62
1
 40
0.000000
 41
0.000000
 66
  1
  0
VERTEX
  8
gg1
 10
1.665000
 20
1.100000
  0
VERTEX
  8
gg1
 10
1.685000
 20
1.100000
  0
SEQEND
  8
gg1
  0
POLYLINE
  8
gg1
 62
1
 40
0.000000
 41
0.000000
 66
  1
  0
VERTEX
  8
gg1
 10
1.675000
 20
1.090000
  0
VERTEX
  8
gg1
 10
1.675000
 20
1.110000
  0
SEQEND
  8
gg1
  0
POLYLINE
  8
gg1
 62
1
 40
0.000000
 41
0.000000
 66
  1
  0
VERTEX
  8
gg1
 10
1.615000
 20
1.100000
  0
VERTEX
  8
gg1
 10
1.635000
 20
1.100000
  0
SEQEND
  8
gg1
  0
POLYLINE
  8
gg1
 62
1
 40
0.000000
 41
0.000000
 66
  1
  0
VERTEX
  8
gg1
 10
1.625000
 20
1.090000
  0
VERTEX
  8
gg1
 10
1.625000
 20
1.110000
  0
SEQEND
  8
gg1
  0
POLYLINE
  8
gg1
 62
1
 40
0.000000
 41
0.000000
 66
  1
  0
VERTEX
  8
gg1
 10
1.565000
 20
1.100000
  0
VERTEX
  8
gg1
 10
1.585000
 20
1.100000
  0
SEQEND
  8
gg1
  0
POLYLINE
  8
gg1
 62
1
 40
0.000000
 41
0.000000
 66
  1
  0
VERTEX
  8
gg1
 10
1.575000
 20
1.090000
  0
VERTEX
  8
gg1
 10
1.575000
 20
1.110000
  0
SEQEND
  8
gg1
  0
POLYLINE
  8
gg1
 62
1
 40
0.000000
 41
0.000000
 66
  1
  0
VERTEX
  8
gg1
 10
1.715000
 20
1.050000
  0
VERTEX
  8
gg1
 10
1.735000
 20
1.050000
  0
SEQEND
  8
gg1
  0
POLYLINE
  8
gg1
 62
1
 40
0.000000
 41
0.000000
 66
  1
  0
VERTEX
  8
gg1
 10
1.725000
 20
1.040000
  0
VERTEX
  8
gg1
 10
1.725000
 20
1.060000
  0
SEQEND
  8
gg1
  0
POLYLINE
  8
gg1
 62
1
 40
0.000000
 41
0.000000
 66
  1
  0
VERTEX
  8
gg1
 10
1.665000
 20
1.050000
  0
VERTEX
  8
gg1
 10
1.685000
 20
1.050000
  0
SEQEND
  8
gg1
  0
POLYLINE
  8
gg1
 62
1
 40
0.000000
 41
0.000000
 66
  1
  0
VERTEX
  8
gg1
 10
1.675000
 20
1.040000
  0
VERTEX
  8
gg1
 10
1.675000
 20
1.060000
  0
SEQEND
  8
gg1
  0
POLYLINE
  8
gg1
 62
1
 40
0.000000
 41
0.000000
 66
  1
  0
VERTEX
  8
gg1
 10
1.615000
 20
1.050000
  0
VERTEX
  8
gg1
 10
1.635000
 20
1.050000
  0
SEQEND
  8
gg1
  0
POLYLINE
  8
gg1
 62
1
 40
0.000000
 41
0.000000
 66
  1
  0
VERTEX
  8
gg1
 10
1.625000
 20
1.040000
  0
VERTEX
  8
gg1
 10
1.625000
 20
1.060000
  0
SEQEND
  8
gg1
  0
POLYLINE
  8
gg1
 62
1
 40
0.000000
 41
0.000000
 66
  1
  0
VERTEX
  8
gg1
 10
1.565000
 20
1.050000
  0
VERTEX
  8
gg1
 10
1.585000
 20
1.050000
  0
SEQEND
  8
gg1
  0
POLYLINE
  8
gg1
 62
1
 40
0.000000
 41
0.000000
 66
  1
  0
VERTEX
  8
gg1
 10
1.575000
 20
1.040000
  0
VERTEX
  8
gg1
 10
1.575000
 20
1.060000
  0
SEQEND
  8
gg1
  0
POLYLINE
  8
gg1
 62
1
 40
0.000000
 41
0.000000
 66
  1
  0
VERTEX
  8
gg1
 10
1.715000
 20
1.000000
  0
VERTEX
  8
gg1
 10
1.735000
 20
1.000000
  0
SEQEND
  8
gg1
  0
POLYLINE
  8
gg1
 62
1
 40
0.000000
 41
0.000000
 66
  1
  0
VERTEX
  8
gg1
 10
1.725000
 20
0.990000
  0
VERTEX
  8
gg1
 10
1.725000
 20
1.010000
  0
SEQEND
  8
gg1
  0
POLYLINE
  8
gg1
 62
1
 40
0.000000
 41
0.000000
 66
  1
  0
VERTEX
  8
gg1
 10
1.665000
 20
1.000000
  0
VERTEX
  8
gg1
 10
1.685000
 20
1.000000
  0
SEQEND
  8
gg1
  0
POLYLINE
  8
gg1
 62
1
 40
0.000000
 41
0.000000
 66
  1
  0
VERTEX
  8
gg1
 10
1.675000
 20
0.990000
  0
VERTEX
  8
gg1
 10
1.675000
 20
1.010000
  0
SEQEND
  8
gg1
  0
POLYLINE
  8
gg1
 62
1
 40
0.000000
 41
0.000000
 66
  1
  0
VERTEX
  8
gg1
 10
1.615000
 20
1.000000
  0
VERTEX
  8
gg1
 10
1.635000
 20
1.000000
  0
SEQEND
  8
gg1
  0
POLYLINE
  8
gg1
 62
1
 40
0.000000
 41
0.000000
 66
  1
  0
VERTEX
  8
gg1
 10
1.625000
 20
0.990000
  0
VERTEX
  8
gg1
 10
1.625000
 20
1.010000
  0
SEQEND
  8
gg1
  0
POLYLINE
  8
gg1
 62
1
 40
0.000000
 41
0.000000
 66
  1
  0
VERTEX
  8
gg1
 10
1.565000
 20
1.000000
  0
VERTEX
  8
gg1
 10
1.585000
 20
1.000000
  0
SEQEND
  8
gg1
  0
POLYLINE
  8
gg1
 62
1
 40
0.000000
 41
0.000000
 66
  1
  0
VERTEX
  8
gg1
 10
1.575000
 20
0.990000
  0
VERTEX
  8
gg1
 10
1.575000
 20
1.010000
  0
SEQEND
  8
gg1
  0
POLYLINE
  8
gg1
 62
1
 40
0.000000
 41
0.000000
 66
  1
  0
VERTEX
  8
gg1
 10
1.715000
 20
0.950000
  0
VERTEX
  8
gg1
 10
1.735000
 20
0.950000
  0
SEQEND
  8
gg1
  0
POLYLINE
  8
gg1
 62
1
 40
0.000000
 41
0.000000
 66
  1
  0
VERTEX
  8
gg1
 10
1.725000
 20
0.940000
  0
VERTEX
  8
gg1
 10
1.725000
 20
0.960000
  0
SEQEND
  8
gg1
  0
POLYLINE
  8
gg1
 62
1
 40
0.000000
 41
0.000000
 66
  1
  0
VERTEX
  8
gg1
 10
1.665000
 20
0.950000
  0
VERTEX
  8
gg1
 10
1.685000
 20
0.950000
  0
SEQEND
  8
gg1
  0
POLYLINE
  8
gg1
 62
1
 40
0.000000
 41
0.000000
 66
  1
  0
VERTEX
  8
gg1
 10
1.675000
 20
0.940000
  0
VERTEX
  8
gg1
 10
1.675000
 20
0.960000
  0
SEQEND
  8
gg1
  0
POLYLINE
  8
gg1
 62
1
 40
0.000000
 41
0.000000
 66
  1
  0
VERTEX
  8
gg1
 10
1.615000
 20
0.950000
  0
VERTEX
  8
gg1
 10
1.635000
 20
0.950000
  0
SEQEND
  8
gg1
  0
POLYLINE
  8
gg1
 62
1
 40
0.000000
 41
0.000000
 66
  1
  0
VERTEX
  8
gg1
 10
1.625000
 20
0.940000
  0
VERTEX
  8
gg1
 10
1.625000
 20
0.960000
  0
SEQEND
  8
gg1
  0
POLYLINE
  8
gg1
 62
1
 40
0.000000
 41
0.000000
 66
  1
  0
VERTEX
  8
gg1
 10
1.565000
 20
0.950000
  0
VERTEX
  8
gg1
 10
1.585000
 20
0.950000
  0
SEQEND
  8
gg1
  0
POLYLINE
  8
gg1
 62
1
 40
0.000000
 41
0.000000
 66
  1
  0
VERTEX
  8
gg1
 10
1.575000
 20
0.940000
  0
VERTEX
  8
gg1
 10
1.575000
 20
0.960000
  0
SEQEND
  8
gg1
  0
POLYLINE
  8
gg1
 62
1
 40
0.000000
 41
0.000000
 66
  1
  0
VERTEX
  8
gg1
 10
1.415000
 20
1.100000
  0
VERTEX
  8
gg1
 10
1.435000
 20
1.100000
  0
SEQEND
  8
gg1
  0
POLYLINE
  8
gg1
 62
1
 40
0.000000
 41
0.000000
 66
  1
  0
VERTEX
  8
gg1
 10
1.425000
 20
1.090000
  0
VERTEX
  8
gg1
 10
1.425000
 20
1.110000
  0
SEQEND
  8
gg1
  0
POLYLINE
  8
gg1
 62
1
 40
0.000000
 41
0.000000
 66
  1
  0
VERTEX
  8
gg1
 10
1.415000
 20
1.050000
  0
VERTEX
  8
gg1
 10
1.435000
 20
1.050000
  0
SEQEND
  8
gg1
  0
POLYLINE
  8
gg1
 62
1
 40
0.000000
 41
0.000000
 66
  1
  0
VERTEX
  8
gg1
 10
1.425000
 20
1.040000
  0
VERTEX
  8
gg1
 10
1.425000
 20
1.060000
  0
SEQEND
  8
gg1
  0
POLYLINE
  8
gg1
 62
1
 40
0.000000
 41
0.000000
 66
  1
  0
VERTEX
  8
gg1
 10
1.415000
 20
1.000000
  0
VERTEX
  8
gg1
 10
1.435000
 20
1.000000
  0
SEQEND
  8
gg1
  0
POLYLINE
  8
gg1
 62
1
 40
0.000000
 41
0.000000
 66
  1
  0
VERTEX
  8
gg1
 10
1.425000
 20
0.990000
  0
VERTEX
  8
gg1
 10
1.425000
 20
1.010000
  0
SEQEND
  8
gg1
  0
POLYLINE
  8
gg1
 62
1
 40
0.000000
 41
0.000000
 66
  1
  0
VERTEX
  8
gg1
 10
1.415000
 20
0.950000
  0
VERTEX
  8
gg1
 10
1.435000
 20
0.950000
  0
SEQEND
  8
gg1
  0
POLYLINE
  8
gg1
 62
1
 40
0.000000
 41
0.000000
 66
  1
  0
VERTEX
  8
gg1
 10
1.425000
 20
0.940000
  0
VERTEX
  8
gg1
 10
1.425000
 20
0.960000
  0
SEQEND
  8
gg1
  0
POLYLINE
  8
gg1
 62
1
 40
0.000000
 41
0.000000
 66
  1
  0
VERTEX
  8
gg1
 10
1.365000
 20
0.950000
  0
VERTEX
  8
gg1
 10
1.385000
 20
0.950000
  0
SEQEND
  8
gg1
  0
POLYLINE
  8
gg1
 62
1
 40
0.000000
 41
0.000000
 66
  1
  0
VERTEX
  8
gg1
 10
1.375000
 20
0.940000
  0
VERTEX
  8
gg1
 10
1.375000
 20
0.960000
  0
SEQEND
  8
gg1
  0
POLYLINE
  8
gg1
 62
1
 40
0.000000
 41
0.000000
 66
  1
  0
VERTEX
  8
gg1
 10
1.365000
 20
1.000000
  0
VERTEX
  8
gg1
 10
1.385000
 20
1.000000
  0
SEQEND
  8
gg1
  0
POLYLINE
  8
gg1
 62
1
 40
0.000000
 41
0.000000
 66
  1
  0
VERTEX
  8
gg1
 10
1.375000
 20
0.990000
  0
VERTEX
  8
gg1
 10
1.375000
 20
1.010000
  0
SEQEND
  8
gg1
  0
POLYLINE
  8
gg1
 62
1
 40
0.000000
 41
0.000000
 66
  1
  0
VERTEX
  8
gg1
 10
1.365000
 20
1.050000
  0
VERTEX
  8
gg1
 10
1.385000
 20
1.050000
  0
SEQEND
  8
gg1
  0
POLYLINE
  8
gg1
 62
1
 40
0.000000
 41
0.000000
 66
  1
  0
VERTEX
  8
gg1
 10
1.375000
 20
1.040000
  0
VERTEX
  8
gg1
 10
1.375000
 20
1.060000
  0
SEQEND
  8
gg1
  0
POLYLINE
  8
gg1
 62
1
 40
0.000000
 41
0.000000
 66
  1
  0
VERTEX
  8
gg1
 10
1.365000
 20
1.100000
  0
VERTEX
  8
gg1
 10
1.385000
 20
1.100000
  0
SEQEND
  8
gg1
  0
POLYLINE
  8
gg1
 62
1
 40
0.000000
 41
0.000000
 66
  1
  0
VERTEX
  8
gg1
 10
1.375000
 20
1.090000
  0
VERTEX
  8
gg1
 10
1.375000
 20
1.110000
  0
SEQEND
  8
gg1
  0
POLYLINE
  8
gg1
 62
1
 40
0.000000
 41
0.000000
 66
  1
  0
VERTEX
  8
gg1
 10
1.315000
 20
1.100000
  0
VERTEX
  8
gg1
 10
1.335000
 20
1.100000
  0
SEQEND
  8
gg1
  0
POLYLINE
  8
gg1
 62
1
 40
0.000000
 41
0.000000
 66
  1
  0
VERTEX
  8
gg1
 10
1.325000
 20
1.090000
  0
VERTEX
  8
gg1
 10
1.325000
 20
1.110000
  0
SEQEND
  8
gg1
  0
POLYLINE
  8
gg1
 62
1
 40
0.000000
 41
0.000000
 66
  1
  0
VERTEX
  8
gg1
 10
1.315000
 20
1.050000
  0
VERTEX
  8
gg1
 10
1.335000
 20
1.050000
  0
SEQEND
  8
gg1
  0
POLYLINE
  8
gg1
 62
1
 40
0.000000
 41
0.000000
 66
  1
  0
VERTEX
  8
gg1
 10
1.325000
 20
1.040000
  0
VERTEX
  8
gg1
 10
1.325000
 20
1.060000
  0
SEQEND
  8
gg1
  0
POLYLINE
  8
gg1
 62
1
 40
0.000000
 41
0.000000
 66
  1
  0
VERTEX
  8
gg1
 10
1.315000
 20
1.000000
  0
VERTEX
  8
gg1
 10
1.335000
 20
1.000000
  0
SEQEND
  8
gg1
  0
POLYLINE
  8
gg1
 62
1
 40
0.000000
 41
0.000000
 66
  1
  0
VERTEX
  8
gg1
 10
1.325000
 20
0.990000
  0
VERTEX
  8
gg1
 10
1.325000
 20
1.010000
  0
SEQEND
  8
gg1
  0
POLYLINE
  8
gg1
 62
1
 40
0.000000
 41
0.000000
 66
  1
  0
VERTEX
  8
gg1
 10
1.315000
 20
0.950000
  0
VERTEX
  8
gg1
 10
1.335000
 20
0.950000
  0
SEQEND
  8
gg1
  0
POLYLINE
  8
gg1
 62
1
 40
0.000000
 41
0.000000
 66
  1
  0
VERTEX
  8
gg1
 10
1.325000
 20
0.940000
  0
VERTEX
  8
gg1
 10
1.325000
 20
0.960000
  0
SEQEND
  8
gg1
  0
POLYLINE
  8
gg1
 62
1
 40
0.000000
 41
0.000000
 66
  1
  0
VERTEX
  8
gg1
 10
1.265000
 20
0.950000
  0
VERTEX
  8
gg1
 10
1.285000
 20
0.950000
  0
SEQEND
  8
gg1
  0
POLYLINE
  8
gg1
 62
1
 40
0.000000
 41
0.000000
 66
  1
  0
VERTEX
  8
gg1
 10
1.275000
 20
0.940000
  0
VERTEX
  8
gg1
 10
1.275000
 20
0.960000
  0
SEQEND
  8
gg1
  0
POLYLINE
  8
gg1
 62
1
 40
0.000000
 41
0.000000
 66
  1
  0
VERTEX
  8
gg1
 10
1.265000
 20
1.000000
  0
VERTEX
  8
gg1
 10
1.285000
 20
1.000000
  0
SEQEND
  8
gg1
  0
POLYLINE
  8
gg1
 62
1
 40
0.000000
 41
0.000000
 66
  1
  0
VERTEX
  8
gg1
 10
1.275000
 20
0.990000
  0
VERTEX
  8
gg1
 10
1.275000
 20
1.010000
  0
SEQEND
  8
gg1
  0
POLYLINE
  8
gg1
 62
1
 40
0.000000
 41
0.000000
 66
  1
  0
VERTEX
  8
gg1
 10
1.265000
 20
1.050000
  0
VERTEX
  8
gg1
 10
1.285000
 20
1.050000
  0
SEQEND
  8
gg1
  0
POLYLINE
  8
gg1
 62
1
 40
0.000000
 41
0.000000
 66
  1
  0
VERTEX
  8
gg1
 10
1.275000
 20
1.040000
  0
VERTEX
  8
gg1
 10
1.275000
 20
1.060000
  0
SEQEND
  8
gg1
  0
POLYLINE
  8
gg1
 62
1
 40
0.000000
 41
0.000000
 66
  1
  0
VERTEX
  8
gg1
 10
1.265000
 20
1.100000
  0
VERTEX
  8
gg1
 10
1.285000
 20
1.100000
  0
SEQEND
  8
gg1
  0
POLYLINE
  8
gg1
 62
1
 40
0.000000
 41
0.000000
 66
  1
  0
VERTEX
  8
gg1
 10
1.275000
 20
1.090000
  0
VERTEX
  8
gg1
 10
1.275000
 20
1.110000
  0
SEQEND
  8
gg1
  0
POLYLINE
  8
gg1
 62
1
 40
0.000000
 41
0.000000
 66
  1
  0
VERTEX
  8
gg1
 10
1.215000
 20
1.100000
  0
VERTEX
  8
gg1
 10
1.235000
 20
1.100000
  0
SEQEND
  8
gg1
  0
POLYLINE
  8
gg1
 62
1
 40
0.000000
 41
0.000000
 66
  1
  0
VERTEX
  8
gg1
 10
1.225000
 20
1.090000
  0
VERTEX
  8
gg1
 10
1.225000
 20
1.110000
  0
SEQEND
  8
gg1
  0
POLYLINE
  8
gg1
 62
1
 40
0.000000
 41
0.000000
 66
  1
  0
VERTEX
  8
gg1
 10
1.215000
 20
1.050000
  0
VERTEX
  8
gg1
 10
1.235000
 20
1.050000
  0
SEQEND
  8
gg1
  0
POLYLINE
  8
gg1
 62
1
 40
0.000000
 41
0.000000
 66
  1
  0
VERTEX
  8
gg1
 10
1.225000
 20
1.040000
  0
VERTEX
  8
gg1
 10
1.225000
 20
1.060000
  0
SEQEND
  8
gg1
  0
POLYLINE
  8
gg1
 62
1
 40
0.000000
 41
0.000000
 66
  1
  0
VERTEX
  8
gg1
 10
1.215000
 20
1.000000
  0
VERTEX
  8
gg1
 10
1.235000
 20
1.000000
  0
SEQEND
  8
gg1
  0
POLYLINE
  8
gg1
 62
1
 40
0.000000
 41
0.000000
 66
  1
  0
VERTEX
  8
gg1
 10
1.225000
 20
0.990000
  0
VERTEX
  8
gg1
 10
1.225000
 20
1.010000
  0
SEQEND
  8
gg1
  0
POLYLINE
  8
gg1
 62
1
 40
0.000000
 41
0.000000
 66
  1
  0
VERTEX
  8
gg1
 10
1.215000
 20
0.950000
  0
VERTEX
  8
gg1
 10
1.235000
 20
0.950000
  0
SEQEND
  8
gg1
  0
POLYLINE
  8
gg1
 62
1
 40
0.000000
 41
0.000000
 66
  1
  0
VERTEX
  8
gg1
 10
1.225000
 20
0.940000
  0
VERTEX
  8
gg1
 10
1.225000
 20
0.960000
  0
SEQEND
  8
gg1
  0
POLYLINE
  8
gg1
 62
1
 40
0.000000
 41
0.000000
 66
  1
  0
VERTEX
  8
gg1
 10
1.765000
 20
1.100000
  0
VERTEX
  8
gg1
 10
1.785000
 20
1.100000
  0
SEQEND
  8
gg1
  0
POLYLINE
  8
gg1
 62
1
 40
0.000000
 41
0.000000
 66
  1
  0
VERTEX
  8
gg1
 10
1.775000
 20
1.090000
  0
VERTEX
  8
gg1
 10
1.775000
 20
1.110000
  0
SEQEND
  8
gg1
  0
POLYLINE
  8
gg1
 62
1
 40
0.000000
 41
0.000000
 66
  1
  0
VERTEX
  8
gg1
 10
1.765000
 20
1.050000
  0
VERTEX
  8
gg1
 10
1.785000
 20
1.050000
  0
SEQEND
  8
gg1
  0
POLYLINE
  8
gg1
 62
1
 40
0.000000
 41
0.000000
 66
  1
  0
VERTEX
  8
gg1
 10
1.775000
 20
1.040000
  0
VERTEX
  8
gg1
 10
1.775000
 20
1.060000
  0
SEQEND
  8
gg1
  0
POLYLINE
  8
gg1
 62
1
 40
0.000000
 41
0.000000
 66
  1
  0
VERTEX
  8
gg1
 10
1.765000
 20
1.000000
  0
VERTEX
  8
gg1
 10
1.785000
 20
1.000000
  0
SEQEND
  8
gg1
  0
POLYLINE
  8
gg1
 62
1
 40
0.000000
 41
0.000000
 66
  1
  0
VERTEX
  8
gg1
 10
1.775000
 20
0.990000
  0
VERTEX
  8
gg1
 10
1.775000
 20
1.010000
  0
SEQEND
  8
gg1
  0
POLYLINE
  8
gg1
 62
1
 40
0.000000
 41
0.000000
 66
  1
  0
VERTEX
  8
gg1
 10
1.765000
 20
0.950000
  0
VERTEX
  8
gg1
 10
1.785000
 20
0.950000
  0
SEQEND
  8
gg1
  0
POLYLINE
  8
gg1
 62
1
 40
0.000000
 41
0.000000
 66
  1
  0
VERTEX
  8
gg1
 10
1.775000
 20
0.940000
  0
VERTEX
  8
gg1
 10
1.775000
 20
0.960000
  0
SEQEND
  8
gg1
  0
POLYLINE
  8
gg1
 62
1
 40
0.000000
 41
0.000000
 66
  1
  0
VERTEX
  8
gg1
 10
0.415000
 20
1.100000
  0
VERTEX
  8
gg1
 10
0.435000
 20
1.100000
  0
SEQEND
  8
gg1
  0
POLYLINE
  8
gg1
 62
1
 40
0.000000
 41
0.000000
 66
  1
  0
VERTEX
  8
gg1
 10
0.425000
 20
1.090000
  0
VERTEX
  8
gg1
 10
0.425000
 20
1.110000
  0
SEQEND
  8
gg1
  0
POLYLINE
  8
gg1
 62
1
 40
0.000000
 41
0.000000
 66
  1
  0
VERTEX
  8
gg1
 10
0.465000
 20
1.100000
  0
VERTEX
  8
gg1
 10
0.485000
 20
1.100000
  0
SEQEND
  8
gg1
  0
POLYLINE
  8
gg1
 62
1
 40
0.000000
 41
0.000000
 66
  1
  0
VERTEX
  8
gg1
 10
0.475000
 20
1.090000
  0
VERTEX
  8
gg1
 10
0.475000
 20
1.110000
  0
SEQEND
  8
gg1
  0
POLYLINE
  8
gg1
 62
1
 40
0.000000
 41
0.000000
 66
  1
  0
VERTEX
  8
gg1
 10
0.515000
 20
1.100000
  0
VERTEX
  8
gg1
 10
0.535000
 20
1.100000
  0
SEQEND
  8
gg1
  0
POLYLINE
  8
gg1
 62
1
 40
0.000000
 41
0.000000
 66
  1
  0
VERTEX
  8
gg1
 10
0.525000
 20
1.090000
  0
VERTEX
  8
gg1
 10
0.525000
 20
1.110000
  0
SEQEND
  8
gg1
  0
POLYLINE
  8
gg1
 62
1
 40
0.000000
 41
0.000000
 66
  1
  0
VERTEX
  8
gg1
 10
0.565000
 20
1.100000
  0
VERTEX
  8
gg1
 10
0.585000
 20
1.100000
  0
SEQEND
  8
gg1
  0
POLYLINE
  8
gg1
 62
1
 40
0.000000
 41
0.000000
 66
  1
  0
VERTEX
  8
gg1
 10
0.575000
 20
1.090000
  0
VERTEX
  8
gg1
 10
0.575000
 20
1.110000
  0
SEQEND
  8
gg1
  0
POLYLINE
  8
gg1
 62
1
 40
0.000000
 41
0.000000
 66
  1
  0
VERTEX
  8
gg1
 10
0.615000
 20
1.100000
  0
VERTEX
  8
gg1
 10
0.635000
 20
1.100000
  0
SEQEND
  8
gg1
  0
POLYLINE
  8
gg1
 62
1
 40
0.000000
 41
0.000000
 66
  1
  0
VERTEX
  8
gg1
 10
0.625000
 20
1.090000
  0
VERTEX
  8
gg1
 10
0.625000
 20
1.110000
  0
SEQEND
  8
gg1
  0
POLYLINE
  8
gg1
 62
1
 40
0.000000
 41
0.000000
 66
  1
  0
VERTEX
  8
gg1
 10
0.415000
 20
1.050000
  0
VERTEX
  8
gg1
 10
0.435000
 20
1.050000
  0
SEQEND
  8
gg1
  0
POLYLINE
  8
gg1
 62
1
 40
0.000000
 41
0.000000
 66
  1
  0
VERTEX
  8
gg1
 10
0.425000
 20
1.040000
  0
VERTEX
  8
gg1
 10
0.425000
 20
1.060000
  0
SEQEND
  8
gg1
  0
POLYLINE
  8
gg1
 62
1
 40
0.000000
 41
0.000000
 66
  1
  0
VERTEX
  8
gg1
 10
0.465000
 20
1.050000
  0
VERTEX
  8
gg1
 10
0.485000
 20
1.050000
  0
SEQEND
  8
gg1
  0
POLYLINE
  8
gg1
 62
1
 40
0.000000
 41
0.000000
 66
  1
  0
VERTEX
  8
gg1
 10
0.475000
 20
1.040000
  0
VERTEX
  8
gg1
 10
0.475000
 20
1.060000
  0
SEQEND
  8
gg1
  0
POLYLINE
  8
gg1
 62
1
 40
0.000000
 41
0.000000
 66
  1
  0
VERTEX
  8
gg1
 10
0.515000
 20
1.050000
  0
VERTEX
  8
gg1
 10
0.535000
 20
1.050000
  0
SEQEND
  8
gg1
  0
POLYLINE
  8
gg1
 62
1
 40
0.000000
 41
0.000000
 66
  1
  0
VERTEX
  8
gg1
 10
0.525000
 20
1.040000
  0
VERTEX
  8
gg1
 10
0.525000
 20
1.060000
  0
SEQEND
  8
gg1
  0
POLYLINE
  8
gg1
 62
1
 40
0.000000
 41
0.000000
 66
  1
  0
VERTEX
  8
gg1
 10
0.565000
 20
1.050000
  0
VERTEX
  8
gg1
 10
0.585000
 20
1.050000
  0
SEQEND
  8
gg1
  0
POLYLINE
  8
gg1
 62
1
 40
0.000000
 41
0.000000
 66
  1
  0
VERTEX
  8
gg1
 10
0.575000
 20
1.040000
  0
VERTEX
  8
gg1
 10
0.575000
 20
1.060000
  0
SEQEND
  8
gg1
  0
POLYLINE
  8
gg1
 62
1
 40
0.000000
 41
0.000000
 66
  1
  0
VERTEX
  8
gg1
 10
0.615000
 20
1.050000
  0
VERTEX
  8
gg1
 10
0.635000
 20
1.050000
  0
SEQEND
  8
gg1
  0
POLYLINE
  8
gg1
 62
1
 40
0.000000
 41
0.000000
 66
  1
  0
VERTEX
  8
gg1
 10
0.625000
 20
1.040000
  0
VERTEX
  8
gg1
 10
0.625000
 20
1.060000
  0
SEQEND
  8
gg1
  0
POLYLINE
  8
gg1
 62
1
 40
0.000000
 41
0.000000
 66
  1
  0
VERTEX
  8
gg1
 10
0.415000
 20
1.000000
  0
VERTEX
  8
gg1
 10
0.435000
 20
1.000000
  0
SEQEND
  8
gg1
  0
POLYLINE
  8
gg1
 62
1
 40
0.000000
 41
0.000000
 66
  1
  0
VERTEX
  8
gg1
 10
0.425000
 20
0.990000
  0
VERTEX
  8
gg1
 10
0.425000
 20
1.010000
  0
SEQEND
  8
gg1
  0
POLYLINE
  8
gg1
 62
1
 40
0.000000
 41
0.000000
 66
  1
  0
VERTEX
  8
gg1
 10
0.465000
 20
1.000000
  0
VERTEX
  8
gg1
 10
0.485000
 20
1.000000
  0
SEQEND
  8
gg1
  0
POLYLINE
  8
gg1
 62
1
 40
0.000000
 41
0.000000
 66
  1
  0
VERTEX
  8
gg1
 10
0.475000
 20
0.990000
  0
VERTEX
  8
gg1
 10
0.475000
 20
1.010000
  0
SEQEND
  8
gg1
  0
POLYLINE
  8
gg1
 62
1
 40
0.000000
 41
0.000000
 66
  1
  0
VERTEX
  8
gg1
 10
0.515000
 20
1.000000
  0
VERTEX
  8
gg1
 10
0.535000
 20
1.000000
  0
SEQEND
  8
gg1
  0
POLYLINE
  8
gg1
 62
1
 40
0.000000
 41
0.000000
 66
  1
  0
VERTEX
  8
gg1
 10
0.525000
 20
0.990000
  0
VERTEX
  8
gg1
 10
0.525000
 20
1.010000
  0
SEQEND
  8
gg1
  0
POLYLINE
  8
gg1
 62
1
 40
0.000000
 41
0.000000
 66
  1
  0
VERTEX
  8
gg1
 10
0.565000
 20
1.000000
  0
VERTEX
  8
gg1
 10
0.585000
 20
1.000000
  0
SEQEND
  8
gg1
  0
POLYLINE
  8
gg1
 62
1
 40
0.000000
 41
0.000000
 66
  1
  0
VERTEX
  8
gg1
 10
0.575000
 20
0.990000
  0
VERTEX
  8
gg1
 10
0.575000
 20
1.010000
  0
SEQEND
  8
gg1
  0
POLYLINE
  8
gg1
 62
1
 40
0.000000
 41
0.000000
 66
  1
  0
VERTEX
  8
gg1
 10
0.615000
 20
1.000000
  0
VERTEX
  8
gg1
 10
0.635000
 20
1.000000
  0
SEQEND
  8
gg1
  0
POLYLINE
  8
gg1
 62
1
 40
0.000000
 41
0.000000
 66
  1
  0
VERTEX
  8
gg1
 10
0.625000
 20
0.990000
  0
VERTEX
  8
gg1
 10
0.625000
 20
1.010000
  0
SEQEND
  8
gg1
  0
POLYLINE
  8
gg1
 62
1
 40
0.000000
 41
0.000000
 66
  1
  0
VERTEX
  8
gg1
 10
0.415000
 20
0.950000
  0
VERTEX
  8
gg1
 10
0.435000
 20
0.950000
  0
SEQEND
  8
gg1
  0
POLYLINE
  8
gg1
 62
1
 40
0.000000
 41
0.000000
 66
  1
  0
VERTEX
  8
gg1
 10
0.425000
 20
0.940000
  0
VERTEX
  8
gg1
 10
0.425000
 20
0.960000
  0
SEQEND
  8
gg1
  0
POLYLINE
  8
gg1
 62
1
 40
0.000000
 41
0.000000
 66
  1
  0
VERTEX
  8
gg1
 10
0.465000
 20
0.950000
  0
VERTEX
  8
gg1
 10
0.485000
 20
0.950000
  0
SEQEND
  8
gg1
  0
POLYLINE
  8
gg1
 62
1
 40
0.000000
 41
0.000000
 66
  1
  0
VERTEX
  8
gg1
 10
0.475000
 20
0.940000
  0
VERTEX
  8
gg1
 10
0.475000
 20
0.960000
  0
SEQEND
  8
gg1
  0
POLYLINE
  8
gg1
 62
1
 40
0.000000
 41
0.000000
 66
  1
  0
VERTEX
  8
gg1
 10
0.515000
 20
0.950000
  0
VERTEX
  8
gg1
 10
0.535000
 20
0.950000
  0
SEQEND
  8
gg1
  0
POLYLINE
  8
gg1
 62
1
 40
0.000000
 41
0.000000
 66
  1
  0
VERTEX
  8
gg1
 10
0.525000
 20
0.940000
  0
VERTEX
  8
gg1
 10
0.525000
 20
0.960000
  0
SEQEND
  8
gg1
  0
POLYLINE
  8
gg1
 62
1
 40
0.000000
 41
0.000000
 66
  1
  0
VERTEX
  8
gg1
 10
0.565000
 20
0.950000
  0
VERTEX
  8
gg1
 10
0.585000
 20
0.950000
  0
SEQEND
  8
gg1
  0
POLYLINE
  8
gg1
 62
1
 40
0.000000
 41
0.000000
 66
  1
  0
VERTEX
  8
gg1
 10
0.575000
 20
0.940000
  0
VERTEX
  8
gg1
 10
0.575000
 20
0.960000
  0
SEQEND
  8
gg1
  0
POLYLINE
  8
gg1
 62
1
 40
0.000000
 41
0.000000
 66
  1
  0
VERTEX
  8
gg1
 10
0.615000
 20
0.950000
  0
VERTEX
  8
gg1
 10
0.635000
 20
0.950000
  0
SEQEND
  8
gg1
  0
POLYLINE
  8
gg1
 62
1
 40
0.000000
 41
0.000000
 66
  1
  0
VERTEX
  8
gg1
 10
0.625000
 20
0.940000
  0
VERTEX
  8
gg1
 10
0.625000
 20
0.960000
  0
SEQEND
  8
gg1
  0
POLYLINE
  8
gg1
 62
1
 40
0.000000
 41
0.000000
 66
  1
  0
VERTEX
  8
gg1
 10
0.290000
 20
1.100000
  0
VERTEX
  8
gg1
 10
0.310000
 20
1.100000
  0
SEQEND
  8
gg1
  0
POLYLINE
  8
gg1
 62
1
 40
0.000000
 41
0.000000
 66
  1
  0
VERTEX
  8
gg1
 10
0.300000
 20
1.090000
  0
VERTEX
  8
gg1
 10
0.300000
 20
1.110000
  0
SEQEND
  8
gg1
  0
POLYLINE
  8
gg1
 62
1
 40
0.000000
 41
0.000000
 66
  1
  0
VERTEX
  8
gg1
 10
0.240000
 20
1.100000
  0
VERTEX
  8
gg1
 10
0.260000
 20
1.100000
  0
SEQEND
  8
gg1
  0
POLYLINE
  8
gg1
 62
1
 40
0.000000
 41
0.000000
 66
  1
  0
VERTEX
  8
gg1
 10
0.250000
 20
1.090000
  0
VERTEX
  8
gg1
 10
0.250000
 20
1.110000
  0
SEQEND
  8
gg1
  0
POLYLINE
  8
gg1
 62
1
 40
0.000000
 41
0.000000
 66
  1
  0
VERTEX
  8
gg1
 10
0.190000
 20
1.100000
  0
VERTEX
  8
gg1
 10
0.210000
 20
1.100000
  0
SEQEND
  8
gg1
  0
POLYLINE
  8
gg1
 62
1
 40
0.000000
 41
0.000000
 66
  1
  0
VERTEX
  8
gg1
 10
0.200000
 20
1.090000
  0
VERTEX
  8
gg1
 10
0.200000
 20
1.110000
  0
SEQEND
  8
gg1
  0
POLYLINE
  8
gg1
 62
1
 40
0.000000
 41
0.000000
 66
  1
  0
VERTEX
  8
gg1
 10
0.140000
 20
1.100000
  0
VERTEX
  8
gg1
 10
0.160000
 20
1.100000
  0
SEQEND
  8
gg1
  0
POLYLINE
  8
gg1
 62
1
 40
0.000000
 41
0.000000
 66
  1
  0
VERTEX
  8
gg1
 10
0.150000
 20
1.090000
  0
VERTEX
  8
gg1
 10
0.150000
 20
1.110000
  0
SEQEND
  8
gg1
  0
POLYLINE
  8
gg1
 62
1
 40
0.000000
 41
0.000000
 66
  1
  0
VERTEX
  8
gg1
 10
0.090000
 20
1.100000
  0
VERTEX
  8
gg1
 10
0.110000
 20
1.100000
  0
SEQEND
  8
gg1
  0
POLYLINE
  8
gg1
 62
1
 40
0.000000
 41
0.000000
 66
  1
  0
VERTEX
  8
gg1
 10
0.100000
 20
1.090000
  0
VERTEX
  8
gg1
 10
0.100000
 20
1.110000
  0
SEQEND
  8
gg1
  0
POLYLINE
  8
gg1
 62
1
 40
0.000000
 41
0.000000
 66
  1
  0
VERTEX
  8
gg1
 10
0.290000
 20
1.050000
  0
VERTEX
  8
gg1
 10
0.310000
 20
1.050000
  0
SEQEND
  8
gg1
  0
POLYLINE
  8
gg1
 62
1
 40
0.000000
 41
0.000000
 66
  1
  0
VERTEX
  8
gg1
 10
0.300000
 20
1.040000
  0
VERTEX
  8
gg1
 10
0.300000
 20
1.060000
  0
SEQEND
  8
gg1
  0
POLYLINE
  8
gg1
 62
1
 40
0.000000
 41
0.000000
 66
  1
  0
VERTEX
  8
gg1
 10
0.240000
 20
1.050000
  0
VERTEX
  8
gg1
 10
0.260000
 20
1.050000
  0
SEQEND
  8
gg1
  0
POLYLINE
  8
gg1
 62
1
 40
0.000000
 41
0.000000
 66
  1
  0
VERTEX
  8
gg1
 10
0.250000
 20
1.040000
  0
VERTEX
  8
gg1
 10
0.250000
 20
1.060000
  0
SEQEND
  8
gg1
  0
POLYLINE
  8
gg1
 62
1
 40
0.000000
 41
0.000000
 66
  1
  0
VERTEX
  8
gg1
 10
0.190000
 20
1.050000
  0
VERTEX
  8
gg1
 10
0.210000
 20
1.050000
  0
SEQEND
  8
gg1
  0
POLYLINE
  8
gg1
 62
1
 40
0.000000
 41
0.000000
 66
  1
  0
VERTEX
  8
gg1
 10
0.200000
 20
1.040000
  0
VERTEX
  8
gg1
 10
0.200000
 20
1.060000
  0
SEQEND
  8
gg1
  0
POLYLINE
  8
gg1
 62
1
 40
0.000000
 41
0.000000
 66
  1
  0
VERTEX
  8
gg1
 10
0.140000
 20
1.050000
  0
VERTEX
  8
gg1
 10
0.160000
 20
1.050000
  0
SEQEND
  8
gg1
  0
POLYLINE
  8
gg1
 62
1
 40
0.000000
 41
0.000000
 66
  1
  0
VERTEX
  8
gg1
 10
0.150000
 20
1.040000
  0
VERTEX
  8
gg1
 10
0.150000
 20
1.060000
  0
SEQEND
  8
gg1
  0
POLYLINE
  8
gg1
 62
1
 40
0.000000
 41
0.000000
 66
  1
  0
VERTEX
  8
gg1
 10
0.090000
 20
1.050000
  0
VERTEX
  8
gg1
 10
0.110000
 20
1.050000
  0
SEQEND
  8
gg1
  0
POLYLINE
  8
gg1
 62
1
 40
0.000000
 41
0.000000
 66
  1
  0
VERTEX
  8
gg1
 10
0.100000
 20
1.040000
  0
VERTEX
  8
gg1
 10
0.100000
 20
1.060000
  0
SEQEND
  8
gg1
  0
POLYLINE
  8
gg1
 62
1
 40
0.000000
 41
0.000000
 66
  1
  0
VERTEX
  8
gg1
 10
0.090000
 20
1.000000
  0
VERTEX
  8
gg1
 10
0.110000
 20
1.000000
  0
SEQEND
  8
gg1
  0
POLYLINE
  8
gg1
 62
1
 40
0.000000
 41
0.000000
 66
  1
  0
VERTEX
  8
gg1
 10
0.100000
 20
0.990000
  0
VERTEX
  8
gg1
 10
0.100000
 20
1.010000
  0
SEQEND
  8
gg1
  0
POLYLINE
  8
gg1
 62
1
 40
0.000000
 41
0.000000
 66
  1
  0
VERTEX
  8
gg1
 10
0.140000
 20
1.000000
  0
VERTEX
  8
gg1
 10
0.160000
 20
1.000000
  0
SEQEND
  8
gg1
  0
POLYLINE
  8
gg1
 62
1
 40
0.000000
 41
0.000000
 66
  1
  0
VERTEX
  8
gg1
 10
0.150000
 20
0.990000
  0
VERTEX
  8
gg1
 10
0.150000
 20
1.010000
  0
SEQEND
  8
gg1
  0
POLYLINE
  8
gg1
 62
1
 40
0.000000
 41
0.000000
 66
  1
  0
VERTEX
  8
gg1
 10
0.190000
 20
1.000000
  0
VERTEX
  8
gg1
 10
0.210000
 20
1.000000
  0
SEQEND
  8
gg1
  0
POLYLINE
  8
gg1
 62
1
 40
0.000000
 41
0.000000
 66
  1
  0
VERTEX
  8
gg1
 10
0.200000
 20
0.990000
  0
VERTEX
  8
gg1
 10
0.200000
 20
1.010000
  0
SEQEND
  8
gg1
  0
POLYLINE
  8
gg1
 62
1
 40
0.000000
 41
0.000000
 66
  1
  0
VERTEX
  8
gg1
 10
0.240000
 20
1.000000
  0
VERTEX
  8
gg1
 10
0.260000
 20
1.000000
  0
SEQEND
  8
gg1
  0
POLYLINE
  8
gg1
 62
1
 40
0.000000
 41
0.000000
 66
  1
  0
VERTEX
  8
gg1
 10
0.250000
 20
0.990000
  0
VERTEX
  8
gg1
 10
0.250000
 20
1.010000
  0
SEQEND
  8
gg1
  0
POLYLINE
  8
gg1
 62
1
 40
0.000000
 41
0.000000
 66
  1
  0
VERTEX
  8
gg1
 10
0.290000
 20
1.000000
  0
VERTEX
  8
gg1
 10
0.310000
 20
1.000000
  0
SEQEND
  8
gg1
  0
POLYLINE
  8
gg1
 62
1
 40
0.000000
 41
0.000000
 66
  1
  0
VERTEX
  8
gg1
 10
0.300000
 20
0.990000
  0
VERTEX
  8
gg1
 10
0.300000
 20
1.010000
  0
SEQEND
  8
gg1
  0
POLYLINE
  8
gg1
 62
1
 40
0.000000
 41
0.000000
 66
  1
  0
VERTEX
  8
gg1
 10
0.290000
 20
0.950000
  0
VERTEX
  8
gg1
 10
0.310000
 20
0.950000
  0
SEQEND
  8
gg1
  0
POLYLINE
  8
gg1
 62
1
 40
0.000000
 41
0.000000
 66
  1
  0
VERTEX
  8
gg1
 10
0.300000
 20
0.940000
  0
VERTEX
  8
gg1
 10
0.300000
 20
0.960000
  0
SEQEND
  8
gg1
  0
POLYLINE
  8
gg1
 62
1
 40
0.000000
 41
0.000000
 66
  1
  0
VERTEX
  8
gg1
 10
0.240000
 20
0.950000
  0
VERTEX
  8
gg1
 10
0.260000
 20
0.950000
  0
SEQEND
  8
gg1
  0
POLYLINE
  8
gg1
 62
1
 40
0.000000
 41
0.000000
 66
  1
  0
VERTEX
  8
gg1
 10
0.250000
 20
0.940000
  0
VERTEX
  8
gg1
 10
0.250000
 20
0.960000
  0
SEQEND
  8
gg1
  0
POLYLINE
  8
gg1
 62
1
 40
0.000000
 41
0.000000
 66
  1
  0
VERTEX
  8
gg1
 10
0.190000
 20
0.950000
  0
VERTEX
  8
gg1
 10
0.210000
 20
0.950000
  0
SEQEND
  8
gg1
  0
POLYLINE
  8
gg1
 62
1
 40
0.000000
 41
0.000000
 66
  1
  0
VERTEX
  8
gg1
 10
0.200000
 20
0.940000
  0
VERTEX
  8
gg1
 10
0.200000
 20
0.960000
  0
SEQEND
  8
gg1
  0
POLYLINE
  8
gg1
 62
1
 40
0.000000
 41
0.000000
 66
  1
  0
VERTEX
  8
gg1
 10
0.140000
 20
0.950000
  0
VERTEX
  8
gg1
 10
0.160000
 20
0.950000
  0
SEQEND
  8
gg1
  0
POLYLINE
  8
gg1
 62
1
 40
0.000000
 41
0.000000
 66
  1
  0
VERTEX
  8
gg1
 10
0.150000
 20
0.940000
  0
VERTEX
  8
gg1
 10
0.150000
 20
0.960000
  0
SEQEND
  8
gg1
  0
POLYLINE
  8
gg1
 62
1
 40
0.000000
 41
0.000000
 66
  1
  0
VERTEX
  8
gg1
 10
0.090000
 20
0.950000
  0
VERTEX
  8
gg1
 10
0.110000
 20
0.950000
  0
SEQEND
  8
gg1
  0
POLYLINE
  8
gg1
 62
1
 40
0.000000
 41
0.000000
 66
  1
  0
VERTEX
  8
gg1
 10
0.100000
 20
0.940000
  0
VERTEX
  8
gg1
 10
0.100000
 20
0.960000
  0
SEQEND
  8
gg1
  0
POLYLINE
  8
gg1
 62
1
 40
0.000000
 41
0.000000
 66
  1
  0
VERTEX
  8
gg1
 10
1.665000
 20
1.400000
  0
VERTEX
  8
gg1
 10
1.685000
 20
1.400000
  0
SEQEND
  8
gg1
  0
POLYLINE
  8
gg1
 62
1
 40
0.000000
 41
0.000000
 66
  1
  0
VERTEX
  8
gg1
 10
1.675000
 20
1.390000
  0
VERTEX
  8
gg1
 10
1.675000
 20
1.410000
  0
SEQEND
  8
gg1
  0
POLYLINE
  8
gg1
 62
1
 40
0.000000
 41
0.000000
 66
  1
  0
VERTEX
  8
gg1
 10
1.565000
 20
1.400000
  0
VERTEX
  8
gg1
 10
1.585000
 20
1.400000
  0
SEQEND
  8
gg1
  0
POLYLINE
  8
gg1
 62
1
 40
0.000000
 41
0.000000
 66
  1
  0
VERTEX
  8
gg1
 10
1.575000
 20
1.390000
  0
VERTEX
  8
gg1
 10
1.575000
 20
1.410000
  0
SEQEND
  8
gg1
  0
POLYLINE
  8
gg1
 62
1
 40
0.000000
 41
0.000000
 66
  1
  0
VERTEX
  8
gg1
 10
1.615000
 20
1.400000
  0
VERTEX
  8
gg1
 10
1.635000
 20
1.400000
  0
SEQEND
  8
gg1
  0
POLYLINE
  8
gg1
 62
1
 40
0.000000
 41
0.000000
 66
  1
  0
VERTEX
  8
gg1
 10
1.625000
 20
1.390000
  0
VERTEX
  8
gg1
 10
1.625000
 20
1.410000
  0
SEQEND
  8
gg1
  0
POLYLINE
  8
gg1
 62
1
 40
0.000000
 41
0.000000
 66
  1
  0
VERTEX
  8
gg1
 10
1.515000
 20
1.400000
  0
VERTEX
  8
gg1
 10
1.535000
 20
1.400000
  0
SEQEND
  8
gg1
  0
POLYLINE
  8
gg1
 62
1
 40
0.000000
 41
0.000000
 66
  1
  0
VERTEX
  8
gg1
 10
1.525000
 20
1.390000
  0
VERTEX
  8
gg1
 10
1.525000
 20
1.410000
  0
SEQEND
  8
gg1
  0
POLYLINE
  8
gg1
 62
1
 40
0.000000
 41
0.000000
 66
  1
  0
VERTEX
  8
gg1
 10
1.465000
 20
1.400000
  0
VERTEX
  8
gg1
 10
1.485000
 20
1.400000
  0
SEQEND
  8
gg1
  0
POLYLINE
  8
gg1
 62
1
 40
0.000000
 41
0.000000
 66
  1
  0
VERTEX
  8
gg1
 10
1.475000
 20
1.390000
  0
VERTEX
  8
gg1
 10
1.475000
 20
1.410000
  0
SEQEND
  8
gg1
  0
POLYLINE
  8
gg1
 62
1
 40
0.000000
 41
0.000000
 66
  1
  0
VERTEX
  8
gg1
 10
1.415000
 20
1.400000
  0
VERTEX
  8
gg1
 10
1.435000
 20
1.400000
  0
SEQEND
  8
gg1
  0
POLYLINE
  8
gg1
 62
1
 40
0.000000
 41
0.000000
 66
  1
  0
VERTEX
  8
gg1
 10
1.425000
 20
1.390000
  0
VERTEX
  8
gg1
 10
1.425000
 20
1.410000
  0
SEQEND
  8
gg1
  0
POLYLINE
  8
gg1
 62
1
 40
0.000000
 41
0.000000
 66
  1
  0
VERTEX
  8
gg1
 10
1.365000
 20
1.400000
  0
VERTEX
  8
gg1
 10
1.385000
 20
1.400000
  0
SEQEND
  8
gg1
  0
POLYLINE
  8
gg1
 62
1
 40
0.000000
 41
0.000000
 66
  1
  0
VERTEX
  8
gg1
 10
1.375000
 20
1.390000
  0
VERTEX
  8
gg1
 10
1.375000
 20
1.410000
  0
SEQEND
  8
gg1
  0
POLYLINE
  8
gg1
 62
1
 40
0.000000
 41
0.000000
 66
  1
  0
VERTEX
  8
gg1
 10
1.315000
 20
1.400000
  0
VERTEX
  8
gg1
 10
1.335000
 20
1.400000
  0
SEQEND
  8
gg1
  0
POLYLINE
  8
gg1
 62
1
 40
0.000000
 41
0.000000
 66
  1
  0
VERTEX
  8
gg1
 10
1.325000
 20
1.390000
  0
VERTEX
  8
gg1
 10
1.325000
 20
1.410000
  0
SEQEND
  8
gg1
  0
POLYLINE
  8
gg1
 62
1
 40
0.000000
 41
0.000000
 66
  1
  0
VERTEX
  8
gg1
 10
1.265000
 20
1.400000
  0
VERTEX
  8
gg1
 10
1.285000
 20
1.400000
  0
SEQEND
  8
gg1
  0
POLYLINE
  8
gg1
 62
1
 40
0.000000
 41
0.000000
 66
  1
  0
VERTEX
  8
gg1
 10
1.275000
 20
1.390000
  0
VERTEX
  8
gg1
 10
1.275000
 20
1.410000
  0
SEQEND
  8
gg1
  0
POLYLINE
  8
gg1
 62
1
 40
0.000000
 41
0.000000
 66
  1
  0
VERTEX
  8
gg1
 10
1.215000
 20
1.400000
  0
VERTEX
  8
gg1
 10
1.235000
 20
1.400000
  0
SEQEND
  8
gg1
  0
POLYLINE
  8
gg1
 62
1
 40
0.000000
 41
0.000000
 66
  1
  0
VERTEX
  8
gg1
 10
1.225000
 20
1.390000
  0
VERTEX
  8
gg1
 10
1.225000
 20
1.410000
  0
SEQEND
  8
gg1
  0
POLYLINE
  8
gg1
 62
1
 40
0.000000
 41
0.000000
 66
  1
  0
VERTEX
  8
gg1
 10
1.215000
 20
1.350000
  0
VERTEX
  8
gg1
 10
1.235000
 20
1.350000
  0
SEQEND
  8
gg1
  0
POLYLINE
  8
gg1
 62
1
 40
0.000000
 41
0.000000
 66
  1
  0
VERTEX
  8
gg1
 10
1.225000
 20
1.340000
  0
VERTEX
  8
gg1
 10
1.225000
 20
1.360000
  0
SEQEND
  8
gg1
  0
POLYLINE
  8
gg1
 62
1
 40
0.000000
 41
0.000000
 66
  1
  0
VERTEX
  8
gg1
 10
1.215000
 20
1.300000
  0
VERTEX
  8
gg1
 10
1.235000
 20
1.300000
  0
SEQEND
  8
gg1
  0
POLYLINE
  8
gg1
 62
1
 40
0.000000
 41
0.000000
 66
  1
  0
VERTEX
  8
gg1
 10
1.225000
 20
1.290000
  0
VERTEX
  8
gg1
 10
1.225000
 20
1.310000
  0
SEQEND
  8
gg1
  0
POLYLINE
  8
gg1
 62
1
 40
0.000000
 41
0.000000
 66
  1
  0
VERTEX
  8
gg1
 10
1.215000
 20
1.250000
  0
VERTEX
  8
gg1
 10
1.235000
 20
1.250000
  0
SEQEND
  8
gg1
  0
POLYLINE
  8
gg1
 62
1
 40
0.000000
 41
0.000000
 66
  1
  0
VERTEX
  8
gg1
 10
1.225000
 20
1.240000
  0
VERTEX
  8
gg1
 10
1.225000
 20
1.260000
  0
SEQEND
  8
gg1
  0
POLYLINE
  8
gg1
 62
1
 40
0.000000
 41
0.000000
 66
  1
  0
VERTEX
  8
gg1
 10
1.215000
 20
1.200000
  0
VERTEX
  8
gg1
 10
1.235000
 20
1.200000
  0
SEQEND
  8
gg1
  0
POLYLINE
  8
gg1
 62
1
 40
0.000000
 41
0.000000
 66
  1
  0
VERTEX
  8
gg1
 10
1.225000
 20
1.190000
  0
VERTEX
  8
gg1
 10
1.225000
 20
1.210000
  0
SEQEND
  8
gg1
  0
POLYLINE
  8
gg1
 62
1
 40
0.000000
 41
0.000000
 66
  1
  0
VERTEX
  8
gg1
 10
1.165000
 20
1.200000
  0
VERTEX
  8
gg1
 10
1.185000
 20
1.200000
  0
SEQEND
  8
gg1
  0
POLYLINE
  8
gg1
 62
1
 40
0.000000
 41
0.000000
 66
  1
  0
VERTEX
  8
gg1
 10
1.175000
 20
1.190000
  0
VERTEX
  8
gg1
 10
1.175000
 20
1.210000
  0
SEQEND
  8
gg1
  0
POLYLINE
  8
gg1
 62
1
 40
0.000000
 41
0.000000
 66
  1
  0
VERTEX
  8
gg1
 10
1.165000
 20
1.250000
  0
VERTEX
  8
gg1
 10
1.185000
 20
1.250000
  0
SEQEND
  8
gg1
  0
POLYLINE
  8
gg1
 62
1
 40
0.000000
 41
0.000000
 66
  1
  0
VERTEX
  8
gg1
 10
1.175000
 20
1.240000
  0
VERTEX
  8
gg1
 10
1.175000
 20
1.260000
  0
SEQEND
  8
gg1
  0
POLYLINE
  8
gg1
 62
1
 40
0.000000
 41
0.000000
 66
  1
  0
VERTEX
  8
gg1
 10
1.165000
 20
1.300000
  0
VERTEX
  8
gg1
 10
1.185000
 20
1.300000
  0
SEQEND
  8
gg1
  0
POLYLINE
  8
gg1
 62
1
 40
0.000000
 41
0.000000
 66
  1
  0
VERTEX
  8
gg1
 10
1.175000
 20
1.290000
  0
VERTEX
  8
gg1
 10
1.175000
 20
1.310000
  0
SEQEND
  8
gg1
  0
POLYLINE
  8
gg1
 62
1
 40
0.000000
 41
0.000000
 66
  1
  0
VERTEX
  8
gg1
 10
1.165000
 20
1.350000
  0
VERTEX
  8
gg1
 10
1.185000
 20
1.350000
  0
SEQEND
  8
gg1
  0
POLYLINE
  8
gg1
 62
1
 40
0.000000
 41
0.000000
 66
  1
  0
VERTEX
  8
gg1
 10
1.175000
 20
1.340000
  0
VERTEX
  8
gg1
 10
1.175000
 20
1.360000
  0
SEQEND
  8
gg1
  0
POLYLINE
  8
gg1
 62
1
 40
0.000000
 41
0.000000
 66
  1
  0
VERTEX
  8
gg1
 10
1.165000
 20
1.400000
  0
VERTEX
  8
gg1
 10
1.185000
 20
1.400000
  0
SEQEND
  8
gg1
  0
POLYLINE
  8
gg1
 62
1
 40
0.000000
 41
0.000000
 66
  1
  0
VERTEX
  8
gg1
 10
1.175000
 20
1.390000
  0
VERTEX
  8
gg1
 10
1.175000
 20
1.410000
  0
SEQEND
  8
gg1
  0
POLYLINE
  8
gg1
 62
1
 40
0.000000
 41
0.000000
 66
  1
  0
VERTEX
  8
gg1
 10
1.115000
 20
1.400000
  0
VERTEX
  8
gg1
 10
1.135000
 20
1.400000
  0
SEQEND
  8
gg1
  0
POLYLINE
  8
gg1
 62
1
 40
0.000000
 41
0.000000
 66
  1
  0
VERTEX
  8
gg1
 10
1.125000
 20
1.390000
  0
VERTEX
  8
gg1
 10
1.125000
 20
1.410000
  0
SEQEND
  8
gg1
  0
POLYLINE
  8
gg1
 62
1
 40
0.000000
 41
0.000000
 66
  1
  0
VERTEX
  8
gg1
 10
1.115000
 20
1.350000
  0
VERTEX
  8
gg1
 10
1.135000
 20
1.350000
  0
SEQEND
  8
gg1
  0
POLYLINE
  8
gg1
 62
1
 40
0.000000
 41
0.000000
 66
  1
  0
VERTEX
  8
gg1
 10
1.125000
 20
1.340000
  0
VERTEX
  8
gg1
 10
1.125000
 20
1.360000
  0
SEQEND
  8
gg1
  0
POLYLINE
  8
gg1
 62
1
 40
0.000000
 41
0.000000
 66
  1
  0
VERTEX
  8
gg1
 10
1.115000
 20
1.300000
  0
VERTEX
  8
gg1
 10
1.135000
 20
1.300000
  0
SEQEND
  8
gg1
  0
POLYLINE
  8
gg1
 62
1
 40
0.000000
 41
0.000000
 66
  1
  0
VERTEX
  8
gg1
 10
1.125000
 20
1.290000
  0
VERTEX
  8
gg1
 10
1.125000
 20
1.310000
  0
SEQEND
  8
gg1
  0
POLYLINE
  8
gg1
 62
1
 40
0.000000
 41
0.000000
 66
  1
  0
VERTEX
  8
gg1
 10
1.115000
 20
1.250000
  0
VERTEX
  8
gg1
 10
1.135000
 20
1.250000
  0
SEQEND
  8
gg1
  0
POLYLINE
  8
gg1
 62
1
 40
0.000000
 41
0.000000
 66
  1
  0
VERTEX
  8
gg1
 10
1.125000
 20
1.240000
  0
VERTEX
  8
gg1
 10
1.125000
 20
1.260000
  0
SEQEND
  8
gg1
  0
POLYLINE
  8
gg1
 62
1
 40
0.000000
 41
0.000000
 66
  1
  0
VERTEX
  8
gg1
 10
1.115000
 20
1.200000
  0
VERTEX
  8
gg1
 10
1.135000
 20
1.200000
  0
SEQEND
  8
gg1
  0
POLYLINE
  8
gg1
 62
1
 40
0.000000
 41
0.000000
 66
  1
  0
VERTEX
  8
gg1
 10
1.125000
 20
1.190000
  0
VERTEX
  8
gg1
 10
1.125000
 20
1.210000
  0
SEQEND
  8
gg1
  0
POLYLINE
  8
gg1
 62
1
 40
0.000000
 41
0.000000
 66
  1
  0
VERTEX
  8
gg1
 10
1.090000
 20
1.140000
  0
VERTEX
  8
gg1
 10
1.110000
 20
1.140000
  0
SEQEND
  8
gg1
  0
POLYLINE
  8
gg1
 62
1
 40
0.000000
 41
0.000000
 66
  1
  0
VERTEX
  8
gg1
 10
1.100000
 20
1.130000
  0
VERTEX
  8
gg1
 10
1.100000
 20
1.150000
  0
SEQEND
  8
gg1
  0
POLYLINE
  8
gg1
 62
1
 40
0.000000
 41
0.000000
 66
  1
  0
VERTEX
  8
gg1
 10
1.090000
 20
1.060000
  0
VERTEX
  8
gg1
 10
1.110000
 20
1.060000
  0
SEQEND
  8
gg1
  0
POLYLINE
  8
gg1
 62
1
 40
0.000000
 41
0.000000
 66
  1
  0
VERTEX
  8
gg1
 10
1.100000
 20
1.050000
  0
VERTEX
  8
gg1
 10
1.100000
 20
1.070000
  0
SEQEND
  8
gg1
  0
POLYLINE
  8
gg1
 62
1
 40
0.000000
 41
0.000000
 66
  1
  0
VERTEX
  8
gg1
 10
1.065000
 20
1.200000
  0
VERTEX
  8
gg1
 10
1.085000
 20
1.200000
  0
SEQEND
  8
gg1
  0
POLYLINE
  8
gg1
 62
1
 40
0.000000
 41
0.000000
 66
  1
  0
VERTEX
  8
gg1
 10
1.075000
 20
1.190000
  0
VERTEX
  8
gg1
 10
1.075000
 20
1.210000
  0
SEQEND
  8
gg1
  0
POLYLINE
  8
gg1
 62
1
 40
0.000000
 41
0.000000
 66
  1
  0
VERTEX
  8
gg1
 10
1.070000
 20
1.280000
  0
VERTEX
  8
gg1
 10
1.090000
 20
1.280000
  0
SEQEND
  8
gg1
  0
POLYLINE
  8
gg1
 62
1
 40
0.000000
 41
0.000000
 66
  1
  0
VERTEX
  8
gg1
 10
1.080000
 20
1.270000
  0
VERTEX
  8
gg1
 10
1.080000
 20
1.290000
  0
SEQEND
  8
gg1
  0
POLYLINE
  8
gg1
 62
1
 40
0.000000
 41
0.000000
 66
  1
  0
VERTEX
  8
gg1
 10
1.010000
 20
1.260000
  0
VERTEX
  8
gg1
 10
1.030000
 20
1.260000
  0
SEQEND
  8
gg1
  0
POLYLINE
  8
gg1
 62
1
 40
0.000000
 41
0.000000
 66
  1
  0
VERTEX
  8
gg1
 10
1.020000
 20
1.250000
  0
VERTEX
  8
gg1
 10
1.020000
 20
1.270000
  0
SEQEND
  8
gg1
  0
POLYLINE
  8
gg1
 62
1
 40
0.000000
 41
0.000000
 66
  1
  0
VERTEX
  8
gg1
 10
1.010000
 20
1.180000
  0
VERTEX
  8
gg1
 10
1.030000
 20
1.180000
  0
SEQEND
  8
gg1
  0
POLYLINE
  8
gg1
 62
1
 40
0.000000
 41
0.000000
 66
  1
  0
VERTEX
  8
gg1
 10
1.020000
 20
1.170000
  0
VERTEX
  8
gg1
 10
1.020000
 20
1.190000
  0
SEQEND
  8
gg1
  0
POLYLINE
  8
gg1
 62
1
 40
0.000000
 41
0.000000
 66
  1
  0
VERTEX
  8
gg1
 10
1.030000
 20
1.100000
  0
VERTEX
  8
gg1
 10
1.050000
 20
1.100000
  0
SEQEND
  8
gg1
  0
POLYLINE
  8
gg1
 62
1
 40
0.000000
 41
0.000000
 66
  1
  0
VERTEX
  8
gg1
 10
1.040000
 20
1.090000
  0
VERTEX
  8
gg1
 10
1.040000
 20
1.110000
  0
SEQEND
  8
gg1
  0
POLYLINE
  8
gg1
 62
1
 40
0.000000
 41
0.000000
 66
  1
  0
VERTEX
  8
gg1
 10
1.030000
 20
1.020000
  0
VERTEX
  8
gg1
 10
1.050000
 20
1.020000
  0
SEQEND
  8
gg1
  0
POLYLINE
  8
gg1
 62
1
 40
0.000000
 41
0.000000
 66
  1
  0
VERTEX
  8
gg1
 10
1.040000
 20
1.010000
  0
VERTEX
  8
gg1
 10
1.040000
 20
1.030000
  0
SEQEND
  8
gg1
  0
POLYLINE
  8
gg1
 62
1
 40
0.000000
 41
0.000000
 66
  1
  0
VERTEX
  8
gg1
 10
1.090000
 20
0.980000
  0
VERTEX
  8
gg1
 10
1.110000
 20
0.980000
  0
SEQEND
  8
gg1
  0
POLYLINE
  8
gg1
 62
1
 40
0.000000
 41
0.000000
 66
  1
  0
VERTEX
  8
gg1
 10
1.100000
 20
0.970000
  0
VERTEX
  8
gg1
 10
1.100000
 20
0.990000
  0
SEQEND
  8
gg1
  0
POLYLINE
  8
gg1
 62
1
 40
0.000000
 41
0.000000
 66
  1
  0
VERTEX
  8
gg1
 10
0.140000
 20
1.400000
  0
VERTEX
  8
gg1
 10
0.160000
 20
1.400000
  0
SEQEND
  8
gg1
  0
POLYLINE
  8
gg1
 62
1
 40
0.000000
 41
0.000000
 66
  1
  0
VERTEX
  8
gg1
 10
0.150000
 20
1.390000
  0
VERTEX
  8
gg1
 10
0.150000
 20
1.410000
  0
SEQEND
  8
gg1
  0
POLYLINE
  8
gg1
 62
1
 40
0.000000
 41
0.000000
 66
  1
  0
VERTEX
  8
gg1
 10
0.190000
 20
1.400000
  0
VERTEX
  8
gg1
 10
0.210000
 20
1.400000
  0
SEQEND
  8
gg1
  0
POLYLINE
  8
gg1
 62
1
 40
0.000000
 41
0.000000
 66
  1
  0
VERTEX
  8
gg1
 10
0.200000
 20
1.390000
  0
VERTEX
  8
gg1
 10
0.200000
 20
1.410000
  0
SEQEND
  8
gg1
  0
POLYLINE
  8
gg1
 62
1
 40
0.000000
 41
0.000000
 66
  1
  0
VERTEX
  8
gg1
 10
0.240000
 20
1.400000
  0
VERTEX
  8
gg1
 10
0.260000
 20
1.400000
  0
SEQEND
  8
gg1
  0
POLYLINE
  8
gg1
 62
1
 40
0.000000
 41
0.000000
 66
  1
  0
VERTEX
  8
gg1
 10
0.250000
 20
1.390000
  0
VERTEX
  8
gg1
 10
0.250000
 20
1.410000
  0
SEQEND
  8
gg1
  0
POLYLINE
  8
gg1
 62
1
 40
0.000000
 41
0.000000
 66
  1
  0
VERTEX
  8
gg1
 10
0.290000
 20
1.400000
  0
VERTEX
  8
gg1
 10
0.310000
 20
1.400000
  0
SEQEND
  8
gg1
  0
POLYLINE
  8
gg1
 62
1
 40
0.000000
 41
0.000000
 66
  1
  0
VERTEX
  8
gg1
 10
0.300000
 20
1.390000
  0
VERTEX
  8
gg1
 10
0.300000
 20
1.410000
  0
SEQEND
  8
gg1
  0
POLYLINE
  8
gg1
 62
1
 40
0.000000
 41
0.000000
 66
  1
  0
VERTEX
  8
gg1
 10
0.340000
 20
1.400000
  0
VERTEX
  8
gg1
 10
0.360000
 20
1.400000
  0
SEQEND
  8
gg1
  0
POLYLINE
  8
gg1
 62
1
 40
0.000000
 41
0.000000
 66
  1
  0
VERTEX
  8
gg1
 10
0.350000
 20
1.390000
  0
VERTEX
  8
gg1
 10
0.350000
 20
1.410000
  0
SEQEND
  8
gg1
  0
POLYLINE
  8
gg1
 62
1
 40
0.000000
 41
0.000000
 66
  1
  0
VERTEX
  8
gg1
 10
0.390000
 20
1.400000
  0
VERTEX
  8
gg1
 10
0.410000
 20
1.400000
  0
SEQEND
  8
gg1
  0
POLYLINE
  8
gg1
 62
1
 40
0.000000
 41
0.000000
 66
  1
  0
VERTEX
  8
gg1
 10
0.400000
 20
1.390000
  0
VERTEX
  8
gg1
 10
0.400000
 20
1.410000
  0
SEQEND
  8
gg1
  0
POLYLINE
  8
gg1
 62
1
 40
0.000000
 41
0.000000
 66
  1
  0
VERTEX
  8
gg1
 10
0.440000
 20
1.400000
  0
VERTEX
  8
gg1
 10
0.460000
 20
1.400000
  0
SEQEND
  8
gg1
  0
POLYLINE
  8
gg1
 62
1
 40
0.000000
 41
0.000000
 66
  1
  0
VERTEX
  8
gg1
 10
0.450000
 20
1.390000
  0
VERTEX
  8
gg1
 10
0.450000
 20
1.410000
  0
SEQEND
  8
gg1
  0
POLYLINE
  8
gg1
 62
1
 40
0.000000
 41
0.000000
 66
  1
  0
VERTEX
  8
gg1
 10
0.490000
 20
1.400000
  0
VERTEX
  8
gg1
 10
0.510000
 20
1.400000
  0
SEQEND
  8
gg1
  0
POLYLINE
  8
gg1
 62
1
 40
0.000000
 41
0.000000
 66
  1
  0
VERTEX
  8
gg1
 10
0.500000
 20
1.390000
  0
VERTEX
  8
gg1
 10
0.500000
 20
1.410000
  0
SEQEND
  8
gg1
  0
POLYLINE
  8
gg1
 62
1
 40
0.000000
 41
0.000000
 66
  1
  0
VERTEX
  8
gg1
 10
0.540000
 20
1.400000
  0
VERTEX
  8
gg1
 10
0.560000
 20
1.400000
  0
SEQEND
  8
gg1
  0
POLYLINE
  8
gg1
 62
1
 40
0.000000
 41
0.000000
 66
  1
  0
VERTEX
  8
gg1
 10
0.550000
 20
1.390000
  0
VERTEX
  8
gg1
 10
0.550000
 20
1.410000
  0
SEQEND
  8
gg1
  0
POLYLINE
  8
gg1
 62
1
 40
0.000000
 41
0.000000
 66
  1
  0
VERTEX
  8
gg1
 10
0.590000
 20
1.400000
  0
VERTEX
  8
gg1
 10
0.610000
 20
1.400000
  0
SEQEND
  8
gg1
  0
POLYLINE
  8
gg1
 62
1
 40
0.000000
 41
0.000000
 66
  1
  0
VERTEX
  8
gg1
 10
0.600000
 20
1.390000
  0
VERTEX
  8
gg1
 10
0.600000
 20
1.410000
  0
SEQEND
  8
gg1
  0
POLYLINE
  8
gg1
 62
1
 40
0.000000
 41
0.000000
 66
  1
  0
VERTEX
  8
gg1
 10
0.615000
 20
1.350000
  0
VERTEX
  8
gg1
 10
0.635000
 20
1.350000
  0
SEQEND
  8
gg1
  0
POLYLINE
  8
gg1
 62
1
 40
0.000000
 41
0.000000
 66
  1
  0
VERTEX
  8
gg1
 10
0.625000
 20
1.340000
  0
VERTEX
  8
gg1
 10
0.625000
 20
1.360000
  0
SEQEND
  8
gg1
  0
POLYLINE
  8
gg1
 62
1
 40
0.000000
 41
0.000000
 66
  1
  0
VERTEX
  8
gg1
 10
0.615000
 20
1.300000
  0
VERTEX
  8
gg1
 10
0.635000
 20
1.300000
  0
SEQEND
  8
gg1
  0
POLYLINE
  8
gg1
 62
1
 40
0.000000
 41
0.000000
 66
  1
  0
VERTEX
  8
gg1
 10
0.625000
 20
1.290000
  0
VERTEX
  8
gg1
 10
0.625000
 20
1.310000
  0
SEQEND
  8
gg1
  0
POLYLINE
  8
gg1
 62
1
 40
0.000000
 41
0.000000
 66
  1
  0
VERTEX
  8
gg1
 10
0.615000
 20
1.250000
  0
VERTEX
  8
gg1
 10
0.635000
 20
1.250000
  0
SEQEND
  8
gg1
  0
POLYLINE
  8
gg1
 62
1
 40
0.000000
 41
0.000000
 66
  1
  0
VERTEX
  8
gg1
 10
0.625000
 20
1.240000
  0
VERTEX
  8
gg1
 10
0.625000
 20
1.260000
  0
SEQEND
  8
gg1
  0
POLYLINE
  8
gg1
 62
1
 40
0.000000
 41
0.000000
 66
  1
  0
VERTEX
  8
gg1
 10
0.615000
 20
1.200000
  0
VERTEX
  8
gg1
 10
0.635000
 20
1.200000
  0
SEQEND
  8
gg1
  0
POLYLINE
  8
gg1
 62
1
 40
0.000000
 41
0.000000
 66
  1
  0
VERTEX
  8
gg1
 10
0.625000
 20
1.190000
  0
VERTEX
  8
gg1
 10
0.625000
 20
1.210000
  0
SEQEND
  8
gg1
  0
POLYLINE
  8
gg1
 62
1
 40
0.000000
 41
0.000000
 66
  1
  0
VERTEX
  8
gg1
 10
0.440000
 20
0.875000
  0
VERTEX
  8
gg1
 10
0.460000
 20
0.875000
  0
SEQEND
  8
gg1
  0
POLYLINE
  8
gg1
 62
1
 40
0.000000
 41
0.000000
 66
  1
  0
VERTEX
  8
gg1
 10
0.450000
 20
0.865000
  0
VERTEX
  8
gg1
 10
0.450000
 20
0.885000
  0
SEQEND
  8
gg1
  0
POLYLINE
  8
gg1
 62
1
 40
0.000000
 41
0.000000
 66
  1
  0
VERTEX
  8
gg1
 10
0.490000
 20
0.875000
  0
VERTEX
  8
gg1
 10
0.510000
 20
0.875000
  0
SEQEND
  8
gg1
  0
POLYLINE
  8
gg1
 62
1
 40
0.000000
 41
0.000000
 66
  1
  0
VERTEX
  8
gg1
 10
0.500000
 20
0.865000
  0
VERTEX
  8
gg1
 10
0.500000
 20
0.885000
  0
SEQEND
  8
gg1
  0
POLYLINE
  8
gg1
 62
1
 40
0.000000
 41
0.000000
 66
  1
  0
VERTEX
  8
gg1
 10
0.540000
 20
0.875000
  0
VERTEX
  8
gg1
 10
0.560000
 20
0.875000
  0
SEQEND
  8
gg1
  0
POLYLINE
  8
gg1
 62
1
 40
0.000000
 41
0.000000
 66
  1
  0
VERTEX
  8
gg1
 10
0.550000
 20
0.865000
  0
VERTEX
  8
gg1
 10
0.550000
 20
0.885000
  0
SEQEND
  8
gg1
  0
POLYLINE
  8
gg1
 62
1
 40
0.000000
 41
0.000000
 66
  1
  0
VERTEX
  8
gg1
 10
0.590000
 20
0.875000
  0
VERTEX
  8
gg1
 10
0.610000
 20
0.875000
  0
SEQEND
  8
gg1
  0
POLYLINE
  8
gg1
 62
1
 40
0.000000
 41
0.000000
 66
  1
  0
VERTEX
  8
gg1
 10
0.600000
 20
0.865000
  0
VERTEX
  8
gg1
 10
0.600000
 20
0.885000
  0
SEQEND
  8
gg1
  0
POLYLINE
  8
gg1
 62
1
 40
0.000000
 41
0.000000
 66
  1
  0
VERTEX
  8
gg1
 10
0.640000
 20
0.875000
  0
VERTEX
  8
gg1
 10
0.660000
 20
0.875000
  0
SEQEND
  8
gg1
  0
POLYLINE
  8
gg1
 62
1
 40
0.000000
 41
0.000000
 66
  1
  0
VERTEX
  8
gg1
 10
0.650000
 20
0.865000
  0
VERTEX
  8
gg1
 10
0.650000
 20
0.885000
  0
SEQEND
  8
gg1
  0
POLYLINE
  8
gg1
 62
1
 40
0.000000
 41
0.000000
 66
  1
  0
VERTEX
  8
gg1
 10
0.265000
 20
0.875000
  0
VERTEX
  8
gg1
 10
0.285000
 20
0.875000
  0
SEQEND
  8
gg1
  0
POLYLINE
  8
gg1
 62
1
 40
0.000000
 41
0.000000
 66
  1
  0
VERTEX
  8
gg1
 10
0.275000
 20
0.865000
  0
VERTEX
  8
gg1
 10
0.275000
 20
0.885000
  0
SEQEND
  8
gg1
  0
POLYLINE
  8
gg1
 62
1
 40
0.000000
 41
0.000000
 66
  1
  0
VERTEX
  8
gg1
 10
0.215000
 20
0.875000
  0
VERTEX
  8
gg1
 10
0.235000
 20
0.875000
  0
SEQEND
  8
gg1
  0
POLYLINE
  8
gg1
 62
1
 40
0.000000
 41
0.000000
 66
  1
  0
VERTEX
  8
gg1
 10
0.225000
 20
0.865000
  0
VERTEX
  8
gg1
 10
0.225000
 20
0.885000
  0
SEQEND
  8
gg1
  0
POLYLINE
  8
gg1
 62
1
 40
0.000000
 41
0.000000
 66
  1
  0
VERTEX
  8
gg1
 10
0.165000
 20
0.875000
  0
VERTEX
  8
gg1
 10
0.185000
 20
0.875000
  0
SEQEND
  8
gg1
  0
POLYLINE
  8
gg1
 62
1
 40
0.000000
 41
0.000000
 66
  1
  0
VERTEX
  8
gg1
 10
0.175000
 20
0.865000
  0
VERTEX
  8
gg1
 10
0.175000
 20
0.885000
  0
SEQEND
  8
gg1
  0
POLYLINE
  8
gg1
 62
1
 40
0.000000
 41
0.000000
 66
  1
  0
VERTEX
  8
gg1
 10
0.115000
 20
0.875000
  0
VERTEX
  8
gg1
 10
0.135000
 20
0.875000
  0
SEQEND
  8
gg1
  0
POLYLINE
  8
gg1
 62
1
 40
0.000000
 41
0.000000
 66
  1
  0
VERTEX
  8
gg1
 10
0.125000
 20
0.865000
  0
VERTEX
  8
gg1
 10
0.125000
 20
0.885000
  0
SEQEND
  8
gg1
  0
POLYLINE
  8
gg1
 62
1
 40
0.000000
 41
0.000000
 66
  1
  0
VERTEX
  8
gg1
 10
0.065000
 20
0.875000
  0
VERTEX
  8
gg1
 10
0.085000
 20
0.875000
  0
SEQEND
  8
gg1
  0
POLYLINE
  8
gg1
 62
1
 40
0.000000
 41
0.000000
 66
  1
  0
VERTEX
  8
gg1
 10
0.075000
 20
0.865000
  0
VERTEX
  8
gg1
 10
0.075000
 20
0.885000
  0
SEQEND
  8
gg1
  0
POLYLINE
  8
gg1
 62
1
 40
0.000000
 41
0.000000
 66
  1
  0
VERTEX
  8
gg1
 10
1.215000
 20
0.875000
  0
VERTEX
  8
gg1
 10
1.235000
 20
0.875000
  0
SEQEND
  8
gg1
  0
POLYLINE
  8
gg1
 62
1
 40
0.000000
 41
0.000000
 66
  1
  0
VERTEX
  8
gg1
 10
1.225000
 20
0.865000
  0
VERTEX
  8
gg1
 10
1.225000
 20
0.885000
  0
SEQEND
  8
gg1
  0
POLYLINE
  8
gg1
 62
1
 40
0.000000
 41
0.000000
 66
  1
  0
VERTEX
  8
gg1
 10
1.265000
 20
0.875000
  0
VERTEX
  8
gg1
 10
1.285000
 20
0.875000
  0
SEQEND
  8
gg1
  0
POLYLINE
  8
gg1
 62
1
 40
0.000000
 41
0.000000
 66
  1
  0
VERTEX
  8
gg1
 10
1.275000
 20
0.865000
  0
VERTEX
  8
gg1
 10
1.275000
 20
0.885000
  0
SEQEND
  8
gg1
  0
POLYLINE
  8
gg1
 62
1
 40
0.000000
 41
0.000000
 66
  1
  0
VERTEX
  8
gg1
 10
1.315000
 20
0.875000
  0
VERTEX
  8
gg1
 10
1.335000
 20
0.875000
  0
SEQEND
  8
gg1
  0
POLYLINE
  8
gg1
 62
1
 40
0.000000
 41
0.000000
 66
  1
  0
VERTEX
  8
gg1
 10
1.325000
 20
0.865000
  0
VERTEX
  8
gg1
 10
1.325000
 20
0.885000
  0
SEQEND
  8
gg1
  0
POLYLINE
  8
gg1
 62
1
 40
0.000000
 41
0.000000
 66
  1
  0
VERTEX
  8
gg1
 10
1.365000
 20
0.875000
  0
VERTEX
  8
gg1
 10
1.385000
 20
0.875000
  0
SEQEND
  8
gg1
  0
POLYLINE
  8
gg1
 62
1
 40
0.000000
 41
0.000000
 66
  1
  0
VERTEX
  8
gg1
 10
1.375000
 20
0.865000
  0
VERTEX
  8
gg1
 10
1.375000
 20
0.885000
  0
SEQEND
  8
gg1
  0
POLYLINE
  8
gg1
 62
1
 40
0.000000
 41
0.000000
 66
  1
  0
VERTEX
  8
gg1
 10
1.415000
 20
0.875000
  0
VERTEX
  8
gg1
 10
1.435000
 20
0.875000
  0
SEQEND
  8
gg1
  0
POLYLINE
  8
gg1
 62
1
 40
0.000000
 41
0.000000
 66
  1
  0
VERTEX
  8
gg1
 10
1.425000
 20
0.865000
  0
VERTEX
  8
gg1
 10
1.425000
 20
0.885000
  0
SEQEND
  8
gg1
  0
POLYLINE
  8
gg1
 62
1
 40
0.000000
 41
0.000000
 66
  1
  0
VERTEX
  8
gg1
 10
1.565000
 20
0.875000
  0
VERTEX
  8
gg1
 10
1.585000
 20
0.875000
  0
SEQEND
  8
gg1
  0
POLYLINE
  8
gg1
 62
1
 40
0.000000
 41
0.000000
 66
  1
  0
VERTEX
  8
gg1
 10
1.575000
 20
0.865000
  0
VERTEX
  8
gg1
 10
1.575000
 20
0.885000
  0
SEQEND
  8
gg1
  0
POLYLINE
  8
gg1
 62
1
 40
0.000000
 41
0.000000
 66
  1
  0
VERTEX
  8
gg1
 10
1.615000
 20
0.875000
  0
VERTEX
  8
gg1
 10
1.635000
 20
0.875000
  0
SEQEND
  8
gg1
  0
POLYLINE
  8
gg1
 62
1
 40
0.000000
 41
0.000000
 66
  1
  0
VERTEX
  8
gg1
 10
1.625000
 20
0.865000
  0
VERTEX
  8
gg1
 10
1.625000
 20
0.885000
  0
SEQEND
  8
gg1
  0
POLYLINE
  8
gg1
 62
1
 40
0.000000
 41
0.000000
 66
  1
  0
VERTEX
  8
gg1
 10
1.665000
 20
0.875000
  0
VERTEX
  8
gg1
 10
1.685000
 20
0.875000
  0
SEQEND
  8
gg1
  0
POLYLINE
  8
gg1
 62
1
 40
0.000000
 41
0.000000
 66
  1
  0
VERTEX
  8
gg1
 10
1.675000
 20
0.865000
  0
VERTEX
  8
gg1
 10
1.675000
 20
0.885000
  0
SEQEND
  8
gg1
  0
POLYLINE
  8
gg1
 62
1
 40
0.000000
 41
0.000000
 66
  1
  0
VERTEX
  8
gg1
 10
1.715000
 20
0.875000
  0
VERTEX
  8
gg1
 10
1.735000
 20
0.875000
  0
SEQEND
  8
gg1
  0
POLYLINE
  8
gg1
 62
1
 40
0.000000
 41
0.000000
 66
  1
  0
VERTEX
  8
gg1
 10
1.725000
 20
0.865000
  0
VERTEX
  8
gg1
 10
1.725000
 20
0.885000
  0
SEQEND
  8
gg1
  0
POLYLINE
  8
gg1
 62
1
 40
0.000000
 41
0.000000
 66
  1
  0
VERTEX
  8
gg1
 10
1.765000
 20
0.875000
  0
VERTEX
  8
gg1
 10
1.785000
 20
0.875000
  0
SEQEND
  8
gg1
  0
POLYLINE
  8
gg1
 62
1
 40
0.000000
 41
0.000000
 66
  1
  0
VERTEX
  8
gg1
 10
1.775000
 20
0.865000
  0
VERTEX
  8
gg1
 10
1.775000
 20
0.885000
  0
SEQEND
  8
gg1
  0
POLYLINE
  8
gg1
 62
1
 40
0.000000
 41
0.000000
 66
  1
  0
VERTEX
  8
gg1
 10
0.143000
 20
1.793000
  0
VERTEX
  8
gg1
 10
0.163000
 20
1.793000
  0
SEQEND
  8
gg1
  0
POLYLINE
  8
gg1
 62
1
 40
0.000000
 41
0.000000
 66
  1
  0
VERTEX
  8
gg1
 10
0.153000
 20
1.783000
  0
VERTEX
  8
gg1
 10
0.153000
 20
1.803000
  0
SEQEND
  8
gg1
  0
POLYLINE
  8
gg1
 62
1
 40
0.000000
 41
0.000000
 66
  1
  0
VERTEX
  8
gg1
 10
0.142000
 20
1.728000
  0
VERTEX
  8
gg1
 10
0.162000
 20
1.728000
  0
SEQEND
  8
gg1
  0
POLYLINE
  8
gg1
 62
1
 40
0.000000
 41
0.000000
 66
  1
  0
VERTEX
  8
gg1
 10
0.152000
 20
1.718000
  0
VERTEX
  8
gg1
 10
0.152000
 20
1.738000
  0
SEQEND
  8
gg1
  0
POLYLINE
  8
gg1
 62
1
 40
0.000000
 41
0.000000
 66
  1
  0
VERTEX
  8
gg1
 10
1.501000
 20
1.581000
  0
VERTEX
  8
gg1
 10
1.521000
 20
1.581000
  0
SEQEND
  8
gg1
  0
POLYLINE
  8
gg1
 62
1
 40
0.000000
 41
0.000000
 66
  1
  0
VERTEX
  8
gg1
 10
1.511000
 20
1.571000
  0
VERTEX
  8
gg1
 10
1.511000
 20
1.591000
  0
SEQEND
  8
gg1
  0
POLYLINE
  8
gg1
 62
1
 40
0.000000
 41
0.000000
 66
  1
  0
VERTEX
  8
gg1
 10
0.761000
 20
1.543000
  0
VERTEX
  8
gg1
 10
0.781000
 20
1.543000
  0
SEQEND
  8
gg1
  0
POLYLINE
  8
gg1
 62
1
 40
0.000000
 41
0.000000
 66
  1
  0
VERTEX
  8
gg1
 10
0.771000
 20
1.533000
  0
VERTEX
  8
gg1
 10
0.771000
 20
1.553000
  0
SEQEND
  8
gg1
  0
ENDSEC
  0
EOF
