  0
SECTION
  2
HEADER
  9
$EXTMIN
 10
7.373000
 20
14.861000
  9
$EXTMAX
 10
8.105000
 20
15.805000
  9
$LIMMIN
 10
7.373000
 20
14.861000
  9
$LIMMAX
 10
8.105000
 20
15.805000
  9
$FILLMODE
 70
  1
  0
ENDSEC
  0
SECTION
  2
TABLES
  0
TABLE
  2
LTYPE
 70
  1
  0
LTYPE
  2
CONTINUOUS
 70
 64
  3
Solid line
 72
 65
 73
  0
 40
0.0
  0
ENDTAB
  0
TABLE
  2
LAYER
 70
 1
  0
LAYER
  2
0
 70
  0
 62
7
  6
CONTINUOUS
  0
LAYER
  2
gg1
 70
  0
 62
1
  6
CONTINUOUS
  0
ENDTAB
  0
TABLE
  2
STYLE
 70
  1
  0
STYLE
  2
STANDARD
 70
  0
 40
0.0
 41
1.0
 50
0.0
 71
  0
 42
0.2
  3
txt
  4

  0
ENDTAB
  0
ENDSEC
  0
SECTION
  2
BLOCKS
  0
BLOCK
  8
0
  2
D10
 70
64
 10
0.0
 20
0.0
  3
D10
  0
CIRCLE
  8
0
 10
0.000000
 20
0.000000
 40
0.005000
 0
ENDBLK
  8
0
  0
BLOCK
  8
0
  2
D11
 70
64
 10
0.0
 20
0.0
  3
D11
  0
CIRCLE
  8
0
 10
0.000000
 20
0.000000
 40
0.002500
 0
ENDBLK
  8
0
  0
BLOCK
  8
0
  2
D12
 70
64
 10
0.0
 20
0.0
  3
D12
  0
CIRCLE
  8
0
 10
0.000000
 20
0.000000
 40
0.003000
 0
ENDBLK
  8
0
  0
BLOCK
  8
0
  2
D13
 70
64
 10
0.0
 20
0.0
  3
D13
  0
CIRCLE
  8
0
 10
0.000000
 20
0.000000
 40
0.001000
 0
ENDBLK
  8
0
  0
ENDSEC
  0
SECTION
  2
ENTITIES
  0
POLYLINE
  8
gg1
 62
1
 40
0.000000
 41
0.000000
 66
  1
  0
VERTEX
  8
gg1
 10
7.390000
 20
15.800000
  0
VERTEX
  8
gg1
 10
7.487500
 20
15.800000
  0
SEQEND
  8
gg1
  0
POLYLINE
  8
gg1
 62
1
 40
0.000000
 41
0.000000
 66
  1
  0
VERTEX
  8
gg1
 10
7.390000
 20
15.000000
  0
VERTEX
  8
gg1
 10
7.487500
 20
15.000000
  0
SEQEND
  8
gg1
  0
POLYLINE
  8
gg1
 62
1
 40
0.000000
 41
0.000000
 66
  1
  0
VERTEX
  8
gg1
 10
7.400000
 20
15.554900
  0
VERTEX
  8
gg1
 10
7.400000
 20
15.800000
  0
SEQEND
  8
gg1
  0
POLYLINE
  8
gg1
 62
1
 40
0.000000
 41
0.000000
 66
  1
  0
VERTEX
  8
gg1
 10
7.400000
 20
15.000000
  0
VERTEX
  8
gg1
 10
7.400000
 20
15.213000
  0
SEQEND
  8
gg1
  0
POLYLINE
  8
gg1
 62
1
 40
0.000000
 41
0.000000
 66
  1
  0
VERTEX
  8
gg1
 10
7.380000
 20
15.740000
  0
VERTEX
  8
gg1
 10
7.400000
 20
15.800000
  0
VERTEX
  8
gg1
 10
7.420000
 20
15.740000
  0
SEQEND
  8
gg1
  0
POLYLINE
  8
gg1
 62
1
 40
0.000000
 41
0.000000
 66
  1
  0
VERTEX
  8
gg1
 10
7.400000
 20
15.000000
  0
VERTEX
  8
gg1
 10
7.420000
 20
15.060000
  0
SEQEND
  8
gg1
  0
POLYLINE
  8
gg1
 62
1
 40
0.000000
 41
0.000000
 66
  1
  0
VERTEX
  8
gg1
 10
7.380000
 20
15.060000
  0
VERTEX
  8
gg1
 10
7.400000
 20
15.000000
  0
SEQEND
  8
gg1
  0
POLYLINE
  8
gg1
 62
1
 40
0.000000
 41
0.000000
 66
  1
  0
VERTEX
  8
gg1
 10
8.100000
 20
14.890000
  0
VERTEX
  8
gg1
 10
8.100000
 20
14.987500
  0
SEQEND
  8
gg1
  0
POLYLINE
  8
gg1
 62
1
 40
0.000000
 41
0.000000
 66
  1
  0
VERTEX
  8
gg1
 10
7.500000
 20
14.890000
  0
VERTEX
  8
gg1
 10
7.500000
 20
14.987500
  0
SEQEND
  8
gg1
  0
POLYLINE
  8
gg1
 62
1
 40
0.000000
 41
0.000000
 66
  1
  0
VERTEX
  8
gg1
 10
7.954900
 20
14.900000
  0
VERTEX
  8
gg1
 10
8.100000
 20
14.900000
  0
SEQEND
  8
gg1
  0
POLYLINE
  8
gg1
 62
1
 40
0.000000
 41
0.000000
 66
  1
  0
VERTEX
  8
gg1
 10
7.500000
 20
14.900000
  0
VERTEX
  8
gg1
 10
7.613000
 20
14.900000
  0
SEQEND
  8
gg1
  0
POLYLINE
  8
gg1
 62
1
 40
0.000000
 41
0.000000
 66
  1
  0
VERTEX
  8
gg1
 10
8.040000
 20
14.920000
  0
VERTEX
  8
gg1
 10
8.100000
 20
14.900000
  0
SEQEND
  8
gg1
  0
POLYLINE
  8
gg1
 62
1
 40
0.000000
 41
0.000000
 66
  1
  0
VERTEX
  8
gg1
 10
8.040000
 20
14.880000
  0
VERTEX
  8
gg1
 10
8.100000
 20
14.900000
  0
SEQEND
  8
gg1
  0
POLYLINE
  8
gg1
 62
1
 40
0.000000
 41
0.000000
 66
  1
  0
VERTEX
  8
gg1
 10
7.500000
 20
14.900000
  0
VERTEX
  8
gg1
 10
7.560000
 20
14.880000
  0
SEQEND
  8
gg1
  0
POLYLINE
  8
gg1
 62
1
 40
0.000000
 41
0.000000
 66
  1
  0
VERTEX
  8
gg1
 10
7.500000
 20
14.900000
  0
VERTEX
  8
gg1
 10
7.560000
 20
14.920000
  0
SEQEND
  8
gg1
  0
POLYLINE
  8
gg1
 62
1
 40
0.000000
 41
0.000000
 66
  1
  0
VERTEX
  8
gg1
 10
7.500000
 20
15.000000
  0
VERTEX
  8
gg1
 10
8.100000
 20
15.000000
  0
VERTEX
  8
gg1
 10
8.100000
 20
15.800000
  0
SEQEND
  8
gg1
  0
POLYLINE
  8
gg1
 62
1
 40
0.000000
 41
0.000000
 66
  1
  0
VERTEX
  8
gg1
 10
7.500000
 20
15.800000
  0
VERTEX
  8
gg1
 10
8.100000
 20
15.800000
  0
SEQEND
  8
gg1
  0
POLYLINE
  8
gg1
 62
1
 40
0.000000
 41
0.000000
 66
  1
  0
VERTEX
  8
gg1
 10
7.500000
 20
15.000000
  0
VERTEX
  8
gg1
 10
7.500000
 20
15.800000
  0
SEQEND
  8
gg1
  0
POLYLINE
  8
gg1
 62
1
 40
0.000000
 41
0.000000
 66
  1
  0
VERTEX
  8
gg1
 10
7.386000
 20
15.229000
  0
VERTEX
  8
gg1
 10
7.376000
 20
15.239000
  0
VERTEX
  8
gg1
 10
7.376000
 20
15.259000
  0
VERTEX
  8
gg1
 10
7.386000
 20
15.269000
  0
VERTEX
  8
gg1
 10
7.396000
 20
15.269000
  0
VERTEX
  8
gg1
 10
7.406000
 20
15.259000
  0
VERTEX
  8
gg1
 10
7.416000
 20
15.269000
  0
VERTEX
  8
gg1
 10
7.426000
 20
15.269000
  0
VERTEX
  8
gg1
 10
7.436000
 20
15.259000
  0
VERTEX
  8
gg1
 10
7.436000
 20
15.239000
  0
VERTEX
  8
gg1
 10
7.426000
 20
15.229000
  0
VERTEX
  8
gg1
 10
7.416000
 20
15.229000
  0
VERTEX
  8
gg1
 10
7.406000
 20
15.239000
  0
VERTEX
  8
gg1
 10
7.396000
 20
15.229000
  0
VERTEX
  8
gg1
 10
7.386000
 20
15.229000
  0
SEQEND
  8
gg1
  0
POLYLINE
  8
gg1
 62
1
 40
0.000000
 41
0.000000
 66
  1
  0
VERTEX
  8
gg1
 10
7.406000
 20
15.239000
  0
VERTEX
  8
gg1
 10
7.406000
 20
15.259000
  0
SEQEND
  8
gg1
  0
POLYLINE
  8
gg1
 62
1
 40
0.000000
 41
0.000000
 66
  1
  0
VERTEX
  8
gg1
 10
7.386000
 20
15.289000
  0
VERTEX
  8
gg1
 10
7.376000
 20
15.299000
  0
VERTEX
  8
gg1
 10
7.376000
 20
15.319000
  0
VERTEX
  8
gg1
 10
7.386000
 20
15.329000
  0
VERTEX
  8
gg1
 10
7.426000
 20
15.329000
  0
VERTEX
  8
gg1
 10
7.436000
 20
15.319000
  0
VERTEX
  8
gg1
 10
7.436000
 20
15.299000
  0
VERTEX
  8
gg1
 10
7.426000
 20
15.289000
  0
VERTEX
  8
gg1
 10
7.386000
 20
15.289000
  0
SEQEND
  8
gg1
  0
POLYLINE
  8
gg1
 62
1
 40
0.000000
 41
0.000000
 66
  1
  0
VERTEX
  8
gg1
 10
7.386000
 20
15.349000
  0
VERTEX
  8
gg1
 10
7.376000
 20
15.359000
  0
VERTEX
  8
gg1
 10
7.376000
 20
15.379000
  0
VERTEX
  8
gg1
 10
7.386000
 20
15.389000
  0
VERTEX
  8
gg1
 10
7.426000
 20
15.389000
  0
VERTEX
  8
gg1
 10
7.436000
 20
15.379000
  0
VERTEX
  8
gg1
 10
7.436000
 20
15.359000
  0
VERTEX
  8
gg1
 10
7.426000
 20
15.349000
  0
VERTEX
  8
gg1
 10
7.386000
 20
15.349000
  0
SEQEND
  8
gg1
  0
POLYLINE
  8
gg1
 62
1
 40
0.000000
 41
0.000000
 66
  1
  0
VERTEX
  8
gg1
 10
7.436000
 20
15.409000
  0
VERTEX
  8
gg1
 10
7.396000
 20
15.409000
  0
VERTEX
  8
gg1
 10
7.396000
 20
15.419000
  0
VERTEX
  8
gg1
 10
7.406000
 20
15.429000
  0
VERTEX
  8
gg1
 10
7.436000
 20
15.429000
  0
VERTEX
  8
gg1
 10
7.406000
 20
15.429000
  0
VERTEX
  8
gg1
 10
7.396000
 20
15.439000
  0
VERTEX
  8
gg1
 10
7.406000
 20
15.449000
  0
VERTEX
  8
gg1
 10
7.436000
 20
15.449000
  0
SEQEND
  8
gg1
  0
POLYLINE
  8
gg1
 62
1
 40
0.000000
 41
0.000000
 66
  1
  0
VERTEX
  8
gg1
 10
7.436000
 20
15.469000
  0
VERTEX
  8
gg1
 10
7.436000
 20
15.489000
  0
VERTEX
  8
gg1
 10
7.436000
 20
15.479000
  0
VERTEX
  8
gg1
 10
7.396000
 20
15.479000
  0
VERTEX
  8
gg1
 10
7.396000
 20
15.469000
  0
SEQEND
  8
gg1
  0
POLYLINE
  8
gg1
 62
1
 40
0.000000
 41
0.000000
 66
  1
  0
VERTEX
  8
gg1
 10
7.436000
 20
15.519000
  0
VERTEX
  8
gg1
 10
7.436000
 20
15.538900
  0
VERTEX
  8
gg1
 10
7.436000
 20
15.529000
  0
VERTEX
  8
gg1
 10
7.376000
 20
15.529000
  0
VERTEX
  8
gg1
 10
7.376000
 20
15.519000
  0
SEQEND
  8
gg1
  0
POLYLINE
  8
gg1
 62
1
 40
0.000000
 41
0.000000
 66
  1
  0
VERTEX
  8
gg1
 10
7.669000
 20
14.924000
  0
VERTEX
  8
gg1
 10
7.649000
 20
14.914000
  0
VERTEX
  8
gg1
 10
7.629000
 20
14.894000
  0
VERTEX
  8
gg1
 10
7.629000
 20
14.874000
  0
VERTEX
  8
gg1
 10
7.639000
 20
14.864000
  0
VERTEX
  8
gg1
 10
7.659000
 20
14.864000
  0
VERTEX
  8
gg1
 10
7.669000
 20
14.874000
  0
VERTEX
  8
gg1
 10
7.669000
 20
14.884000
  0
VERTEX
  8
gg1
 10
7.659000
 20
14.894000
  0
VERTEX
  8
gg1
 10
7.629000
 20
14.894000
  0
SEQEND
  8
gg1
  0
POLYLINE
  8
gg1
 62
1
 40
0.000000
 41
0.000000
 66
  1
  0
VERTEX
  8
gg1
 10
7.689000
 20
14.914000
  0
VERTEX
  8
gg1
 10
7.699000
 20
14.924000
  0
VERTEX
  8
gg1
 10
7.719000
 20
14.924000
  0
VERTEX
  8
gg1
 10
7.729000
 20
14.914000
  0
VERTEX
  8
gg1
 10
7.729000
 20
14.874000
  0
VERTEX
  8
gg1
 10
7.719000
 20
14.864000
  0
VERTEX
  8
gg1
 10
7.699000
 20
14.864000
  0
VERTEX
  8
gg1
 10
7.689000
 20
14.874000
  0
VERTEX
  8
gg1
 10
7.689000
 20
14.914000
  0
SEQEND
  8
gg1
  0
POLYLINE
  8
gg1
 62
1
 40
0.000000
 41
0.000000
 66
  1
  0
VERTEX
  8
gg1
 10
7.749000
 20
14.914000
  0
VERTEX
  8
gg1
 10
7.759000
 20
14.924000
  0
VERTEX
  8
gg1
 10
7.779000
 20
14.924000
  0
VERTEX
  8
gg1
 10
7.789000
 20
14.914000
  0
VERTEX
  8
gg1
 10
7.789000
 20
14.874000
  0
VERTEX
  8
gg1
 10
7.779000
 20
14.864000
  0
VERTEX
  8
gg1
 10
7.759000
 20
14.864000
  0
VERTEX
  8
gg1
 10
7.749000
 20
14.874000
  0
VERTEX
  8
gg1
 10
7.749000
 20
14.914000
  0
SEQEND
  8
gg1
  0
POLYLINE
  8
gg1
 62
1
 40
0.000000
 41
0.000000
 66
  1
  0
VERTEX
  8
gg1
 10
7.809000
 20
14.864000
  0
VERTEX
  8
gg1
 10
7.809000
 20
14.904000
  0
VERTEX
  8
gg1
 10
7.819000
 20
14.904000
  0
VERTEX
  8
gg1
 10
7.829000
 20
14.894000
  0
VERTEX
  8
gg1
 10
7.829000
 20
14.864000
  0
VERTEX
  8
gg1
 10
7.829000
 20
14.894000
  0
VERTEX
  8
gg1
 10
7.839000
 20
14.904000
  0
VERTEX
  8
gg1
 10
7.849000
 20
14.894000
  0
VERTEX
  8
gg1
 10
7.849000
 20
14.864000
  0
SEQEND
  8
gg1
  0
POLYLINE
  8
gg1
 62
1
 40
0.000000
 41
0.000000
 66
  1
  0
VERTEX
  8
gg1
 10
7.869000
 20
14.864000
  0
VERTEX
  8
gg1
 10
7.889000
 20
14.864000
  0
VERTEX
  8
gg1
 10
7.879000
 20
14.864000
  0
VERTEX
  8
gg1
 10
7.879000
 20
14.904000
  0
VERTEX
  8
gg1
 10
7.869000
 20
14.904000
  0
SEQEND
  8
gg1
  0
POLYLINE
  8
gg1
 62
1
 40
0.000000
 41
0.000000
 66
  1
  0
VERTEX
  8
gg1
 10
7.919000
 20
14.864000
  0
VERTEX
  8
gg1
 10
7.938900
 20
14.864000
  0
VERTEX
  8
gg1
 10
7.929000
 20
14.864000
  0
VERTEX
  8
gg1
 10
7.929000
 20
14.924000
  0
VERTEX
  8
gg1
 10
7.919000
 20
14.924000
  0
SEQEND
  8
gg1
  0
POLYLINE
  8
gg1
 62
1
 40
0.000000
 41
0.000000
 66
  1
  0
VERTEX
  8
gg1
 10
7.980000
 20
15.200000
  0
VERTEX
  8
gg1
 10
8.000000
 20
15.200000
  0
SEQEND
  8
gg1
  0
POLYLINE
  8
gg1
 62
1
 40
0.000000
 41
0.000000
 66
  1
  0
VERTEX
  8
gg1
 10
7.990000
 20
15.190000
  0
VERTEX
  8
gg1
 10
7.990000
 20
15.210000
  0
SEQEND
  8
gg1
  0
POLYLINE
  8
gg1
 62
1
 40
0.000000
 41
0.000000
 66
  1
  0
VERTEX
  8
gg1
 10
7.980000
 20
15.600000
  0
VERTEX
  8
gg1
 10
8.000000
 20
15.600000
  0
SEQEND
  8
gg1
  0
POLYLINE
  8
gg1
 62
1
 40
0.000000
 41
0.000000
 66
  1
  0
VERTEX
  8
gg1
 10
7.990000
 20
15.590000
  0
VERTEX
  8
gg1
 10
7.990000
 20
15.610000
  0
SEQEND
  8
gg1
  0
POLYLINE
  8
gg1
 62
1
 40
0.000000
 41
0.000000
 66
  1
  0
VERTEX
  8
gg1
 10
7.901800
 20
15.750000
  0
VERTEX
  8
gg1
 10
7.921800
 20
15.750000
  0
SEQEND
  8
gg1
  0
POLYLINE
  8
gg1
 62
1
 40
0.000000
 41
0.000000
 66
  1
  0
VERTEX
  8
gg1
 10
7.911800
 20
15.740000
  0
VERTEX
  8
gg1
 10
7.911800
 20
15.760000
  0
SEQEND
  8
gg1
  0
POLYLINE
  8
gg1
 62
1
 40
0.000000
 41
0.000000
 66
  1
  0
VERTEX
  8
gg1
 10
7.530000
 20
15.050000
  0
VERTEX
  8
gg1
 10
7.570000
 20
15.050000
  0
SEQEND
  8
gg1
  0
POLYLINE
  8
gg1
 62
1
 40
0.000000
 41
0.000000
 66
  1
  0
VERTEX
  8
gg1
 10
7.550000
 20
15.030000
  0
VERTEX
  8
gg1
 10
7.550000
 20
15.070000
  0
SEQEND
  8
gg1
  0
POLYLINE
  8
gg1
 62
1
 40
0.000000
 41
0.000000
 66
  1
  0
VERTEX
  8
gg1
 10
7.630000
 20
15.050000
  0
VERTEX
  8
gg1
 10
7.670000
 20
15.050000
  0
SEQEND
  8
gg1
  0
POLYLINE
  8
gg1
 62
1
 40
0.000000
 41
0.000000
 66
  1
  0
VERTEX
  8
gg1
 10
7.650000
 20
15.030000
  0
VERTEX
  8
gg1
 10
7.650000
 20
15.070000
  0
SEQEND
  8
gg1
  0
POLYLINE
  8
gg1
 62
1
 40
0.000000
 41
0.000000
 66
  1
  0
VERTEX
  8
gg1
 10
8.030000
 20
15.650000
  0
VERTEX
  8
gg1
 10
8.070000
 20
15.650000
  0
SEQEND
  8
gg1
  0
POLYLINE
  8
gg1
 62
1
 40
0.000000
 41
0.000000
 66
  1
  0
VERTEX
  8
gg1
 10
8.050000
 20
15.630000
  0
VERTEX
  8
gg1
 10
8.050000
 20
15.670000
  0
SEQEND
  8
gg1
  0
POLYLINE
  8
gg1
 62
1
 40
0.000000
 41
0.000000
 66
  1
  0
VERTEX
  8
gg1
 10
8.030000
 20
15.550000
  0
VERTEX
  8
gg1
 10
8.070000
 20
15.550000
  0
SEQEND
  8
gg1
  0
POLYLINE
  8
gg1
 62
1
 40
0.000000
 41
0.000000
 66
  1
  0
VERTEX
  8
gg1
 10
8.050000
 20
15.530000
  0
VERTEX
  8
gg1
 10
8.050000
 20
15.570000
  0
SEQEND
  8
gg1
  0
POLYLINE
  8
gg1
 62
1
 40
0.000000
 41
0.000000
 66
  1
  0
VERTEX
  8
gg1
 10
8.030000
 20
15.250000
  0
VERTEX
  8
gg1
 10
8.070000
 20
15.250000
  0
SEQEND
  8
gg1
  0
POLYLINE
  8
gg1
 62
1
 40
0.000000
 41
0.000000
 66
  1
  0
VERTEX
  8
gg1
 10
8.050000
 20
15.230000
  0
VERTEX
  8
gg1
 10
8.050000
 20
15.270000
  0
SEQEND
  8
gg1
  0
POLYLINE
  8
gg1
 62
1
 40
0.000000
 41
0.000000
 66
  1
  0
VERTEX
  8
gg1
 10
8.030000
 20
15.150000
  0
VERTEX
  8
gg1
 10
8.070000
 20
15.150000
  0
SEQEND
  8
gg1
  0
POLYLINE
  8
gg1
 62
1
 40
0.000000
 41
0.000000
 66
  1
  0
VERTEX
  8
gg1
 10
8.050000
 20
15.130000
  0
VERTEX
  8
gg1
 10
8.050000
 20
15.170000
  0
SEQEND
  8
gg1
  0
POLYLINE
  8
gg1
 62
1
 40
0.000000
 41
0.000000
 66
  1
  0
VERTEX
  8
gg1
 10
8.030000
 20
15.350000
  0
VERTEX
  8
gg1
 10
8.070000
 20
15.350000
  0
SEQEND
  8
gg1
  0
POLYLINE
  8
gg1
 62
1
 40
0.000000
 41
0.000000
 66
  1
  0
VERTEX
  8
gg1
 10
8.050000
 20
15.330000
  0
VERTEX
  8
gg1
 10
8.050000
 20
15.370000
  0
SEQEND
  8
gg1
  0
POLYLINE
  8
gg1
 62
1
 40
0.000000
 41
0.000000
 66
  1
  0
VERTEX
  8
gg1
 10
8.030000
 20
15.450000
  0
VERTEX
  8
gg1
 10
8.070000
 20
15.450000
  0
SEQEND
  8
gg1
  0
POLYLINE
  8
gg1
 62
1
 40
0.000000
 41
0.000000
 66
  1
  0
VERTEX
  8
gg1
 10
8.050000
 20
15.430000
  0
VERTEX
  8
gg1
 10
8.050000
 20
15.470000
  0
SEQEND
  8
gg1
  0
POLYLINE
  8
gg1
 62
1
 40
0.000000
 41
0.000000
 66
  1
  0
VERTEX
  8
gg1
 10
7.530000
 20
15.550000
  0
VERTEX
  8
gg1
 10
7.570000
 20
15.550000
  0
SEQEND
  8
gg1
  0
POLYLINE
  8
gg1
 62
1
 40
0.000000
 41
0.000000
 66
  1
  0
VERTEX
  8
gg1
 10
7.550000
 20
15.530000
  0
VERTEX
  8
gg1
 10
7.550000
 20
15.570000
  0
SEQEND
  8
gg1
  0
POLYLINE
  8
gg1
 62
1
 40
0.000000
 41
0.000000
 66
  1
  0
VERTEX
  8
gg1
 10
7.530000
 20
15.050000
  0
VERTEX
  8
gg1
 10
7.570000
 20
15.050000
  0
SEQEND
  8
gg1
  0
POLYLINE
  8
gg1
 62
1
 40
0.000000
 41
0.000000
 66
  1
  0
VERTEX
  8
gg1
 10
7.550000
 20
15.030000
  0
VERTEX
  8
gg1
 10
7.550000
 20
15.070000
  0
SEQEND
  8
gg1
  0
POLYLINE
  8
gg1
 62
1
 40
0.000000
 41
0.000000
 66
  1
  0
VERTEX
  8
gg1
 10
7.530000
 20
15.150000
  0
VERTEX
  8
gg1
 10
7.570000
 20
15.150000
  0
SEQEND
  8
gg1
  0
POLYLINE
  8
gg1
 62
1
 40
0.000000
 41
0.000000
 66
  1
  0
VERTEX
  8
gg1
 10
7.550000
 20
15.130000
  0
VERTEX
  8
gg1
 10
7.550000
 20
15.170000
  0
SEQEND
  8
gg1
  0
POLYLINE
  8
gg1
 62
1
 40
0.000000
 41
0.000000
 66
  1
  0
VERTEX
  8
gg1
 10
7.530000
 20
15.250000
  0
VERTEX
  8
gg1
 10
7.570000
 20
15.250000
  0
SEQEND
  8
gg1
  0
POLYLINE
  8
gg1
 62
1
 40
0.000000
 41
0.000000
 66
  1
  0
VERTEX
  8
gg1
 10
7.550000
 20
15.230000
  0
VERTEX
  8
gg1
 10
7.550000
 20
15.270000
  0
SEQEND
  8
gg1
  0
POLYLINE
  8
gg1
 62
1
 40
0.000000
 41
0.000000
 66
  1
  0
VERTEX
  8
gg1
 10
7.530000
 20
15.350000
  0
VERTEX
  8
gg1
 10
7.570000
 20
15.350000
  0
SEQEND
  8
gg1
  0
POLYLINE
  8
gg1
 62
1
 40
0.000000
 41
0.000000
 66
  1
  0
VERTEX
  8
gg1
 10
7.550000
 20
15.330000
  0
VERTEX
  8
gg1
 10
7.550000
 20
15.370000
  0
SEQEND
  8
gg1
  0
POLYLINE
  8
gg1
 62
1
 40
0.000000
 41
0.000000
 66
  1
  0
VERTEX
  8
gg1
 10
7.530000
 20
15.450000
  0
VERTEX
  8
gg1
 10
7.570000
 20
15.450000
  0
SEQEND
  8
gg1
  0
POLYLINE
  8
gg1
 62
1
 40
0.000000
 41
0.000000
 66
  1
  0
VERTEX
  8
gg1
 10
7.550000
 20
15.430000
  0
VERTEX
  8
gg1
 10
7.550000
 20
15.470000
  0
SEQEND
  8
gg1
  0
POLYLINE
  8
gg1
 62
1
 40
0.000000
 41
0.000000
 66
  1
  0
VERTEX
  8
gg1
 10
7.530000
 20
15.750000
  0
VERTEX
  8
gg1
 10
7.570000
 20
15.750000
  0
SEQEND
  8
gg1
  0
POLYLINE
  8
gg1
 62
1
 40
0.000000
 41
0.000000
 66
  1
  0
VERTEX
  8
gg1
 10
7.550000
 20
15.730000
  0
VERTEX
  8
gg1
 10
7.550000
 20
15.770000
  0
SEQEND
  8
gg1
  0
POLYLINE
  8
gg1
 62
1
 40
0.000000
 41
0.000000
 66
  1
  0
VERTEX
  8
gg1
 10
7.530000
 20
15.650000
  0
VERTEX
  8
gg1
 10
7.570000
 20
15.650000
  0
SEQEND
  8
gg1
  0
POLYLINE
  8
gg1
 62
1
 40
0.000000
 41
0.000000
 66
  1
  0
VERTEX
  8
gg1
 10
7.550000
 20
15.630000
  0
VERTEX
  8
gg1
 10
7.550000
 20
15.670000
  0
SEQEND
  8
gg1
  0
ENDSEC
  0
EOF
