  0
SECTION
  2
HEADER
  9
$EXTMIN
 10
-1.624000
 20
-1.184000
  9
$EXTMAX
 10
-0.685000
 20
0.240000
  9
$LIMMIN
 10
-1.624000
 20
-1.184000
  9
$LIMMAX
 10
-0.685000
 20
0.240000
  9
$FILLMODE
 70
  1
  0
ENDSEC
  0
SECTION
  2
TABLES
  0
TABLE
  2
LTYPE
 70
  1
  0
LTYPE
  2
CONTINUOUS
 70
 64
  3
Solid line
 72
 65
 73
  0
 40
0.0
  0
ENDTAB
  0
TABLE
  2
LAYER
 70
 1
  0
LAYER
  2
0
 70
  0
 62
7
  6
CONTINUOUS
  0
LAYER
  2
gg1
 70
  0
 62
1
  6
CONTINUOUS
  0
ENDTAB
  0
TABLE
  2
STYLE
 70
  1
  0
STYLE
  2
STANDARD
 70
  0
 40
0.0
 41
1.0
 50
0.0
 71
  0
 42
0.2
  3
txt
  4

  0
ENDTAB
  0
ENDSEC
  0
SECTION
  2
BLOCKS
  0
BLOCK
  8
0
  2
D10
 70
64
 10
0.0
 20
0.0
  3
D10
  0
CIRCLE
  8
0
 10
0.000000
 20
0.000000
 40
0.005000
 0
ENDBLK
  8
0
  0
BLOCK
  8
0
  2
D11
 70
64
 10
0.0
 20
0.0
  3
D11
  0
CIRCLE
  8
0
 10
0.000000
 20
0.000000
 40
0.003000
 0
ENDBLK
  8
0
  0
BLOCK
  8
0
  2
D12
 70
64
 10
0.0
 20
0.0
  3
D12
  0
CIRCLE
  8
0
 10
0.000000
 20
0.000000
 40
0.001000
 0
ENDBLK
  8
0
  0
ENDSEC
  0
SECTION
  2
ENTITIES
  0
POLYLINE
  8
gg1
 62
1
 40
0.000000
 41
0.000000
 66
  1
  0
VERTEX
  8
gg1
 10
-1.490000
 20
-1.065000
  0
VERTEX
  8
gg1
 10
-0.690000
 20
-1.065000
  0
VERTEX
  8
gg1
 10
-0.690000
 20
0.235000
  0
SEQEND
  8
gg1
  0
POLYLINE
  8
gg1
 62
1
 40
0.000000
 41
0.000000
 66
  1
  0
VERTEX
  8
gg1
 10
-1.490000
 20
0.235000
  0
VERTEX
  8
gg1
 10
-0.690000
 20
0.235000
  0
SEQEND
  8
gg1
  0
POLYLINE
  8
gg1
 62
1
 40
0.000000
 41
0.000000
 66
  1
  0
VERTEX
  8
gg1
 10
-1.490000
 20
-1.065000
  0
VERTEX
  8
gg1
 10
-1.490000
 20
0.235000
  0
SEQEND
  8
gg1
  0
POLYLINE
  8
gg1
 62
1
 40
0.000000
 41
0.000000
 66
  1
  0
VERTEX
  8
gg1
 10
-1.490000
 20
-1.145000
  0
VERTEX
  8
gg1
 10
-1.430000
 20
-1.125000
  0
SEQEND
  8
gg1
  0
POLYLINE
  8
gg1
 62
1
 40
0.000000
 41
0.000000
 66
  1
  0
VERTEX
  8
gg1
 10
-1.490000
 20
-1.145000
  0
VERTEX
  8
gg1
 10
-1.430000
 20
-1.165000
  0
SEQEND
  8
gg1
  0
POLYLINE
  8
gg1
 62
1
 40
0.000000
 41
0.000000
 66
  1
  0
VERTEX
  8
gg1
 10
-0.750000
 20
-1.165000
  0
VERTEX
  8
gg1
 10
-0.690000
 20
-1.145000
  0
SEQEND
  8
gg1
  0
POLYLINE
  8
gg1
 62
1
 40
0.000000
 41
0.000000
 66
  1
  0
VERTEX
  8
gg1
 10
-0.750000
 20
-1.125000
  0
VERTEX
  8
gg1
 10
-0.690000
 20
-1.145000
  0
SEQEND
  8
gg1
  0
POLYLINE
  8
gg1
 62
1
 40
0.000000
 41
0.000000
 66
  1
  0
VERTEX
  8
gg1
 10
-1.490000
 20
-1.145000
  0
VERTEX
  8
gg1
 10
-1.277000
 20
-1.145000
  0
SEQEND
  8
gg1
  0
POLYLINE
  8
gg1
 62
1
 40
0.000000
 41
0.000000
 66
  1
  0
VERTEX
  8
gg1
 10
-0.935100
 20
-1.145000
  0
VERTEX
  8
gg1
 10
-0.690000
 20
-1.145000
  0
SEQEND
  8
gg1
  0
POLYLINE
  8
gg1
 62
1
 40
0.000000
 41
0.000000
 66
  1
  0
VERTEX
  8
gg1
 10
-1.490000
 20
-1.155000
  0
VERTEX
  8
gg1
 10
-1.490000
 20
-1.080000
  0
SEQEND
  8
gg1
  0
POLYLINE
  8
gg1
 62
1
 40
0.000000
 41
0.000000
 66
  1
  0
VERTEX
  8
gg1
 10
-0.690000
 20
-1.155000
  0
VERTEX
  8
gg1
 10
-0.690000
 20
-1.075000
  0
SEQEND
  8
gg1
  0
POLYLINE
  8
gg1
 62
1
 40
0.000000
 41
0.000000
 66
  1
  0
VERTEX
  8
gg1
 10
-1.610000
 20
-1.005000
  0
VERTEX
  8
gg1
 10
-1.590000
 20
-1.065000
  0
VERTEX
  8
gg1
 10
-1.570000
 20
-1.005000
  0
SEQEND
  8
gg1
  0
POLYLINE
  8
gg1
 62
1
 40
0.000000
 41
0.000000
 66
  1
  0
VERTEX
  8
gg1
 10
-1.590000
 20
0.235000
  0
VERTEX
  8
gg1
 10
-1.570000
 20
0.175000
  0
SEQEND
  8
gg1
  0
POLYLINE
  8
gg1
 62
1
 40
0.000000
 41
0.000000
 66
  1
  0
VERTEX
  8
gg1
 10
-1.610000
 20
0.175000
  0
VERTEX
  8
gg1
 10
-1.590000
 20
0.235000
  0
SEQEND
  8
gg1
  0
POLYLINE
  8
gg1
 62
1
 40
0.000000
 41
0.000000
 66
  1
  0
VERTEX
  8
gg1
 10
-1.590000
 20
-1.065000
  0
VERTEX
  8
gg1
 10
-1.590000
 20
-0.615000
  0
SEQEND
  8
gg1
  0
POLYLINE
  8
gg1
 62
1
 40
0.000000
 41
0.000000
 66
  1
  0
VERTEX
  8
gg1
 10
-1.590000
 20
-0.223100
  0
VERTEX
  8
gg1
 10
-1.590000
 20
0.235000
  0
SEQEND
  8
gg1
  0
POLYLINE
  8
gg1
 62
1
 40
0.000000
 41
0.000000
 66
  1
  0
VERTEX
  8
gg1
 10
-1.600000
 20
-1.065000
  0
VERTEX
  8
gg1
 10
-1.500000
 20
-1.065000
  0
SEQEND
  8
gg1
  0
POLYLINE
  8
gg1
 62
1
 40
0.000000
 41
0.000000
 66
  1
  0
VERTEX
  8
gg1
 10
-1.600000
 20
0.235000
  0
VERTEX
  8
gg1
 10
-1.500000
 20
0.235000
  0
SEQEND
  8
gg1
  0
POLYLINE
  8
gg1
 62
1
 40
0.000000
 41
0.000000
 66
  1
  0
VERTEX
  8
gg1
 10
-1.260900
 20
-1.131000
  0
VERTEX
  8
gg1
 10
-1.251000
 20
-1.121000
  0
VERTEX
  8
gg1
 10
-1.231000
 20
-1.121000
  0
VERTEX
  8
gg1
 10
-1.221000
 20
-1.131000
  0
VERTEX
  8
gg1
 10
-1.221000
 20
-1.141000
  0
VERTEX
  8
gg1
 10
-1.231000
 20
-1.151000
  0
VERTEX
  8
gg1
 10
-1.221000
 20
-1.161000
  0
VERTEX
  8
gg1
 10
-1.221000
 20
-1.171000
  0
VERTEX
  8
gg1
 10
-1.231000
 20
-1.181000
  0
VERTEX
  8
gg1
 10
-1.251000
 20
-1.181000
  0
VERTEX
  8
gg1
 10
-1.260900
 20
-1.171000
  0
VERTEX
  8
gg1
 10
-1.260900
 20
-1.161000
  0
VERTEX
  8
gg1
 10
-1.251000
 20
-1.151000
  0
VERTEX
  8
gg1
 10
-1.260900
 20
-1.141000
  0
VERTEX
  8
gg1
 10
-1.260900
 20
-1.131000
  0
SEQEND
  8
gg1
  0
POLYLINE
  8
gg1
 62
1
 40
0.000000
 41
0.000000
 66
  1
  0
VERTEX
  8
gg1
 10
-1.251000
 20
-1.151000
  0
VERTEX
  8
gg1
 10
-1.231000
 20
-1.151000
  0
SEQEND
  8
gg1
  0
POLYLINE
  8
gg1
 62
1
 40
0.000000
 41
0.000000
 66
  1
  0
VERTEX
  8
gg1
 10
-1.201000
 20
-1.131000
  0
VERTEX
  8
gg1
 10
-1.191000
 20
-1.121000
  0
VERTEX
  8
gg1
 10
-1.171000
 20
-1.121000
  0
VERTEX
  8
gg1
 10
-1.161000
 20
-1.131000
  0
VERTEX
  8
gg1
 10
-1.161000
 20
-1.171000
  0
VERTEX
  8
gg1
 10
-1.171000
 20
-1.181000
  0
VERTEX
  8
gg1
 10
-1.191000
 20
-1.181000
  0
VERTEX
  8
gg1
 10
-1.201000
 20
-1.171000
  0
VERTEX
  8
gg1
 10
-1.201000
 20
-1.131000
  0
SEQEND
  8
gg1
  0
POLYLINE
  8
gg1
 62
1
 40
0.000000
 41
0.000000
 66
  1
  0
VERTEX
  8
gg1
 10
-1.141000
 20
-1.131000
  0
VERTEX
  8
gg1
 10
-1.131000
 20
-1.121000
  0
VERTEX
  8
gg1
 10
-1.111000
 20
-1.121000
  0
VERTEX
  8
gg1
 10
-1.101000
 20
-1.131000
  0
VERTEX
  8
gg1
 10
-1.101000
 20
-1.171000
  0
VERTEX
  8
gg1
 10
-1.111000
 20
-1.181000
  0
VERTEX
  8
gg1
 10
-1.131000
 20
-1.181000
  0
VERTEX
  8
gg1
 10
-1.141000
 20
-1.171000
  0
VERTEX
  8
gg1
 10
-1.141000
 20
-1.131000
  0
SEQEND
  8
gg1
  0
POLYLINE
  8
gg1
 62
1
 40
0.000000
 41
0.000000
 66
  1
  0
VERTEX
  8
gg1
 10
-1.081000
 20
-1.181000
  0
VERTEX
  8
gg1
 10
-1.081000
 20
-1.141000
  0
VERTEX
  8
gg1
 10
-1.071000
 20
-1.141000
  0
VERTEX
  8
gg1
 10
-1.061000
 20
-1.151000
  0
VERTEX
  8
gg1
 10
-1.061000
 20
-1.181000
  0
VERTEX
  8
gg1
 10
-1.061000
 20
-1.151000
  0
VERTEX
  8
gg1
 10
-1.051000
 20
-1.141000
  0
VERTEX
  8
gg1
 10
-1.041000
 20
-1.151000
  0
VERTEX
  8
gg1
 10
-1.041000
 20
-1.181000
  0
SEQEND
  8
gg1
  0
POLYLINE
  8
gg1
 62
1
 40
0.000000
 41
0.000000
 66
  1
  0
VERTEX
  8
gg1
 10
-1.021000
 20
-1.181000
  0
VERTEX
  8
gg1
 10
-1.001000
 20
-1.181000
  0
VERTEX
  8
gg1
 10
-1.011000
 20
-1.181000
  0
VERTEX
  8
gg1
 10
-1.011000
 20
-1.141000
  0
VERTEX
  8
gg1
 10
-1.021000
 20
-1.141000
  0
SEQEND
  8
gg1
  0
POLYLINE
  8
gg1
 62
1
 40
0.000000
 41
0.000000
 66
  1
  0
VERTEX
  8
gg1
 10
-0.971000
 20
-1.181000
  0
VERTEX
  8
gg1
 10
-0.951000
 20
-1.181000
  0
VERTEX
  8
gg1
 10
-0.961000
 20
-1.181000
  0
VERTEX
  8
gg1
 10
-0.961000
 20
-1.121000
  0
VERTEX
  8
gg1
 10
-0.971000
 20
-1.121000
  0
SEQEND
  8
gg1
  0
POLYLINE
  8
gg1
 62
1
 40
0.000000
 41
0.000000
 66
  1
  0
VERTEX
  8
gg1
 10
-1.561000
 20
-0.599000
  0
VERTEX
  8
gg1
 10
-1.561000
 20
-0.579000
  0
VERTEX
  8
gg1
 10
-1.561000
 20
-0.589000
  0
VERTEX
  8
gg1
 10
-1.621000
 20
-0.589000
  0
VERTEX
  8
gg1
 10
-1.611000
 20
-0.599000
  0
SEQEND
  8
gg1
  0
POLYLINE
  8
gg1
 62
1
 40
0.000000
 41
0.000000
 66
  1
  0
VERTEX
  8
gg1
 10
-1.611000
 20
-0.549000
  0
VERTEX
  8
gg1
 10
-1.621000
 20
-0.539000
  0
VERTEX
  8
gg1
 10
-1.621000
 20
-0.519000
  0
VERTEX
  8
gg1
 10
-1.611000
 20
-0.509000
  0
VERTEX
  8
gg1
 10
-1.601000
 20
-0.509000
  0
VERTEX
  8
gg1
 10
-1.591000
 20
-0.519000
  0
VERTEX
  8
gg1
 10
-1.591000
 20
-0.529000
  0
VERTEX
  8
gg1
 10
-1.591000
 20
-0.519000
  0
VERTEX
  8
gg1
 10
-1.581000
 20
-0.509000
  0
VERTEX
  8
gg1
 10
-1.571000
 20
-0.509000
  0
VERTEX
  8
gg1
 10
-1.561000
 20
-0.519000
  0
VERTEX
  8
gg1
 10
-1.561000
 20
-0.539000
  0
VERTEX
  8
gg1
 10
-1.571000
 20
-0.549000
  0
SEQEND
  8
gg1
  0
POLYLINE
  8
gg1
 62
1
 40
0.000000
 41
0.000000
 66
  1
  0
VERTEX
  8
gg1
 10
-1.611000
 20
-0.489000
  0
VERTEX
  8
gg1
 10
-1.621000
 20
-0.479000
  0
VERTEX
  8
gg1
 10
-1.621000
 20
-0.459000
  0
VERTEX
  8
gg1
 10
-1.611000
 20
-0.449000
  0
VERTEX
  8
gg1
 10
-1.571000
 20
-0.449000
  0
VERTEX
  8
gg1
 10
-1.561000
 20
-0.459000
  0
VERTEX
  8
gg1
 10
-1.561000
 20
-0.479000
  0
VERTEX
  8
gg1
 10
-1.571000
 20
-0.489000
  0
VERTEX
  8
gg1
 10
-1.611000
 20
-0.489000
  0
SEQEND
  8
gg1
  0
POLYLINE
  8
gg1
 62
1
 40
0.000000
 41
0.000000
 66
  1
  0
VERTEX
  8
gg1
 10
-1.611000
 20
-0.429100
  0
VERTEX
  8
gg1
 10
-1.621000
 20
-0.419100
  0
VERTEX
  8
gg1
 10
-1.621000
 20
-0.399100
  0
VERTEX
  8
gg1
 10
-1.611000
 20
-0.389100
  0
VERTEX
  8
gg1
 10
-1.571000
 20
-0.389100
  0
VERTEX
  8
gg1
 10
-1.561000
 20
-0.399100
  0
VERTEX
  8
gg1
 10
-1.561000
 20
-0.419100
  0
VERTEX
  8
gg1
 10
-1.571000
 20
-0.429100
  0
VERTEX
  8
gg1
 10
-1.611000
 20
-0.429100
  0
SEQEND
  8
gg1
  0
POLYLINE
  8
gg1
 62
1
 40
0.000000
 41
0.000000
 66
  1
  0
VERTEX
  8
gg1
 10
-1.561000
 20
-0.369100
  0
VERTEX
  8
gg1
 10
-1.601000
 20
-0.369100
  0
VERTEX
  8
gg1
 10
-1.601000
 20
-0.359100
  0
VERTEX
  8
gg1
 10
-1.591000
 20
-0.349100
  0
VERTEX
  8
gg1
 10
-1.561000
 20
-0.349100
  0
VERTEX
  8
gg1
 10
-1.591000
 20
-0.349100
  0
VERTEX
  8
gg1
 10
-1.601000
 20
-0.339100
  0
VERTEX
  8
gg1
 10
-1.591000
 20
-0.329100
  0
VERTEX
  8
gg1
 10
-1.561000
 20
-0.329100
  0
SEQEND
  8
gg1
  0
POLYLINE
  8
gg1
 62
1
 40
0.000000
 41
0.000000
 66
  1
  0
VERTEX
  8
gg1
 10
-1.561000
 20
-0.309100
  0
VERTEX
  8
gg1
 10
-1.561000
 20
-0.289100
  0
VERTEX
  8
gg1
 10
-1.561000
 20
-0.299100
  0
VERTEX
  8
gg1
 10
-1.601000
 20
-0.299100
  0
VERTEX
  8
gg1
 10
-1.601000
 20
-0.309100
  0
SEQEND
  8
gg1
  0
POLYLINE
  8
gg1
 62
1
 40
0.000000
 41
0.000000
 66
  1
  0
VERTEX
  8
gg1
 10
-1.561000
 20
-0.259100
  0
VERTEX
  8
gg1
 10
-1.561000
 20
-0.239100
  0
VERTEX
  8
gg1
 10
-1.561000
 20
-0.249100
  0
VERTEX
  8
gg1
 10
-1.621000
 20
-0.249100
  0
VERTEX
  8
gg1
 10
-1.621000
 20
-0.259100
  0
SEQEND
  8
gg1
  0
POLYLINE
  8
gg1
 62
1
 40
0.000000
 41
0.000000
 66
  1
  0
VERTEX
  8
gg1
 10
-1.443000
 20
-0.115000
  0
VERTEX
  8
gg1
 10
-1.357000
 20
-0.115000
  0
SEQEND
  8
gg1
  0
POLYLINE
  8
gg1
 62
1
 40
0.000000
 41
0.000000
 66
  1
  0
VERTEX
  8
gg1
 10
-1.400000
 20
-0.158000
  0
VERTEX
  8
gg1
 10
-1.400000
 20
-0.072000
  0
SEQEND
  8
gg1
  0
POLYLINE
  8
gg1
 62
1
 40
0.000000
 41
0.000000
 66
  1
  0
VERTEX
  8
gg1
 10
-0.823000
 20
-0.740000
  0
VERTEX
  8
gg1
 10
-0.737000
 20
-0.740000
  0
SEQEND
  8
gg1
  0
POLYLINE
  8
gg1
 62
1
 40
0.000000
 41
0.000000
 66
  1
  0
VERTEX
  8
gg1
 10
-0.780000
 20
-0.783000
  0
VERTEX
  8
gg1
 10
-0.780000
 20
-0.697000
  0
SEQEND
  8
gg1
  0
POLYLINE
  8
gg1
 62
1
 40
0.000000
 41
0.000000
 66
  1
  0
VERTEX
  8
gg1
 10
-1.462500
 20
0.085000
  0
VERTEX
  8
gg1
 10
-1.417500
 20
0.085000
  0
SEQEND
  8
gg1
  0
POLYLINE
  8
gg1
 62
1
 40
0.000000
 41
0.000000
 66
  1
  0
VERTEX
  8
gg1
 10
-1.440000
 20
0.062500
  0
VERTEX
  8
gg1
 10
-1.440000
 20
0.107500
  0
SEQEND
  8
gg1
  0
POLYLINE
  8
gg1
 62
1
 40
0.000000
 41
0.000000
 66
  1
  0
VERTEX
  8
gg1
 10
-1.362500
 20
0.085000
  0
VERTEX
  8
gg1
 10
-1.317500
 20
0.085000
  0
SEQEND
  8
gg1
  0
POLYLINE
  8
gg1
 62
1
 40
0.000000
 41
0.000000
 66
  1
  0
VERTEX
  8
gg1
 10
-1.340000
 20
0.062500
  0
VERTEX
  8
gg1
 10
-1.340000
 20
0.107500
  0
SEQEND
  8
gg1
  0
POLYLINE
  8
gg1
 62
1
 40
0.000000
 41
0.000000
 66
  1
  0
VERTEX
  8
gg1
 10
-1.262500
 20
0.085000
  0
VERTEX
  8
gg1
 10
-1.217500
 20
0.085000
  0
SEQEND
  8
gg1
  0
POLYLINE
  8
gg1
 62
1
 40
0.000000
 41
0.000000
 66
  1
  0
VERTEX
  8
gg1
 10
-1.240000
 20
0.062500
  0
VERTEX
  8
gg1
 10
-1.240000
 20
0.107500
  0
SEQEND
  8
gg1
  0
POLYLINE
  8
gg1
 62
1
 40
0.000000
 41
0.000000
 66
  1
  0
VERTEX
  8
gg1
 10
-1.162500
 20
0.085000
  0
VERTEX
  8
gg1
 10
-1.117500
 20
0.085000
  0
SEQEND
  8
gg1
  0
POLYLINE
  8
gg1
 62
1
 40
0.000000
 41
0.000000
 66
  1
  0
VERTEX
  8
gg1
 10
-1.140000
 20
0.062500
  0
VERTEX
  8
gg1
 10
-1.140000
 20
0.107500
  0
SEQEND
  8
gg1
  0
POLYLINE
  8
gg1
 62
1
 40
0.000000
 41
0.000000
 66
  1
  0
VERTEX
  8
gg1
 10
-1.062500
 20
0.085000
  0
VERTEX
  8
gg1
 10
-1.017500
 20
0.085000
  0
SEQEND
  8
gg1
  0
POLYLINE
  8
gg1
 62
1
 40
0.000000
 41
0.000000
 66
  1
  0
VERTEX
  8
gg1
 10
-1.040000
 20
0.062500
  0
VERTEX
  8
gg1
 10
-1.040000
 20
0.107500
  0
SEQEND
  8
gg1
  0
POLYLINE
  8
gg1
 62
1
 40
0.000000
 41
0.000000
 66
  1
  0
VERTEX
  8
gg1
 10
-0.962500
 20
0.085000
  0
VERTEX
  8
gg1
 10
-0.917500
 20
0.085000
  0
SEQEND
  8
gg1
  0
POLYLINE
  8
gg1
 62
1
 40
0.000000
 41
0.000000
 66
  1
  0
VERTEX
  8
gg1
 10
-0.940000
 20
0.062500
  0
VERTEX
  8
gg1
 10
-0.940000
 20
0.107500
  0
SEQEND
  8
gg1
  0
POLYLINE
  8
gg1
 62
1
 40
0.000000
 41
0.000000
 66
  1
  0
VERTEX
  8
gg1
 10
-0.862500
 20
0.085000
  0
VERTEX
  8
gg1
 10
-0.817500
 20
0.085000
  0
SEQEND
  8
gg1
  0
POLYLINE
  8
gg1
 62
1
 40
0.000000
 41
0.000000
 66
  1
  0
VERTEX
  8
gg1
 10
-0.840000
 20
0.062500
  0
VERTEX
  8
gg1
 10
-0.840000
 20
0.107500
  0
SEQEND
  8
gg1
  0
POLYLINE
  8
gg1
 62
1
 40
0.000000
 41
0.000000
 66
  1
  0
VERTEX
  8
gg1
 10
-0.762500
 20
0.085000
  0
VERTEX
  8
gg1
 10
-0.717500
 20
0.085000
  0
SEQEND
  8
gg1
  0
POLYLINE
  8
gg1
 62
1
 40
0.000000
 41
0.000000
 66
  1
  0
VERTEX
  8
gg1
 10
-0.740000
 20
0.062500
  0
VERTEX
  8
gg1
 10
-0.740000
 20
0.107500
  0
SEQEND
  8
gg1
  0
POLYLINE
  8
gg1
 62
1
 40
0.000000
 41
0.000000
 66
  1
  0
VERTEX
  8
gg1
 10
-1.457500
 20
-0.475000
  0
VERTEX
  8
gg1
 10
-1.412500
 20
-0.475000
  0
SEQEND
  8
gg1
  0
POLYLINE
  8
gg1
 62
1
 40
0.000000
 41
0.000000
 66
  1
  0
VERTEX
  8
gg1
 10
-1.435000
 20
-0.497500
  0
VERTEX
  8
gg1
 10
-1.435000
 20
-0.452500
  0
SEQEND
  8
gg1
  0
POLYLINE
  8
gg1
 62
1
 40
0.000000
 41
0.000000
 66
  1
  0
VERTEX
  8
gg1
 10
-0.762500
 20
-0.475000
  0
VERTEX
  8
gg1
 10
-0.717500
 20
-0.475000
  0
SEQEND
  8
gg1
  0
POLYLINE
  8
gg1
 62
1
 40
0.000000
 41
0.000000
 66
  1
  0
VERTEX
  8
gg1
 10
-0.740000
 20
-0.497500
  0
VERTEX
  8
gg1
 10
-0.740000
 20
-0.452500
  0
SEQEND
  8
gg1
  0
POLYLINE
  8
gg1
 62
1
 40
0.000000
 41
0.000000
 66
  1
  0
VERTEX
  8
gg1
 10
-1.233000
 20
0.145000
  0
VERTEX
  8
gg1
 10
-1.147000
 20
0.145000
  0
SEQEND
  8
gg1
  0
POLYLINE
  8
gg1
 62
1
 40
0.000000
 41
0.000000
 66
  1
  0
VERTEX
  8
gg1
 10
-1.190000
 20
0.102000
  0
VERTEX
  8
gg1
 10
-1.190000
 20
0.188000
  0
SEQEND
  8
gg1
  0
POLYLINE
  8
gg1
 62
1
 40
0.000000
 41
0.000000
 66
  1
  0
VERTEX
  8
gg1
 10
-1.433000
 20
0.145000
  0
VERTEX
  8
gg1
 10
-1.347000
 20
0.145000
  0
SEQEND
  8
gg1
  0
POLYLINE
  8
gg1
 62
1
 40
0.000000
 41
0.000000
 66
  1
  0
VERTEX
  8
gg1
 10
-1.390000
 20
0.102000
  0
VERTEX
  8
gg1
 10
-1.390000
 20
0.188000
  0
SEQEND
  8
gg1
  0
POLYLINE
  8
gg1
 62
1
 40
0.000000
 41
0.000000
 66
  1
  0
VERTEX
  8
gg1
 10
-0.833000
 20
0.145000
  0
VERTEX
  8
gg1
 10
-0.747000
 20
0.145000
  0
SEQEND
  8
gg1
  0
POLYLINE
  8
gg1
 62
1
 40
0.000000
 41
0.000000
 66
  1
  0
VERTEX
  8
gg1
 10
-0.790000
 20
0.102000
  0
VERTEX
  8
gg1
 10
-0.790000
 20
0.188000
  0
SEQEND
  8
gg1
  0
POLYLINE
  8
gg1
 62
1
 40
0.000000
 41
0.000000
 66
  1
  0
VERTEX
  8
gg1
 10
-1.033000
 20
0.145000
  0
VERTEX
  8
gg1
 10
-0.947000
 20
0.145000
  0
SEQEND
  8
gg1
  0
POLYLINE
  8
gg1
 62
1
 40
0.000000
 41
0.000000
 66
  1
  0
VERTEX
  8
gg1
 10
-0.990000
 20
0.102000
  0
VERTEX
  8
gg1
 10
-0.990000
 20
0.188000
  0
SEQEND
  8
gg1
  0
POLYLINE
  8
gg1
 62
1
 40
0.000000
 41
0.000000
 66
  1
  0
VERTEX
  8
gg1
 10
-0.760000
 20
-1.015000
  0
VERTEX
  8
gg1
 10
-0.720000
 20
-1.015000
  0
SEQEND
  8
gg1
  0
POLYLINE
  8
gg1
 62
1
 40
0.000000
 41
0.000000
 66
  1
  0
VERTEX
  8
gg1
 10
-0.740000
 20
-1.035000
  0
VERTEX
  8
gg1
 10
-0.740000
 20
-0.995000
  0
SEQEND
  8
gg1
  0
POLYLINE
  8
gg1
 62
1
 40
0.000000
 41
0.000000
 66
  1
  0
VERTEX
  8
gg1
 10
-1.460000
 20
-1.015000
  0
VERTEX
  8
gg1
 10
-1.420000
 20
-1.015000
  0
SEQEND
  8
gg1
  0
POLYLINE
  8
gg1
 62
1
 40
0.000000
 41
0.000000
 66
  1
  0
VERTEX
  8
gg1
 10
-1.440000
 20
-1.035000
  0
VERTEX
  8
gg1
 10
-1.440000
 20
-0.995000
  0
SEQEND
  8
gg1
  0
POLYLINE
  8
gg1
 62
1
 40
0.000000
 41
0.000000
 66
  1
  0
VERTEX
  8
gg1
 10
-1.360000
 20
-1.015000
  0
VERTEX
  8
gg1
 10
-1.320000
 20
-1.015000
  0
SEQEND
  8
gg1
  0
POLYLINE
  8
gg1
 62
1
 40
0.000000
 41
0.000000
 66
  1
  0
VERTEX
  8
gg1
 10
-1.340000
 20
-1.035000
  0
VERTEX
  8
gg1
 10
-1.340000
 20
-0.995000
  0
SEQEND
  8
gg1
  0
POLYLINE
  8
gg1
 62
1
 40
0.000000
 41
0.000000
 66
  1
  0
VERTEX
  8
gg1
 10
-1.260000
 20
-1.015000
  0
VERTEX
  8
gg1
 10
-1.220000
 20
-1.015000
  0
SEQEND
  8
gg1
  0
POLYLINE
  8
gg1
 62
1
 40
0.000000
 41
0.000000
 66
  1
  0
VERTEX
  8
gg1
 10
-1.240000
 20
-1.035000
  0
VERTEX
  8
gg1
 10
-1.240000
 20
-0.995000
  0
SEQEND
  8
gg1
  0
POLYLINE
  8
gg1
 62
1
 40
0.000000
 41
0.000000
 66
  1
  0
VERTEX
  8
gg1
 10
-1.160000
 20
-1.015000
  0
VERTEX
  8
gg1
 10
-1.120000
 20
-1.015000
  0
SEQEND
  8
gg1
  0
POLYLINE
  8
gg1
 62
1
 40
0.000000
 41
0.000000
 66
  1
  0
VERTEX
  8
gg1
 10
-1.140000
 20
-1.035000
  0
VERTEX
  8
gg1
 10
-1.140000
 20
-0.995000
  0
SEQEND
  8
gg1
  0
POLYLINE
  8
gg1
 62
1
 40
0.000000
 41
0.000000
 66
  1
  0
VERTEX
  8
gg1
 10
-1.060000
 20
-1.015000
  0
VERTEX
  8
gg1
 10
-1.020000
 20
-1.015000
  0
SEQEND
  8
gg1
  0
POLYLINE
  8
gg1
 62
1
 40
0.000000
 41
0.000000
 66
  1
  0
VERTEX
  8
gg1
 10
-1.040000
 20
-1.035000
  0
VERTEX
  8
gg1
 10
-1.040000
 20
-0.995000
  0
SEQEND
  8
gg1
  0
POLYLINE
  8
gg1
 62
1
 40
0.000000
 41
0.000000
 66
  1
  0
VERTEX
  8
gg1
 10
-0.960000
 20
-1.015000
  0
VERTEX
  8
gg1
 10
-0.920000
 20
-1.015000
  0
SEQEND
  8
gg1
  0
POLYLINE
  8
gg1
 62
1
 40
0.000000
 41
0.000000
 66
  1
  0
VERTEX
  8
gg1
 10
-0.940000
 20
-1.035000
  0
VERTEX
  8
gg1
 10
-0.940000
 20
-0.995000
  0
SEQEND
  8
gg1
  0
POLYLINE
  8
gg1
 62
1
 40
0.000000
 41
0.000000
 66
  1
  0
VERTEX
  8
gg1
 10
-0.860000
 20
-1.015000
  0
VERTEX
  8
gg1
 10
-0.820000
 20
-1.015000
  0
SEQEND
  8
gg1
  0
POLYLINE
  8
gg1
 62
1
 40
0.000000
 41
0.000000
 66
  1
  0
VERTEX
  8
gg1
 10
-0.840000
 20
-1.035000
  0
VERTEX
  8
gg1
 10
-0.840000
 20
-0.995000
  0
SEQEND
  8
gg1
  0
POLYLINE
  8
gg1
 62
1
 40
0.000000
 41
0.000000
 66
  1
  0
VERTEX
  8
gg1
 10
-1.022500
 20
-0.700000
  0
VERTEX
  8
gg1
 10
-1.007500
 20
-0.700000
  0
SEQEND
  8
gg1
  0
POLYLINE
  8
gg1
 62
1
 40
0.000000
 41
0.000000
 66
  1
  0
VERTEX
  8
gg1
 10
-1.015000
 20
-0.707500
  0
VERTEX
  8
gg1
 10
-1.015000
 20
-0.692500
  0
SEQEND
  8
gg1
  0
POLYLINE
  8
gg1
 62
1
 40
0.000000
 41
0.000000
 66
  1
  0
VERTEX
  8
gg1
 10
-1.002500
 20
-0.805000
  0
VERTEX
  8
gg1
 10
-0.987500
 20
-0.805000
  0
SEQEND
  8
gg1
  0
POLYLINE
  8
gg1
 62
1
 40
0.000000
 41
0.000000
 66
  1
  0
VERTEX
  8
gg1
 10
-0.995000
 20
-0.812500
  0
VERTEX
  8
gg1
 10
-0.995000
 20
-0.797500
  0
SEQEND
  8
gg1
  0
POLYLINE
  8
gg1
 62
1
 40
0.000000
 41
0.000000
 66
  1
  0
VERTEX
  8
gg1
 10
-0.935000
 20
-0.775000
  0
VERTEX
  8
gg1
 10
-0.920000
 20
-0.775000
  0
SEQEND
  8
gg1
  0
POLYLINE
  8
gg1
 62
1
 40
0.000000
 41
0.000000
 66
  1
  0
VERTEX
  8
gg1
 10
-0.927500
 20
-0.782500
  0
VERTEX
  8
gg1
 10
-0.927500
 20
-0.767500
  0
SEQEND
  8
gg1
  0
POLYLINE
  8
gg1
 62
1
 40
0.000000
 41
0.000000
 66
  1
  0
VERTEX
  8
gg1
 10
-1.007500
 20
-0.195000
  0
VERTEX
  8
gg1
 10
-0.992500
 20
-0.195000
  0
SEQEND
  8
gg1
  0
POLYLINE
  8
gg1
 62
1
 40
0.000000
 41
0.000000
 66
  1
  0
VERTEX
  8
gg1
 10
-1.000000
 20
-0.202500
  0
VERTEX
  8
gg1
 10
-1.000000
 20
-0.187500
  0
SEQEND
  8
gg1
  0
POLYLINE
  8
gg1
 62
1
 40
0.000000
 41
0.000000
 66
  1
  0
VERTEX
  8
gg1
 10
-1.208500
 20
-0.935000
  0
VERTEX
  8
gg1
 10
-1.193500
 20
-0.935000
  0
SEQEND
  8
gg1
  0
POLYLINE
  8
gg1
 62
1
 40
0.000000
 41
0.000000
 66
  1
  0
VERTEX
  8
gg1
 10
-1.201000
 20
-0.942500
  0
VERTEX
  8
gg1
 10
-1.201000
 20
-0.927500
  0
SEQEND
  8
gg1
  0
POLYLINE
  8
gg1
 62
1
 40
0.000000
 41
0.000000
 66
  1
  0
VERTEX
  8
gg1
 10
-0.787500
 20
-0.885000
  0
VERTEX
  8
gg1
 10
-0.772500
 20
-0.885000
  0
SEQEND
  8
gg1
  0
POLYLINE
  8
gg1
 62
1
 40
0.000000
 41
0.000000
 66
  1
  0
VERTEX
  8
gg1
 10
-0.780000
 20
-0.892500
  0
VERTEX
  8
gg1
 10
-0.780000
 20
-0.877500
  0
SEQEND
  8
gg1
  0
POLYLINE
  8
gg1
 62
1
 40
0.000000
 41
0.000000
 66
  1
  0
VERTEX
  8
gg1
 10
-0.800000
 20
-0.932500
  0
VERTEX
  8
gg1
 10
-0.785000
 20
-0.932500
  0
SEQEND
  8
gg1
  0
POLYLINE
  8
gg1
 62
1
 40
0.000000
 41
0.000000
 66
  1
  0
VERTEX
  8
gg1
 10
-0.792500
 20
-0.940000
  0
VERTEX
  8
gg1
 10
-0.792500
 20
-0.925000
  0
SEQEND
  8
gg1
  0
POLYLINE
  8
gg1
 62
1
 40
0.000000
 41
0.000000
 66
  1
  0
VERTEX
  8
gg1
 10
-1.197500
 20
-0.565000
  0
VERTEX
  8
gg1
 10
-1.182500
 20
-0.565000
  0
SEQEND
  8
gg1
  0
POLYLINE
  8
gg1
 62
1
 40
0.000000
 41
0.000000
 66
  1
  0
VERTEX
  8
gg1
 10
-1.190000
 20
-0.572500
  0
VERTEX
  8
gg1
 10
-1.190000
 20
-0.557500
  0
SEQEND
  8
gg1
  0
POLYLINE
  8
gg1
 62
1
 40
0.000000
 41
0.000000
 66
  1
  0
VERTEX
  8
gg1
 10
-1.197500
 20
-0.535000
  0
VERTEX
  8
gg1
 10
-1.182500
 20
-0.535000
  0
SEQEND
  8
gg1
  0
POLYLINE
  8
gg1
 62
1
 40
0.000000
 41
0.000000
 66
  1
  0
VERTEX
  8
gg1
 10
-1.190000
 20
-0.542500
  0
VERTEX
  8
gg1
 10
-1.190000
 20
-0.527500
  0
SEQEND
  8
gg1
  0
POLYLINE
  8
gg1
 62
1
 40
0.000000
 41
0.000000
 66
  1
  0
VERTEX
  8
gg1
 10
-1.152500
 20
-0.255000
  0
VERTEX
  8
gg1
 10
-1.137500
 20
-0.255000
  0
SEQEND
  8
gg1
  0
POLYLINE
  8
gg1
 62
1
 40
0.000000
 41
0.000000
 66
  1
  0
VERTEX
  8
gg1
 10
-1.145000
 20
-0.262500
  0
VERTEX
  8
gg1
 10
-1.145000
 20
-0.247500
  0
SEQEND
  8
gg1
  0
POLYLINE
  8
gg1
 62
1
 40
0.000000
 41
0.000000
 66
  1
  0
VERTEX
  8
gg1
 10
-1.172500
 20
-0.205000
  0
VERTEX
  8
gg1
 10
-1.157500
 20
-0.205000
  0
SEQEND
  8
gg1
  0
POLYLINE
  8
gg1
 62
1
 40
0.000000
 41
0.000000
 66
  1
  0
VERTEX
  8
gg1
 10
-1.165000
 20
-0.212500
  0
VERTEX
  8
gg1
 10
-1.165000
 20
-0.197500
  0
SEQEND
  8
gg1
  0
POLYLINE
  8
gg1
 62
1
 40
0.000000
 41
0.000000
 66
  1
  0
VERTEX
  8
gg1
 10
-1.257500
 20
-0.340000
  0
VERTEX
  8
gg1
 10
-1.242500
 20
-0.340000
  0
SEQEND
  8
gg1
  0
POLYLINE
  8
gg1
 62
1
 40
0.000000
 41
0.000000
 66
  1
  0
VERTEX
  8
gg1
 10
-1.250000
 20
-0.347500
  0
VERTEX
  8
gg1
 10
-1.250000
 20
-0.332500
  0
SEQEND
  8
gg1
  0
POLYLINE
  8
gg1
 62
1
 40
0.000000
 41
0.000000
 66
  1
  0
VERTEX
  8
gg1
 10
-1.357500
 20
-0.225000
  0
VERTEX
  8
gg1
 10
-1.342500
 20
-0.225000
  0
SEQEND
  8
gg1
  0
POLYLINE
  8
gg1
 62
1
 40
0.000000
 41
0.000000
 66
  1
  0
VERTEX
  8
gg1
 10
-1.350000
 20
-0.232500
  0
VERTEX
  8
gg1
 10
-1.350000
 20
-0.217500
  0
SEQEND
  8
gg1
  0
POLYLINE
  8
gg1
 62
1
 40
0.000000
 41
0.000000
 66
  1
  0
VERTEX
  8
gg1
 10
-1.317500
 20
-0.505000
  0
VERTEX
  8
gg1
 10
-1.302500
 20
-0.505000
  0
SEQEND
  8
gg1
  0
POLYLINE
  8
gg1
 62
1
 40
0.000000
 41
0.000000
 66
  1
  0
VERTEX
  8
gg1
 10
-1.310000
 20
-0.512500
  0
VERTEX
  8
gg1
 10
-1.310000
 20
-0.497500
  0
SEQEND
  8
gg1
  0
POLYLINE
  8
gg1
 62
1
 40
0.000000
 41
0.000000
 66
  1
  0
VERTEX
  8
gg1
 10
-1.347500
 20
-0.415000
  0
VERTEX
  8
gg1
 10
-1.332500
 20
-0.415000
  0
SEQEND
  8
gg1
  0
POLYLINE
  8
gg1
 62
1
 40
0.000000
 41
0.000000
 66
  1
  0
VERTEX
  8
gg1
 10
-1.340000
 20
-0.422500
  0
VERTEX
  8
gg1
 10
-1.340000
 20
-0.407500
  0
SEQEND
  8
gg1
  0
POLYLINE
  8
gg1
 62
1
 40
0.000000
 41
0.000000
 66
  1
  0
VERTEX
  8
gg1
 10
-1.167500
 20
-0.475000
  0
VERTEX
  8
gg1
 10
-1.152500
 20
-0.475000
  0
SEQEND
  8
gg1
  0
POLYLINE
  8
gg1
 62
1
 40
0.000000
 41
0.000000
 66
  1
  0
VERTEX
  8
gg1
 10
-1.160000
 20
-0.482500
  0
VERTEX
  8
gg1
 10
-1.160000
 20
-0.467500
  0
SEQEND
  8
gg1
  0
POLYLINE
  8
gg1
 62
1
 40
0.000000
 41
0.000000
 66
  1
  0
VERTEX
  8
gg1
 10
-1.037500
 20
-0.535000
  0
VERTEX
  8
gg1
 10
-1.022500
 20
-0.535000
  0
SEQEND
  8
gg1
  0
POLYLINE
  8
gg1
 62
1
 40
0.000000
 41
0.000000
 66
  1
  0
VERTEX
  8
gg1
 10
-1.030000
 20
-0.542500
  0
VERTEX
  8
gg1
 10
-1.030000
 20
-0.527500
  0
SEQEND
  8
gg1
  0
POLYLINE
  8
gg1
 62
1
 40
0.000000
 41
0.000000
 66
  1
  0
VERTEX
  8
gg1
 10
-1.012500
 20
-0.470000
  0
VERTEX
  8
gg1
 10
-0.997500
 20
-0.470000
  0
SEQEND
  8
gg1
  0
POLYLINE
  8
gg1
 62
1
 40
0.000000
 41
0.000000
 66
  1
  0
VERTEX
  8
gg1
 10
-1.005000
 20
-0.477500
  0
VERTEX
  8
gg1
 10
-1.005000
 20
-0.462500
  0
SEQEND
  8
gg1
  0
POLYLINE
  8
gg1
 62
1
 40
0.000000
 41
0.000000
 66
  1
  0
VERTEX
  8
gg1
 10
-0.887500
 20
-0.145000
  0
VERTEX
  8
gg1
 10
-0.872500
 20
-0.145000
  0
SEQEND
  8
gg1
  0
POLYLINE
  8
gg1
 62
1
 40
0.000000
 41
0.000000
 66
  1
  0
VERTEX
  8
gg1
 10
-0.880000
 20
-0.152500
  0
VERTEX
  8
gg1
 10
-0.880000
 20
-0.137500
  0
SEQEND
  8
gg1
  0
POLYLINE
  8
gg1
 62
1
 40
0.000000
 41
0.000000
 66
  1
  0
VERTEX
  8
gg1
 10
-1.007500
 20
-0.155000
  0
VERTEX
  8
gg1
 10
-0.992500
 20
-0.155000
  0
SEQEND
  8
gg1
  0
POLYLINE
  8
gg1
 62
1
 40
0.000000
 41
0.000000
 66
  1
  0
VERTEX
  8
gg1
 10
-1.000000
 20
-0.162500
  0
VERTEX
  8
gg1
 10
-1.000000
 20
-0.147500
  0
SEQEND
  8
gg1
  0
POLYLINE
  8
gg1
 62
1
 40
0.000000
 41
0.000000
 66
  1
  0
VERTEX
  8
gg1
 10
-0.992500
 20
-0.125000
  0
VERTEX
  8
gg1
 10
-0.977500
 20
-0.125000
  0
SEQEND
  8
gg1
  0
POLYLINE
  8
gg1
 62
1
 40
0.000000
 41
0.000000
 66
  1
  0
VERTEX
  8
gg1
 10
-0.985000
 20
-0.132500
  0
VERTEX
  8
gg1
 10
-0.985000
 20
-0.117500
  0
SEQEND
  8
gg1
  0
POLYLINE
  8
gg1
 62
1
 40
0.000000
 41
0.000000
 66
  1
  0
VERTEX
  8
gg1
 10
-1.007500
 20
-0.095000
  0
VERTEX
  8
gg1
 10
-0.992500
 20
-0.095000
  0
SEQEND
  8
gg1
  0
POLYLINE
  8
gg1
 62
1
 40
0.000000
 41
0.000000
 66
  1
  0
VERTEX
  8
gg1
 10
-1.000000
 20
-0.102500
  0
VERTEX
  8
gg1
 10
-1.000000
 20
-0.087500
  0
SEQEND
  8
gg1
  0
POLYLINE
  8
gg1
 62
1
 40
0.000000
 41
0.000000
 66
  1
  0
VERTEX
  8
gg1
 10
-0.992500
 20
-0.065000
  0
VERTEX
  8
gg1
 10
-0.977500
 20
-0.065000
  0
SEQEND
  8
gg1
  0
POLYLINE
  8
gg1
 62
1
 40
0.000000
 41
0.000000
 66
  1
  0
VERTEX
  8
gg1
 10
-0.985000
 20
-0.072500
  0
VERTEX
  8
gg1
 10
-0.985000
 20
-0.057500
  0
SEQEND
  8
gg1
  0
POLYLINE
  8
gg1
 62
1
 40
0.000000
 41
0.000000
 66
  1
  0
VERTEX
  8
gg1
 10
-0.887500
 20
-0.105000
  0
VERTEX
  8
gg1
 10
-0.872500
 20
-0.105000
  0
SEQEND
  8
gg1
  0
POLYLINE
  8
gg1
 62
1
 40
0.000000
 41
0.000000
 66
  1
  0
VERTEX
  8
gg1
 10
-0.880000
 20
-0.112500
  0
VERTEX
  8
gg1
 10
-0.880000
 20
-0.097500
  0
SEQEND
  8
gg1
  0
POLYLINE
  8
gg1
 62
1
 40
0.000000
 41
0.000000
 66
  1
  0
VERTEX
  8
gg1
 10
-0.887500
 20
-0.065000
  0
VERTEX
  8
gg1
 10
-0.872500
 20
-0.065000
  0
SEQEND
  8
gg1
  0
POLYLINE
  8
gg1
 62
1
 40
0.000000
 41
0.000000
 66
  1
  0
VERTEX
  8
gg1
 10
-0.880000
 20
-0.072500
  0
VERTEX
  8
gg1
 10
-0.880000
 20
-0.057500
  0
SEQEND
  8
gg1
  0
POLYLINE
  8
gg1
 62
1
 40
0.000000
 41
0.000000
 66
  1
  0
VERTEX
  8
gg1
 10
-0.887500
 20
-0.025000
  0
VERTEX
  8
gg1
 10
-0.872500
 20
-0.025000
  0
SEQEND
  8
gg1
  0
POLYLINE
  8
gg1
 62
1
 40
0.000000
 41
0.000000
 66
  1
  0
VERTEX
  8
gg1
 10
-0.880000
 20
-0.032500
  0
VERTEX
  8
gg1
 10
-0.880000
 20
-0.017500
  0
SEQEND
  8
gg1
  0
POLYLINE
  8
gg1
 62
1
 40
0.000000
 41
0.000000
 66
  1
  0
VERTEX
  8
gg1
 10
-0.917500
 20
0.015000
  0
VERTEX
  8
gg1
 10
-0.902500
 20
0.015000
  0
SEQEND
  8
gg1
  0
POLYLINE
  8
gg1
 62
1
 40
0.000000
 41
0.000000
 66
  1
  0
VERTEX
  8
gg1
 10
-0.910000
 20
0.007500
  0
VERTEX
  8
gg1
 10
-0.910000
 20
0.022500
  0
SEQEND
  8
gg1
  0
POLYLINE
  8
gg1
 62
1
 40
0.000000
 41
0.000000
 66
  1
  0
VERTEX
  8
gg1
 10
-0.957500
 20
0.000000
  0
VERTEX
  8
gg1
 10
-0.942500
 20
0.000000
  0
SEQEND
  8
gg1
  0
POLYLINE
  8
gg1
 62
1
 40
0.000000
 41
0.000000
 66
  1
  0
VERTEX
  8
gg1
 10
-0.950000
 20
-0.007500
  0
VERTEX
  8
gg1
 10
-0.950000
 20
0.007500
  0
SEQEND
  8
gg1
  0
POLYLINE
  8
gg1
 62
1
 40
0.000000
 41
0.000000
 66
  1
  0
VERTEX
  8
gg1
 10
-1.007500
 20
-0.035000
  0
VERTEX
  8
gg1
 10
-0.992500
 20
-0.035000
  0
SEQEND
  8
gg1
  0
POLYLINE
  8
gg1
 62
1
 40
0.000000
 41
0.000000
 66
  1
  0
VERTEX
  8
gg1
 10
-1.000000
 20
-0.042500
  0
VERTEX
  8
gg1
 10
-1.000000
 20
-0.027500
  0
SEQEND
  8
gg1
  0
POLYLINE
  8
gg1
 62
1
 40
0.000000
 41
0.000000
 66
  1
  0
VERTEX
  8
gg1
 10
-0.997500
 20
0.015000
  0
VERTEX
  8
gg1
 10
-0.982500
 20
0.015000
  0
SEQEND
  8
gg1
  0
POLYLINE
  8
gg1
 62
1
 40
0.000000
 41
0.000000
 66
  1
  0
VERTEX
  8
gg1
 10
-0.990000
 20
0.007500
  0
VERTEX
  8
gg1
 10
-0.990000
 20
0.022500
  0
SEQEND
  8
gg1
  0
POLYLINE
  8
gg1
 62
1
 40
0.000000
 41
0.000000
 66
  1
  0
VERTEX
  8
gg1
 10
-1.072500
 20
0.020000
  0
VERTEX
  8
gg1
 10
-1.057500
 20
0.020000
  0
SEQEND
  8
gg1
  0
POLYLINE
  8
gg1
 62
1
 40
0.000000
 41
0.000000
 66
  1
  0
VERTEX
  8
gg1
 10
-1.065000
 20
0.012500
  0
VERTEX
  8
gg1
 10
-1.065000
 20
0.027500
  0
SEQEND
  8
gg1
  0
POLYLINE
  8
gg1
 62
1
 40
0.000000
 41
0.000000
 66
  1
  0
VERTEX
  8
gg1
 10
-1.037500
 20
0.000000
  0
VERTEX
  8
gg1
 10
-1.022500
 20
0.000000
  0
SEQEND
  8
gg1
  0
POLYLINE
  8
gg1
 62
1
 40
0.000000
 41
0.000000
 66
  1
  0
VERTEX
  8
gg1
 10
-1.030000
 20
-0.007500
  0
VERTEX
  8
gg1
 10
-1.030000
 20
0.007500
  0
SEQEND
  8
gg1
  0
POLYLINE
  8
gg1
 62
1
 40
0.000000
 41
0.000000
 66
  1
  0
VERTEX
  8
gg1
 10
-1.027500
 20
-0.365000
  0
VERTEX
  8
gg1
 10
-1.012500
 20
-0.365000
  0
SEQEND
  8
gg1
  0
POLYLINE
  8
gg1
 62
1
 40
0.000000
 41
0.000000
 66
  1
  0
VERTEX
  8
gg1
 10
-1.020000
 20
-0.372500
  0
VERTEX
  8
gg1
 10
-1.020000
 20
-0.357500
  0
SEQEND
  8
gg1
  0
POLYLINE
  8
gg1
 62
1
 40
0.000000
 41
0.000000
 66
  1
  0
VERTEX
  8
gg1
 10
-1.027500
 20
-0.325000
  0
VERTEX
  8
gg1
 10
-1.012500
 20
-0.325000
  0
SEQEND
  8
gg1
  0
POLYLINE
  8
gg1
 62
1
 40
0.000000
 41
0.000000
 66
  1
  0
VERTEX
  8
gg1
 10
-1.020000
 20
-0.332500
  0
VERTEX
  8
gg1
 10
-1.020000
 20
-0.317500
  0
SEQEND
  8
gg1
  0
POLYLINE
  8
gg1
 62
1
 40
0.000000
 41
0.000000
 66
  1
  0
VERTEX
  8
gg1
 10
-1.027500
 20
-0.285000
  0
VERTEX
  8
gg1
 10
-1.012500
 20
-0.285000
  0
SEQEND
  8
gg1
  0
POLYLINE
  8
gg1
 62
1
 40
0.000000
 41
0.000000
 66
  1
  0
VERTEX
  8
gg1
 10
-1.020000
 20
-0.292500
  0
VERTEX
  8
gg1
 10
-1.020000
 20
-0.277500
  0
SEQEND
  8
gg1
  0
POLYLINE
  8
gg1
 62
1
 40
0.000000
 41
0.000000
 66
  1
  0
VERTEX
  8
gg1
 10
-1.027500
 20
-0.245000
  0
VERTEX
  8
gg1
 10
-1.012500
 20
-0.245000
  0
SEQEND
  8
gg1
  0
POLYLINE
  8
gg1
 62
1
 40
0.000000
 41
0.000000
 66
  1
  0
VERTEX
  8
gg1
 10
-1.020000
 20
-0.252500
  0
VERTEX
  8
gg1
 10
-1.020000
 20
-0.237500
  0
SEQEND
  8
gg1
  0
POLYLINE
  8
gg1
 62
1
 40
0.000000
 41
0.000000
 66
  1
  0
VERTEX
  8
gg1
 10
-0.962500
 20
-0.601000
  0
VERTEX
  8
gg1
 10
-0.947500
 20
-0.601000
  0
SEQEND
  8
gg1
  0
POLYLINE
  8
gg1
 62
1
 40
0.000000
 41
0.000000
 66
  1
  0
VERTEX
  8
gg1
 10
-0.955000
 20
-0.608500
  0
VERTEX
  8
gg1
 10
-0.955000
 20
-0.593500
  0
SEQEND
  8
gg1
  0
POLYLINE
  8
gg1
 62
1
 40
0.000000
 41
0.000000
 66
  1
  0
VERTEX
  8
gg1
 10
-0.962500
 20
-0.572000
  0
VERTEX
  8
gg1
 10
-0.947500
 20
-0.572000
  0
SEQEND
  8
gg1
  0
POLYLINE
  8
gg1
 62
1
 40
0.000000
 41
0.000000
 66
  1
  0
VERTEX
  8
gg1
 10
-0.955000
 20
-0.579500
  0
VERTEX
  8
gg1
 10
-0.955000
 20
-0.564500
  0
SEQEND
  8
gg1
  0
POLYLINE
  8
gg1
 62
1
 40
0.000000
 41
0.000000
 66
  1
  0
VERTEX
  8
gg1
 10
-1.392500
 20
-0.590000
  0
VERTEX
  8
gg1
 10
-1.377500
 20
-0.590000
  0
SEQEND
  8
gg1
  0
POLYLINE
  8
gg1
 62
1
 40
0.000000
 41
0.000000
 66
  1
  0
VERTEX
  8
gg1
 10
-1.385000
 20
-0.597500
  0
VERTEX
  8
gg1
 10
-1.385000
 20
-0.582500
  0
SEQEND
  8
gg1
  0
POLYLINE
  8
gg1
 62
1
 40
0.000000
 41
0.000000
 66
  1
  0
VERTEX
  8
gg1
 10
-1.392500
 20
-0.620000
  0
VERTEX
  8
gg1
 10
-1.377500
 20
-0.620000
  0
SEQEND
  8
gg1
  0
POLYLINE
  8
gg1
 62
1
 40
0.000000
 41
0.000000
 66
  1
  0
VERTEX
  8
gg1
 10
-1.385000
 20
-0.627500
  0
VERTEX
  8
gg1
 10
-1.385000
 20
-0.612500
  0
SEQEND
  8
gg1
  0
POLYLINE
  8
gg1
 62
1
 40
0.000000
 41
0.000000
 66
  1
  0
VERTEX
  8
gg1
 10
-1.392500
 20
-0.650000
  0
VERTEX
  8
gg1
 10
-1.377500
 20
-0.650000
  0
SEQEND
  8
gg1
  0
POLYLINE
  8
gg1
 62
1
 40
0.000000
 41
0.000000
 66
  1
  0
VERTEX
  8
gg1
 10
-1.385000
 20
-0.657500
  0
VERTEX
  8
gg1
 10
-1.385000
 20
-0.642500
  0
SEQEND
  8
gg1
  0
POLYLINE
  8
gg1
 62
1
 40
0.000000
 41
0.000000
 66
  1
  0
VERTEX
  8
gg1
 10
-1.367500
 20
-0.670000
  0
VERTEX
  8
gg1
 10
-1.352500
 20
-0.670000
  0
SEQEND
  8
gg1
  0
POLYLINE
  8
gg1
 62
1
 40
0.000000
 41
0.000000
 66
  1
  0
VERTEX
  8
gg1
 10
-1.360000
 20
-0.677500
  0
VERTEX
  8
gg1
 10
-1.360000
 20
-0.662500
  0
SEQEND
  8
gg1
  0
POLYLINE
  8
gg1
 62
1
 40
0.000000
 41
0.000000
 66
  1
  0
VERTEX
  8
gg1
 10
-1.337500
 20
-0.670000
  0
VERTEX
  8
gg1
 10
-1.322500
 20
-0.670000
  0
SEQEND
  8
gg1
  0
POLYLINE
  8
gg1
 62
1
 40
0.000000
 41
0.000000
 66
  1
  0
VERTEX
  8
gg1
 10
-1.330000
 20
-0.677500
  0
VERTEX
  8
gg1
 10
-1.330000
 20
-0.662500
  0
SEQEND
  8
gg1
  0
POLYLINE
  8
gg1
 62
1
 40
0.000000
 41
0.000000
 66
  1
  0
VERTEX
  8
gg1
 10
-1.197500
 20
-0.700000
  0
VERTEX
  8
gg1
 10
-1.182500
 20
-0.700000
  0
SEQEND
  8
gg1
  0
POLYLINE
  8
gg1
 62
1
 40
0.000000
 41
0.000000
 66
  1
  0
VERTEX
  8
gg1
 10
-1.190000
 20
-0.707500
  0
VERTEX
  8
gg1
 10
-1.190000
 20
-0.692500
  0
SEQEND
  8
gg1
  0
POLYLINE
  8
gg1
 62
1
 40
0.000000
 41
0.000000
 66
  1
  0
VERTEX
  8
gg1
 10
-1.197500
 20
-0.780000
  0
VERTEX
  8
gg1
 10
-1.182500
 20
-0.780000
  0
SEQEND
  8
gg1
  0
POLYLINE
  8
gg1
 62
1
 40
0.000000
 41
0.000000
 66
  1
  0
VERTEX
  8
gg1
 10
-1.190000
 20
-0.787500
  0
VERTEX
  8
gg1
 10
-1.190000
 20
-0.772500
  0
SEQEND
  8
gg1
  0
POLYLINE
  8
gg1
 62
1
 40
0.000000
 41
0.000000
 66
  1
  0
VERTEX
  8
gg1
 10
-1.322500
 20
-0.795000
  0
VERTEX
  8
gg1
 10
-1.307500
 20
-0.795000
  0
SEQEND
  8
gg1
  0
POLYLINE
  8
gg1
 62
1
 40
0.000000
 41
0.000000
 66
  1
  0
VERTEX
  8
gg1
 10
-1.315000
 20
-0.802500
  0
VERTEX
  8
gg1
 10
-1.315000
 20
-0.787500
  0
SEQEND
  8
gg1
  0
POLYLINE
  8
gg1
 62
1
 40
0.000000
 41
0.000000
 66
  1
  0
VERTEX
  8
gg1
 10
-1.157500
 20
-0.740000
  0
VERTEX
  8
gg1
 10
-1.142500
 20
-0.740000
  0
SEQEND
  8
gg1
  0
POLYLINE
  8
gg1
 62
1
 40
0.000000
 41
0.000000
 66
  1
  0
VERTEX
  8
gg1
 10
-1.150000
 20
-0.747500
  0
VERTEX
  8
gg1
 10
-1.150000
 20
-0.732500
  0
SEQEND
  8
gg1
  0
POLYLINE
  8
gg1
 62
1
 40
0.000000
 41
0.000000
 66
  1
  0
VERTEX
  8
gg1
 10
-1.107500
 20
-0.740000
  0
VERTEX
  8
gg1
 10
-1.092500
 20
-0.740000
  0
SEQEND
  8
gg1
  0
POLYLINE
  8
gg1
 62
1
 40
0.000000
 41
0.000000
 66
  1
  0
VERTEX
  8
gg1
 10
-1.100000
 20
-0.747500
  0
VERTEX
  8
gg1
 10
-1.100000
 20
-0.732500
  0
SEQEND
  8
gg1
  0
POLYLINE
  8
gg1
 62
1
 40
0.000000
 41
0.000000
 66
  1
  0
VERTEX
  8
gg1
 10
-1.237500
 20
-0.740000
  0
VERTEX
  8
gg1
 10
-1.222500
 20
-0.740000
  0
SEQEND
  8
gg1
  0
POLYLINE
  8
gg1
 62
1
 40
0.000000
 41
0.000000
 66
  1
  0
VERTEX
  8
gg1
 10
-1.230000
 20
-0.747500
  0
VERTEX
  8
gg1
 10
-1.230000
 20
-0.732500
  0
SEQEND
  8
gg1
  0
POLYLINE
  8
gg1
 62
1
 40
0.000000
 41
0.000000
 66
  1
  0
VERTEX
  8
gg1
 10
-1.282500
 20
-0.740000
  0
VERTEX
  8
gg1
 10
-1.267500
 20
-0.740000
  0
SEQEND
  8
gg1
  0
POLYLINE
  8
gg1
 62
1
 40
0.000000
 41
0.000000
 66
  1
  0
VERTEX
  8
gg1
 10
-1.275000
 20
-0.747500
  0
VERTEX
  8
gg1
 10
-1.275000
 20
-0.732500
  0
SEQEND
  8
gg1
  0
POLYLINE
  8
gg1
 62
1
 40
0.000000
 41
0.000000
 66
  1
  0
VERTEX
  8
gg1
 10
-1.332500
 20
-0.720000
  0
VERTEX
  8
gg1
 10
-1.317500
 20
-0.720000
  0
SEQEND
  8
gg1
  0
POLYLINE
  8
gg1
 62
1
 40
0.000000
 41
0.000000
 66
  1
  0
VERTEX
  8
gg1
 10
-1.325000
 20
-0.727500
  0
VERTEX
  8
gg1
 10
-1.325000
 20
-0.712500
  0
SEQEND
  8
gg1
  0
POLYLINE
  8
gg1
 62
1
 40
0.000000
 41
0.000000
 66
  1
  0
VERTEX
  8
gg1
 10
-1.377500
 20
-0.720000
  0
VERTEX
  8
gg1
 10
-1.362500
 20
-0.720000
  0
SEQEND
  8
gg1
  0
POLYLINE
  8
gg1
 62
1
 40
0.000000
 41
0.000000
 66
  1
  0
VERTEX
  8
gg1
 10
-1.370000
 20
-0.727500
  0
VERTEX
  8
gg1
 10
-1.370000
 20
-0.712500
  0
SEQEND
  8
gg1
  0
POLYLINE
  8
gg1
 62
1
 40
0.000000
 41
0.000000
 66
  1
  0
VERTEX
  8
gg1
 10
-1.377500
 20
-0.765000
  0
VERTEX
  8
gg1
 10
-1.362500
 20
-0.765000
  0
SEQEND
  8
gg1
  0
POLYLINE
  8
gg1
 62
1
 40
0.000000
 41
0.000000
 66
  1
  0
VERTEX
  8
gg1
 10
-1.370000
 20
-0.772500
  0
VERTEX
  8
gg1
 10
-1.370000
 20
-0.757500
  0
SEQEND
  8
gg1
  0
POLYLINE
  8
gg1
 62
1
 40
0.000000
 41
0.000000
 66
  1
  0
VERTEX
  8
gg1
 10
-1.337500
 20
-0.760000
  0
VERTEX
  8
gg1
 10
-1.322500
 20
-0.760000
  0
SEQEND
  8
gg1
  0
POLYLINE
  8
gg1
 62
1
 40
0.000000
 41
0.000000
 66
  1
  0
VERTEX
  8
gg1
 10
-1.330000
 20
-0.767500
  0
VERTEX
  8
gg1
 10
-1.330000
 20
-0.752500
  0
SEQEND
  8
gg1
  0
POLYLINE
  8
gg1
 62
1
 40
0.000000
 41
0.000000
 66
  1
  0
VERTEX
  8
gg1
 10
-1.072500
 20
-0.700000
  0
VERTEX
  8
gg1
 10
-1.057500
 20
-0.700000
  0
SEQEND
  8
gg1
  0
POLYLINE
  8
gg1
 62
1
 40
0.000000
 41
0.000000
 66
  1
  0
VERTEX
  8
gg1
 10
-1.065000
 20
-0.707500
  0
VERTEX
  8
gg1
 10
-1.065000
 20
-0.692500
  0
SEQEND
  8
gg1
  0
POLYLINE
  8
gg1
 62
1
 40
0.000000
 41
0.000000
 66
  1
  0
VERTEX
  8
gg1
 10
-1.077500
 20
-0.760000
  0
VERTEX
  8
gg1
 10
-1.062500
 20
-0.760000
  0
SEQEND
  8
gg1
  0
POLYLINE
  8
gg1
 62
1
 40
0.000000
 41
0.000000
 66
  1
  0
VERTEX
  8
gg1
 10
-1.070000
 20
-0.767500
  0
VERTEX
  8
gg1
 10
-1.070000
 20
-0.752500
  0
SEQEND
  8
gg1
  0
POLYLINE
  8
gg1
 62
1
 40
0.000000
 41
0.000000
 66
  1
  0
VERTEX
  8
gg1
 10
-1.057500
 20
-0.730000
  0
VERTEX
  8
gg1
 10
-1.042500
 20
-0.730000
  0
SEQEND
  8
gg1
  0
POLYLINE
  8
gg1
 62
1
 40
0.000000
 41
0.000000
 66
  1
  0
VERTEX
  8
gg1
 10
-1.050000
 20
-0.737500
  0
VERTEX
  8
gg1
 10
-1.050000
 20
-0.722500
  0
SEQEND
  8
gg1
  0
POLYLINE
  8
gg1
 62
1
 40
0.000000
 41
0.000000
 66
  1
  0
VERTEX
  8
gg1
 10
-1.262500
 20
0.000000
  0
VERTEX
  8
gg1
 10
-1.247500
 20
0.000000
  0
SEQEND
  8
gg1
  0
POLYLINE
  8
gg1
 62
1
 40
0.000000
 41
0.000000
 66
  1
  0
VERTEX
  8
gg1
 10
-1.255000
 20
-0.007500
  0
VERTEX
  8
gg1
 10
-1.255000
 20
0.007500
  0
SEQEND
  8
gg1
  0
POLYLINE
  8
gg1
 62
1
 40
0.000000
 41
0.000000
 66
  1
  0
VERTEX
  8
gg1
 10
-1.412500
 20
0.010000
  0
VERTEX
  8
gg1
 10
-1.397500
 20
0.010000
  0
SEQEND
  8
gg1
  0
POLYLINE
  8
gg1
 62
1
 40
0.000000
 41
0.000000
 66
  1
  0
VERTEX
  8
gg1
 10
-1.405000
 20
0.002500
  0
VERTEX
  8
gg1
 10
-1.405000
 20
0.017500
  0
SEQEND
  8
gg1
  0
POLYLINE
  8
gg1
 62
1
 40
0.000000
 41
0.000000
 66
  1
  0
VERTEX
  8
gg1
 10
-1.367500
 20
0.010000
  0
VERTEX
  8
gg1
 10
-1.352500
 20
0.010000
  0
SEQEND
  8
gg1
  0
POLYLINE
  8
gg1
 62
1
 40
0.000000
 41
0.000000
 66
  1
  0
VERTEX
  8
gg1
 10
-1.360000
 20
0.002500
  0
VERTEX
  8
gg1
 10
-1.360000
 20
0.017500
  0
SEQEND
  8
gg1
  0
POLYLINE
  8
gg1
 62
1
 40
0.000000
 41
0.000000
 66
  1
  0
VERTEX
  8
gg1
 10
-1.302500
 20
0.010000
  0
VERTEX
  8
gg1
 10
-1.287500
 20
0.010000
  0
SEQEND
  8
gg1
  0
POLYLINE
  8
gg1
 62
1
 40
0.000000
 41
0.000000
 66
  1
  0
VERTEX
  8
gg1
 10
-1.295000
 20
0.002500
  0
VERTEX
  8
gg1
 10
-1.295000
 20
0.017500
  0
SEQEND
  8
gg1
  0
POLYLINE
  8
gg1
 62
1
 40
0.000000
 41
0.000000
 66
  1
  0
VERTEX
  8
gg1
 10
-1.302500
 20
-0.055000
  0
VERTEX
  8
gg1
 10
-1.287500
 20
-0.055000
  0
SEQEND
  8
gg1
  0
POLYLINE
  8
gg1
 62
1
 40
0.000000
 41
0.000000
 66
  1
  0
VERTEX
  8
gg1
 10
-1.295000
 20
-0.062500
  0
VERTEX
  8
gg1
 10
-1.295000
 20
-0.047500
  0
SEQEND
  8
gg1
  0
POLYLINE
  8
gg1
 62
1
 40
0.000000
 41
0.000000
 66
  1
  0
VERTEX
  8
gg1
 10
-1.317500
 20
-0.200000
  0
VERTEX
  8
gg1
 10
-1.302500
 20
-0.200000
  0
SEQEND
  8
gg1
  0
POLYLINE
  8
gg1
 62
1
 40
0.000000
 41
0.000000
 66
  1
  0
VERTEX
  8
gg1
 10
-1.310000
 20
-0.207500
  0
VERTEX
  8
gg1
 10
-1.310000
 20
-0.192500
  0
SEQEND
  8
gg1
  0
POLYLINE
  8
gg1
 62
1
 40
0.000000
 41
0.000000
 66
  1
  0
VERTEX
  8
gg1
 10
-1.322500
 20
-0.240000
  0
VERTEX
  8
gg1
 10
-1.307500
 20
-0.240000
  0
SEQEND
  8
gg1
  0
POLYLINE
  8
gg1
 62
1
 40
0.000000
 41
0.000000
 66
  1
  0
VERTEX
  8
gg1
 10
-1.315000
 20
-0.247500
  0
VERTEX
  8
gg1
 10
-1.315000
 20
-0.232500
  0
SEQEND
  8
gg1
  0
POLYLINE
  8
gg1
 62
1
 40
0.000000
 41
0.000000
 66
  1
  0
VERTEX
  8
gg1
 10
-1.457500
 20
-0.240000
  0
VERTEX
  8
gg1
 10
-1.442500
 20
-0.240000
  0
SEQEND
  8
gg1
  0
POLYLINE
  8
gg1
 62
1
 40
0.000000
 41
0.000000
 66
  1
  0
VERTEX
  8
gg1
 10
-1.450000
 20
-0.247500
  0
VERTEX
  8
gg1
 10
-1.450000
 20
-0.232500
  0
SEQEND
  8
gg1
  0
POLYLINE
  8
gg1
 62
1
 40
0.000000
 41
0.000000
 66
  1
  0
VERTEX
  8
gg1
 10
-1.457500
 20
-0.280000
  0
VERTEX
  8
gg1
 10
-1.442500
 20
-0.280000
  0
SEQEND
  8
gg1
  0
POLYLINE
  8
gg1
 62
1
 40
0.000000
 41
0.000000
 66
  1
  0
VERTEX
  8
gg1
 10
-1.450000
 20
-0.287500
  0
VERTEX
  8
gg1
 10
-1.450000
 20
-0.272500
  0
SEQEND
  8
gg1
  0
POLYLINE
  8
gg1
 62
1
 40
0.000000
 41
0.000000
 66
  1
  0
VERTEX
  8
gg1
 10
-1.457500
 20
-0.320000
  0
VERTEX
  8
gg1
 10
-1.442500
 20
-0.320000
  0
SEQEND
  8
gg1
  0
POLYLINE
  8
gg1
 62
1
 40
0.000000
 41
0.000000
 66
  1
  0
VERTEX
  8
gg1
 10
-1.450000
 20
-0.327500
  0
VERTEX
  8
gg1
 10
-1.450000
 20
-0.312500
  0
SEQEND
  8
gg1
  0
POLYLINE
  8
gg1
 62
1
 40
0.000000
 41
0.000000
 66
  1
  0
VERTEX
  8
gg1
 10
-1.457500
 20
-0.360000
  0
VERTEX
  8
gg1
 10
-1.442500
 20
-0.360000
  0
SEQEND
  8
gg1
  0
POLYLINE
  8
gg1
 62
1
 40
0.000000
 41
0.000000
 66
  1
  0
VERTEX
  8
gg1
 10
-1.450000
 20
-0.367500
  0
VERTEX
  8
gg1
 10
-1.450000
 20
-0.352500
  0
SEQEND
  8
gg1
  0
POLYLINE
  8
gg1
 62
1
 40
0.000000
 41
0.000000
 66
  1
  0
VERTEX
  8
gg1
 10
-1.457500
 20
-0.400000
  0
VERTEX
  8
gg1
 10
-1.442500
 20
-0.400000
  0
SEQEND
  8
gg1
  0
POLYLINE
  8
gg1
 62
1
 40
0.000000
 41
0.000000
 66
  1
  0
VERTEX
  8
gg1
 10
-1.450000
 20
-0.407500
  0
VERTEX
  8
gg1
 10
-1.450000
 20
-0.392500
  0
SEQEND
  8
gg1
  0
POLYLINE
  8
gg1
 62
1
 40
0.000000
 41
0.000000
 66
  1
  0
VERTEX
  8
gg1
 10
-1.322500
 20
-0.370000
  0
VERTEX
  8
gg1
 10
-1.307500
 20
-0.370000
  0
SEQEND
  8
gg1
  0
POLYLINE
  8
gg1
 62
1
 40
0.000000
 41
0.000000
 66
  1
  0
VERTEX
  8
gg1
 10
-1.315000
 20
-0.377500
  0
VERTEX
  8
gg1
 10
-1.315000
 20
-0.362500
  0
SEQEND
  8
gg1
  0
POLYLINE
  8
gg1
 62
1
 40
0.000000
 41
0.000000
 66
  1
  0
VERTEX
  8
gg1
 10
-1.342500
 20
-0.340000
  0
VERTEX
  8
gg1
 10
-1.327500
 20
-0.340000
  0
SEQEND
  8
gg1
  0
POLYLINE
  8
gg1
 62
1
 40
0.000000
 41
0.000000
 66
  1
  0
VERTEX
  8
gg1
 10
-1.335000
 20
-0.347500
  0
VERTEX
  8
gg1
 10
-1.335000
 20
-0.332500
  0
SEQEND
  8
gg1
  0
POLYLINE
  8
gg1
 62
1
 40
0.000000
 41
0.000000
 66
  1
  0
VERTEX
  8
gg1
 10
-1.322500
 20
-0.310000
  0
VERTEX
  8
gg1
 10
-1.307500
 20
-0.310000
  0
SEQEND
  8
gg1
  0
POLYLINE
  8
gg1
 62
1
 40
0.000000
 41
0.000000
 66
  1
  0
VERTEX
  8
gg1
 10
-1.315000
 20
-0.317500
  0
VERTEX
  8
gg1
 10
-1.315000
 20
-0.302500
  0
SEQEND
  8
gg1
  0
POLYLINE
  8
gg1
 62
1
 40
0.000000
 41
0.000000
 66
  1
  0
VERTEX
  8
gg1
 10
-1.342500
 20
-0.275000
  0
VERTEX
  8
gg1
 10
-1.327500
 20
-0.275000
  0
SEQEND
  8
gg1
  0
POLYLINE
  8
gg1
 62
1
 40
0.000000
 41
0.000000
 66
  1
  0
VERTEX
  8
gg1
 10
-1.335000
 20
-0.282500
  0
VERTEX
  8
gg1
 10
-1.335000
 20
-0.267500
  0
SEQEND
  8
gg1
  0
POLYLINE
  8
gg1
 62
1
 40
0.000000
 41
0.000000
 66
  1
  0
VERTEX
  8
gg1
 10
-1.332500
 20
-0.020000
  0
VERTEX
  8
gg1
 10
-1.317500
 20
-0.020000
  0
SEQEND
  8
gg1
  0
POLYLINE
  8
gg1
 62
1
 40
0.000000
 41
0.000000
 66
  1
  0
VERTEX
  8
gg1
 10
-1.325000
 20
-0.027500
  0
VERTEX
  8
gg1
 10
-1.325000
 20
-0.012500
  0
SEQEND
  8
gg1
  0
POLYLINE
  8
gg1
 62
1
 40
0.000000
 41
0.000000
 66
  1
  0
VERTEX
  8
gg1
 10
-1.257500
 20
-0.410000
  0
VERTEX
  8
gg1
 10
-1.242500
 20
-0.410000
  0
SEQEND
  8
gg1
  0
POLYLINE
  8
gg1
 62
1
 40
0.000000
 41
0.000000
 66
  1
  0
VERTEX
  8
gg1
 10
-1.250000
 20
-0.417500
  0
VERTEX
  8
gg1
 10
-1.250000
 20
-0.402500
  0
SEQEND
  8
gg1
  0
POLYLINE
  8
gg1
 62
1
 40
0.000000
 41
0.000000
 66
  1
  0
VERTEX
  8
gg1
 10
-1.257500
 20
-0.445000
  0
VERTEX
  8
gg1
 10
-1.242500
 20
-0.445000
  0
SEQEND
  8
gg1
  0
POLYLINE
  8
gg1
 62
1
 40
0.000000
 41
0.000000
 66
  1
  0
VERTEX
  8
gg1
 10
-1.250000
 20
-0.452500
  0
VERTEX
  8
gg1
 10
-1.250000
 20
-0.437500
  0
SEQEND
  8
gg1
  0
POLYLINE
  8
gg1
 62
1
 40
0.000000
 41
0.000000
 66
  1
  0
VERTEX
  8
gg1
 10
-1.257500
 20
-0.375000
  0
VERTEX
  8
gg1
 10
-1.242500
 20
-0.375000
  0
SEQEND
  8
gg1
  0
POLYLINE
  8
gg1
 62
1
 40
0.000000
 41
0.000000
 66
  1
  0
VERTEX
  8
gg1
 10
-1.250000
 20
-0.382500
  0
VERTEX
  8
gg1
 10
-1.250000
 20
-0.367500
  0
SEQEND
  8
gg1
  0
POLYLINE
  8
gg1
 62
1
 40
0.000000
 41
0.000000
 66
  1
  0
VERTEX
  8
gg1
 10
-1.147500
 20
-0.415000
  0
VERTEX
  8
gg1
 10
-1.132500
 20
-0.415000
  0
SEQEND
  8
gg1
  0
POLYLINE
  8
gg1
 62
1
 40
0.000000
 41
0.000000
 66
  1
  0
VERTEX
  8
gg1
 10
-1.140000
 20
-0.422500
  0
VERTEX
  8
gg1
 10
-1.140000
 20
-0.407500
  0
SEQEND
  8
gg1
  0
POLYLINE
  8
gg1
 62
1
 40
0.000000
 41
0.000000
 66
  1
  0
VERTEX
  8
gg1
 10
-1.152500
 20
-0.375000
  0
VERTEX
  8
gg1
 10
-1.137500
 20
-0.375000
  0
SEQEND
  8
gg1
  0
POLYLINE
  8
gg1
 62
1
 40
0.000000
 41
0.000000
 66
  1
  0
VERTEX
  8
gg1
 10
-1.145000
 20
-0.382500
  0
VERTEX
  8
gg1
 10
-1.145000
 20
-0.367500
  0
SEQEND
  8
gg1
  0
POLYLINE
  8
gg1
 62
1
 40
0.000000
 41
0.000000
 66
  1
  0
VERTEX
  8
gg1
 10
-1.132500
 20
-0.345000
  0
VERTEX
  8
gg1
 10
-1.117500
 20
-0.345000
  0
SEQEND
  8
gg1
  0
POLYLINE
  8
gg1
 62
1
 40
0.000000
 41
0.000000
 66
  1
  0
VERTEX
  8
gg1
 10
-1.125000
 20
-0.352500
  0
VERTEX
  8
gg1
 10
-1.125000
 20
-0.337500
  0
SEQEND
  8
gg1
  0
POLYLINE
  8
gg1
 62
1
 40
0.000000
 41
0.000000
 66
  1
  0
VERTEX
  8
gg1
 10
-1.152500
 20
-0.315000
  0
VERTEX
  8
gg1
 10
-1.137500
 20
-0.315000
  0
SEQEND
  8
gg1
  0
POLYLINE
  8
gg1
 62
1
 40
0.000000
 41
0.000000
 66
  1
  0
VERTEX
  8
gg1
 10
-1.145000
 20
-0.322500
  0
VERTEX
  8
gg1
 10
-1.145000
 20
-0.307500
  0
SEQEND
  8
gg1
  0
POLYLINE
  8
gg1
 62
1
 40
0.000000
 41
0.000000
 66
  1
  0
VERTEX
  8
gg1
 10
-1.132500
 20
-0.285000
  0
VERTEX
  8
gg1
 10
-1.117500
 20
-0.285000
  0
SEQEND
  8
gg1
  0
POLYLINE
  8
gg1
 62
1
 40
0.000000
 41
0.000000
 66
  1
  0
VERTEX
  8
gg1
 10
-1.125000
 20
-0.292500
  0
VERTEX
  8
gg1
 10
-1.125000
 20
-0.277500
  0
SEQEND
  8
gg1
  0
POLYLINE
  8
gg1
 62
1
 40
0.000000
 41
0.000000
 66
  1
  0
VERTEX
  8
gg1
 10
-1.122500
 20
-0.225000
  0
VERTEX
  8
gg1
 10
-1.107500
 20
-0.225000
  0
SEQEND
  8
gg1
  0
POLYLINE
  8
gg1
 62
1
 40
0.000000
 41
0.000000
 66
  1
  0
VERTEX
  8
gg1
 10
-1.115000
 20
-0.232500
  0
VERTEX
  8
gg1
 10
-1.115000
 20
-0.217500
  0
SEQEND
  8
gg1
  0
POLYLINE
  8
gg1
 62
1
 40
0.000000
 41
0.000000
 66
  1
  0
VERTEX
  8
gg1
 10
-1.132500
 20
-0.175000
  0
VERTEX
  8
gg1
 10
-1.117500
 20
-0.175000
  0
SEQEND
  8
gg1
  0
POLYLINE
  8
gg1
 62
1
 40
0.000000
 41
0.000000
 66
  1
  0
VERTEX
  8
gg1
 10
-1.125000
 20
-0.182500
  0
VERTEX
  8
gg1
 10
-1.125000
 20
-0.167500
  0
SEQEND
  8
gg1
  0
POLYLINE
  8
gg1
 62
1
 40
0.000000
 41
0.000000
 66
  1
  0
VERTEX
  8
gg1
 10
-1.172500
 20
-0.140000
  0
VERTEX
  8
gg1
 10
-1.157500
 20
-0.140000
  0
SEQEND
  8
gg1
  0
POLYLINE
  8
gg1
 62
1
 40
0.000000
 41
0.000000
 66
  1
  0
VERTEX
  8
gg1
 10
-1.165000
 20
-0.147500
  0
VERTEX
  8
gg1
 10
-1.165000
 20
-0.132500
  0
SEQEND
  8
gg1
  0
POLYLINE
  8
gg1
 62
1
 40
0.000000
 41
0.000000
 66
  1
  0
VERTEX
  8
gg1
 10
-1.132500
 20
-0.055000
  0
VERTEX
  8
gg1
 10
-1.117500
 20
-0.055000
  0
SEQEND
  8
gg1
  0
POLYLINE
  8
gg1
 62
1
 40
0.000000
 41
0.000000
 66
  1
  0
VERTEX
  8
gg1
 10
-1.125000
 20
-0.062500
  0
VERTEX
  8
gg1
 10
-1.125000
 20
-0.047500
  0
SEQEND
  8
gg1
  0
POLYLINE
  8
gg1
 62
1
 40
0.000000
 41
0.000000
 66
  1
  0
VERTEX
  8
gg1
 10
-1.182500
 20
0.015000
  0
VERTEX
  8
gg1
 10
-1.167500
 20
0.015000
  0
SEQEND
  8
gg1
  0
POLYLINE
  8
gg1
 62
1
 40
0.000000
 41
0.000000
 66
  1
  0
VERTEX
  8
gg1
 10
-1.175000
 20
0.007500
  0
VERTEX
  8
gg1
 10
-1.175000
 20
0.022500
  0
SEQEND
  8
gg1
  0
POLYLINE
  8
gg1
 62
1
 40
0.000000
 41
0.000000
 66
  1
  0
VERTEX
  8
gg1
 10
-1.172500
 20
-0.030000
  0
VERTEX
  8
gg1
 10
-1.157500
 20
-0.030000
  0
SEQEND
  8
gg1
  0
POLYLINE
  8
gg1
 62
1
 40
0.000000
 41
0.000000
 66
  1
  0
VERTEX
  8
gg1
 10
-1.165000
 20
-0.037500
  0
VERTEX
  8
gg1
 10
-1.165000
 20
-0.022500
  0
SEQEND
  8
gg1
  0
POLYLINE
  8
gg1
 62
1
 40
0.000000
 41
0.000000
 66
  1
  0
VERTEX
  8
gg1
 10
-1.132500
 20
0.005000
  0
VERTEX
  8
gg1
 10
-1.117500
 20
0.005000
  0
SEQEND
  8
gg1
  0
POLYLINE
  8
gg1
 62
1
 40
0.000000
 41
0.000000
 66
  1
  0
VERTEX
  8
gg1
 10
-1.125000
 20
-0.002500
  0
VERTEX
  8
gg1
 10
-1.125000
 20
0.012500
  0
SEQEND
  8
gg1
  0
POLYLINE
  8
gg1
 62
1
 40
0.000000
 41
0.000000
 66
  1
  0
VERTEX
  8
gg1
 10
-1.172500
 20
-0.085000
  0
VERTEX
  8
gg1
 10
-1.157500
 20
-0.085000
  0
SEQEND
  8
gg1
  0
POLYLINE
  8
gg1
 62
1
 40
0.000000
 41
0.000000
 66
  1
  0
VERTEX
  8
gg1
 10
-1.165000
 20
-0.092500
  0
VERTEX
  8
gg1
 10
-1.165000
 20
-0.077500
  0
SEQEND
  8
gg1
  0
POLYLINE
  8
gg1
 62
1
 40
0.000000
 41
0.000000
 66
  1
  0
VERTEX
  8
gg1
 10
-1.132500
 20
-0.110000
  0
VERTEX
  8
gg1
 10
-1.117500
 20
-0.110000
  0
SEQEND
  8
gg1
  0
POLYLINE
  8
gg1
 62
1
 40
0.000000
 41
0.000000
 66
  1
  0
VERTEX
  8
gg1
 10
-1.125000
 20
-0.117500
  0
VERTEX
  8
gg1
 10
-1.125000
 20
-0.102500
  0
SEQEND
  8
gg1
  0
POLYLINE
  8
gg1
 62
1
 40
0.000000
 41
0.000000
 66
  1
  0
VERTEX
  8
gg1
 10
-0.847500
 20
0.010000
  0
VERTEX
  8
gg1
 10
-0.832500
 20
0.010000
  0
SEQEND
  8
gg1
  0
POLYLINE
  8
gg1
 62
1
 40
0.000000
 41
0.000000
 66
  1
  0
VERTEX
  8
gg1
 10
-0.840000
 20
0.002500
  0
VERTEX
  8
gg1
 10
-0.840000
 20
0.017500
  0
SEQEND
  8
gg1
  0
POLYLINE
  8
gg1
 62
1
 40
0.000000
 41
0.000000
 66
  1
  0
VERTEX
  8
gg1
 10
-0.797500
 20
0.010000
  0
VERTEX
  8
gg1
 10
-0.782500
 20
0.010000
  0
SEQEND
  8
gg1
  0
POLYLINE
  8
gg1
 62
1
 40
0.000000
 41
0.000000
 66
  1
  0
VERTEX
  8
gg1
 10
-0.790000
 20
0.002500
  0
VERTEX
  8
gg1
 10
-0.790000
 20
0.017500
  0
SEQEND
  8
gg1
  0
POLYLINE
  8
gg1
 62
1
 40
0.000000
 41
0.000000
 66
  1
  0
VERTEX
  8
gg1
 10
-0.737500
 20
0.010000
  0
VERTEX
  8
gg1
 10
-0.722500
 20
0.010000
  0
SEQEND
  8
gg1
  0
POLYLINE
  8
gg1
 62
1
 40
0.000000
 41
0.000000
 66
  1
  0
VERTEX
  8
gg1
 10
-0.730000
 20
0.002500
  0
VERTEX
  8
gg1
 10
-0.730000
 20
0.017500
  0
SEQEND
  8
gg1
  0
POLYLINE
  8
gg1
 62
1
 40
0.000000
 41
0.000000
 66
  1
  0
VERTEX
  8
gg1
 10
-0.837500
 20
-0.030000
  0
VERTEX
  8
gg1
 10
-0.822500
 20
-0.030000
  0
SEQEND
  8
gg1
  0
POLYLINE
  8
gg1
 62
1
 40
0.000000
 41
0.000000
 66
  1
  0
VERTEX
  8
gg1
 10
-0.830000
 20
-0.037500
  0
VERTEX
  8
gg1
 10
-0.830000
 20
-0.022500
  0
SEQEND
  8
gg1
  0
POLYLINE
  8
gg1
 62
1
 40
0.000000
 41
0.000000
 66
  1
  0
VERTEX
  8
gg1
 10
-0.807500
 20
-0.055000
  0
VERTEX
  8
gg1
 10
-0.792500
 20
-0.055000
  0
SEQEND
  8
gg1
  0
POLYLINE
  8
gg1
 62
1
 40
0.000000
 41
0.000000
 66
  1
  0
VERTEX
  8
gg1
 10
-0.800000
 20
-0.062500
  0
VERTEX
  8
gg1
 10
-0.800000
 20
-0.047500
  0
SEQEND
  8
gg1
  0
POLYLINE
  8
gg1
 62
1
 40
0.000000
 41
0.000000
 66
  1
  0
VERTEX
  8
gg1
 10
-0.837500
 20
-0.080000
  0
VERTEX
  8
gg1
 10
-0.822500
 20
-0.080000
  0
SEQEND
  8
gg1
  0
POLYLINE
  8
gg1
 62
1
 40
0.000000
 41
0.000000
 66
  1
  0
VERTEX
  8
gg1
 10
-0.830000
 20
-0.087500
  0
VERTEX
  8
gg1
 10
-0.830000
 20
-0.072500
  0
SEQEND
  8
gg1
  0
POLYLINE
  8
gg1
 62
1
 40
0.000000
 41
0.000000
 66
  1
  0
VERTEX
  8
gg1
 10
-0.807500
 20
-0.105000
  0
VERTEX
  8
gg1
 10
-0.792500
 20
-0.105000
  0
SEQEND
  8
gg1
  0
POLYLINE
  8
gg1
 62
1
 40
0.000000
 41
0.000000
 66
  1
  0
VERTEX
  8
gg1
 10
-0.800000
 20
-0.112500
  0
VERTEX
  8
gg1
 10
-0.800000
 20
-0.097500
  0
SEQEND
  8
gg1
  0
POLYLINE
  8
gg1
 62
1
 40
0.000000
 41
0.000000
 66
  1
  0
VERTEX
  8
gg1
 10
-0.837500
 20
-0.130000
  0
VERTEX
  8
gg1
 10
-0.822500
 20
-0.130000
  0
SEQEND
  8
gg1
  0
POLYLINE
  8
gg1
 62
1
 40
0.000000
 41
0.000000
 66
  1
  0
VERTEX
  8
gg1
 10
-0.830000
 20
-0.137500
  0
VERTEX
  8
gg1
 10
-0.830000
 20
-0.122500
  0
SEQEND
  8
gg1
  0
POLYLINE
  8
gg1
 62
1
 40
0.000000
 41
0.000000
 66
  1
  0
VERTEX
  8
gg1
 10
-0.807500
 20
-0.155000
  0
VERTEX
  8
gg1
 10
-0.792500
 20
-0.155000
  0
SEQEND
  8
gg1
  0
POLYLINE
  8
gg1
 62
1
 40
0.000000
 41
0.000000
 66
  1
  0
VERTEX
  8
gg1
 10
-0.800000
 20
-0.162500
  0
VERTEX
  8
gg1
 10
-0.800000
 20
-0.147500
  0
SEQEND
  8
gg1
  0
POLYLINE
  8
gg1
 62
1
 40
0.000000
 41
0.000000
 66
  1
  0
VERTEX
  8
gg1
 10
-0.837500
 20
-0.180000
  0
VERTEX
  8
gg1
 10
-0.822500
 20
-0.180000
  0
SEQEND
  8
gg1
  0
POLYLINE
  8
gg1
 62
1
 40
0.000000
 41
0.000000
 66
  1
  0
VERTEX
  8
gg1
 10
-0.830000
 20
-0.187500
  0
VERTEX
  8
gg1
 10
-0.830000
 20
-0.172500
  0
SEQEND
  8
gg1
  0
POLYLINE
  8
gg1
 62
1
 40
0.000000
 41
0.000000
 66
  1
  0
VERTEX
  8
gg1
 10
-0.807500
 20
-0.205000
  0
VERTEX
  8
gg1
 10
-0.792500
 20
-0.205000
  0
SEQEND
  8
gg1
  0
POLYLINE
  8
gg1
 62
1
 40
0.000000
 41
0.000000
 66
  1
  0
VERTEX
  8
gg1
 10
-0.800000
 20
-0.212500
  0
VERTEX
  8
gg1
 10
-0.800000
 20
-0.197500
  0
SEQEND
  8
gg1
  0
POLYLINE
  8
gg1
 62
1
 40
0.000000
 41
0.000000
 66
  1
  0
VERTEX
  8
gg1
 10
-0.872500
 20
-0.225000
  0
VERTEX
  8
gg1
 10
-0.857500
 20
-0.225000
  0
SEQEND
  8
gg1
  0
POLYLINE
  8
gg1
 62
1
 40
0.000000
 41
0.000000
 66
  1
  0
VERTEX
  8
gg1
 10
-0.865000
 20
-0.232500
  0
VERTEX
  8
gg1
 10
-0.865000
 20
-0.217500
  0
SEQEND
  8
gg1
  0
POLYLINE
  8
gg1
 62
1
 40
0.000000
 41
0.000000
 66
  1
  0
VERTEX
  8
gg1
 10
-0.832500
 20
-0.240000
  0
VERTEX
  8
gg1
 10
-0.817500
 20
-0.240000
  0
SEQEND
  8
gg1
  0
POLYLINE
  8
gg1
 62
1
 40
0.000000
 41
0.000000
 66
  1
  0
VERTEX
  8
gg1
 10
-0.825000
 20
-0.247500
  0
VERTEX
  8
gg1
 10
-0.825000
 20
-0.232500
  0
SEQEND
  8
gg1
  0
POLYLINE
  8
gg1
 62
1
 40
0.000000
 41
0.000000
 66
  1
  0
VERTEX
  8
gg1
 10
-0.737500
 20
-0.235000
  0
VERTEX
  8
gg1
 10
-0.722500
 20
-0.235000
  0
SEQEND
  8
gg1
  0
POLYLINE
  8
gg1
 62
1
 40
0.000000
 41
0.000000
 66
  1
  0
VERTEX
  8
gg1
 10
-0.730000
 20
-0.242500
  0
VERTEX
  8
gg1
 10
-0.730000
 20
-0.227500
  0
SEQEND
  8
gg1
  0
POLYLINE
  8
gg1
 62
1
 40
0.000000
 41
0.000000
 66
  1
  0
VERTEX
  8
gg1
 10
-0.832500
 20
-0.275000
  0
VERTEX
  8
gg1
 10
-0.817500
 20
-0.275000
  0
SEQEND
  8
gg1
  0
POLYLINE
  8
gg1
 62
1
 40
0.000000
 41
0.000000
 66
  1
  0
VERTEX
  8
gg1
 10
-0.825000
 20
-0.282500
  0
VERTEX
  8
gg1
 10
-0.825000
 20
-0.267500
  0
SEQEND
  8
gg1
  0
POLYLINE
  8
gg1
 62
1
 40
0.000000
 41
0.000000
 66
  1
  0
VERTEX
  8
gg1
 10
-0.832500
 20
-0.310000
  0
VERTEX
  8
gg1
 10
-0.817500
 20
-0.310000
  0
SEQEND
  8
gg1
  0
POLYLINE
  8
gg1
 62
1
 40
0.000000
 41
0.000000
 66
  1
  0
VERTEX
  8
gg1
 10
-0.825000
 20
-0.317500
  0
VERTEX
  8
gg1
 10
-0.825000
 20
-0.302500
  0
SEQEND
  8
gg1
  0
POLYLINE
  8
gg1
 62
1
 40
0.000000
 41
0.000000
 66
  1
  0
VERTEX
  8
gg1
 10
-0.832500
 20
-0.345000
  0
VERTEX
  8
gg1
 10
-0.817500
 20
-0.345000
  0
SEQEND
  8
gg1
  0
POLYLINE
  8
gg1
 62
1
 40
0.000000
 41
0.000000
 66
  1
  0
VERTEX
  8
gg1
 10
-0.825000
 20
-0.352500
  0
VERTEX
  8
gg1
 10
-0.825000
 20
-0.337500
  0
SEQEND
  8
gg1
  0
POLYLINE
  8
gg1
 62
1
 40
0.000000
 41
0.000000
 66
  1
  0
VERTEX
  8
gg1
 10
-0.832500
 20
-0.380000
  0
VERTEX
  8
gg1
 10
-0.817500
 20
-0.380000
  0
SEQEND
  8
gg1
  0
POLYLINE
  8
gg1
 62
1
 40
0.000000
 41
0.000000
 66
  1
  0
VERTEX
  8
gg1
 10
-0.825000
 20
-0.387500
  0
VERTEX
  8
gg1
 10
-0.825000
 20
-0.372500
  0
SEQEND
  8
gg1
  0
POLYLINE
  8
gg1
 62
1
 40
0.000000
 41
0.000000
 66
  1
  0
VERTEX
  8
gg1
 10
-0.942500
 20
-0.245000
  0
VERTEX
  8
gg1
 10
-0.927500
 20
-0.245000
  0
SEQEND
  8
gg1
  0
POLYLINE
  8
gg1
 62
1
 40
0.000000
 41
0.000000
 66
  1
  0
VERTEX
  8
gg1
 10
-0.935000
 20
-0.252500
  0
VERTEX
  8
gg1
 10
-0.935000
 20
-0.237500
  0
SEQEND
  8
gg1
  0
POLYLINE
  8
gg1
 62
1
 40
0.000000
 41
0.000000
 66
  1
  0
VERTEX
  8
gg1
 10
-0.782500
 20
-0.235000
  0
VERTEX
  8
gg1
 10
-0.767500
 20
-0.235000
  0
SEQEND
  8
gg1
  0
POLYLINE
  8
gg1
 62
1
 40
0.000000
 41
0.000000
 66
  1
  0
VERTEX
  8
gg1
 10
-0.775000
 20
-0.242500
  0
VERTEX
  8
gg1
 10
-0.775000
 20
-0.227500
  0
SEQEND
  8
gg1
  0
POLYLINE
  8
gg1
 62
1
 40
0.000000
 41
0.000000
 66
  1
  0
VERTEX
  8
gg1
 10
-0.962500
 20
-0.280000
  0
VERTEX
  8
gg1
 10
-0.947500
 20
-0.280000
  0
SEQEND
  8
gg1
  0
POLYLINE
  8
gg1
 62
1
 40
0.000000
 41
0.000000
 66
  1
  0
VERTEX
  8
gg1
 10
-0.955000
 20
-0.287500
  0
VERTEX
  8
gg1
 10
-0.955000
 20
-0.272500
  0
SEQEND
  8
gg1
  0
POLYLINE
  8
gg1
 62
1
 40
0.000000
 41
0.000000
 66
  1
  0
VERTEX
  8
gg1
 10
-0.942500
 20
-0.310000
  0
VERTEX
  8
gg1
 10
-0.927500
 20
-0.310000
  0
SEQEND
  8
gg1
  0
POLYLINE
  8
gg1
 62
1
 40
0.000000
 41
0.000000
 66
  1
  0
VERTEX
  8
gg1
 10
-0.935000
 20
-0.317500
  0
VERTEX
  8
gg1
 10
-0.935000
 20
-0.302500
  0
SEQEND
  8
gg1
  0
POLYLINE
  8
gg1
 62
1
 40
0.000000
 41
0.000000
 66
  1
  0
VERTEX
  8
gg1
 10
-0.962500
 20
-0.340000
  0
VERTEX
  8
gg1
 10
-0.947500
 20
-0.340000
  0
SEQEND
  8
gg1
  0
POLYLINE
  8
gg1
 62
1
 40
0.000000
 41
0.000000
 66
  1
  0
VERTEX
  8
gg1
 10
-0.955000
 20
-0.347500
  0
VERTEX
  8
gg1
 10
-0.955000
 20
-0.332500
  0
SEQEND
  8
gg1
  0
POLYLINE
  8
gg1
 62
1
 40
0.000000
 41
0.000000
 66
  1
  0
VERTEX
  8
gg1
 10
-0.942500
 20
-0.375000
  0
VERTEX
  8
gg1
 10
-0.927500
 20
-0.375000
  0
SEQEND
  8
gg1
  0
POLYLINE
  8
gg1
 62
1
 40
0.000000
 41
0.000000
 66
  1
  0
VERTEX
  8
gg1
 10
-0.935000
 20
-0.382500
  0
VERTEX
  8
gg1
 10
-0.935000
 20
-0.367500
  0
SEQEND
  8
gg1
  0
POLYLINE
  8
gg1
 62
1
 40
0.000000
 41
0.000000
 66
  1
  0
VERTEX
  8
gg1
 10
-0.962500
 20
-0.410000
  0
VERTEX
  8
gg1
 10
-0.947500
 20
-0.410000
  0
SEQEND
  8
gg1
  0
POLYLINE
  8
gg1
 62
1
 40
0.000000
 41
0.000000
 66
  1
  0
VERTEX
  8
gg1
 10
-0.955000
 20
-0.417500
  0
VERTEX
  8
gg1
 10
-0.955000
 20
-0.402500
  0
SEQEND
  8
gg1
  0
ENDSEC
  0
EOF
