  0
SECTION
  2
HEADER
  9
$EXTMIN
 10
0.693000
 20
0.251000
  9
$EXTMAX
 10
1.600000
 20
1.070000
  9
$LIMMIN
 10
0.693000
 20
0.251000
  9
$LIMMAX
 10
1.600000
 20
1.070000
  9
$FILLMODE
 70
  1
  0
ENDSEC
  0
SECTION
  2
TABLES
  0
TABLE
  2
LTYPE
 70
  1
  0
LTYPE
  2
CONTINUOUS
 70
 64
  3
Solid line
 72
 65
 73
  0
 40
0.0
  0
ENDTAB
  0
TABLE
  2
LAYER
 70
 1
  0
LAYER
  2
0
 70
  0
 62
7
  6
CONTINUOUS
  0
LAYER
  2
gg1
 70
  0
 62
1
  6
CONTINUOUS
  0
ENDTAB
  0
TABLE
  2
STYLE
 70
  1
  0
STYLE
  2
STANDARD
 70
  0
 40
0.0
 41
1.0
 50
0.0
 71
  0
 42
0.2
  3
txt
  4

  0
ENDTAB
  0
ENDSEC
  0
SECTION
  2
BLOCKS
  0
BLOCK
  8
0
  2
D10
 70
64
 10
0.0
 20
0.0
  3
D10
  0
CIRCLE
  8
0
 10
0.000000
 20
0.000000
 40
0.004000
 0
ENDBLK
  8
0
  0
BLOCK
  8
0
  2
D11
 70
64
 10
0.0
 20
0.0
  3
D11
  0
CIRCLE
  8
0
 10
0.000000
 20
0.000000
 40
0.005000
 0
ENDBLK
  8
0
  0
BLOCK
  8
0
  2
D12
 70
64
 10
0.0
 20
0.0
  3
D12
  0
CIRCLE
  8
0
 10
0.000000
 20
0.000000
 40
0.003000
 0
ENDBLK
  8
0
  0
BLOCK
  8
0
  2
D13
 70
64
 10
0.0
 20
0.0
  3
D13
  0
CIRCLE
  8
0
 10
0.000000
 20
0.000000
 40
0.001000
 0
ENDBLK
  8
0
  0
ENDSEC
  0
SECTION
  2
ENTITIES
  0
POLYLINE
  8
gg1
 62
1
 40
0.000000
 41
0.000000
 66
  1
  0
VERTEX
  8
gg1
 10
0.795000
 20
0.365000
  0
VERTEX
  8
gg1
 10
0.795000
 20
1.065000
  0
VERTEX
  8
gg1
 10
1.595000
 20
1.065000
  0
SEQEND
  8
gg1
  0
POLYLINE
  8
gg1
 62
1
 40
0.000000
 41
0.000000
 66
  1
  0
VERTEX
  8
gg1
 10
1.595000
 20
0.365000
  0
VERTEX
  8
gg1
 10
1.595000
 20
1.065000
  0
SEQEND
  8
gg1
  0
POLYLINE
  8
gg1
 62
1
 40
0.000000
 41
0.000000
 66
  1
  0
VERTEX
  8
gg1
 10
0.795000
 20
0.365000
  0
VERTEX
  8
gg1
 10
1.595000
 20
0.365000
  0
SEQEND
  8
gg1
  0
POLYLINE
  8
gg1
 62
1
 40
0.000000
 41
0.000000
 66
  1
  0
VERTEX
  8
gg1
 10
0.700000
 20
0.425000
  0
VERTEX
  8
gg1
 10
0.720000
 20
0.365000
  0
VERTEX
  8
gg1
 10
0.740000
 20
0.425000
  0
SEQEND
  8
gg1
  0
POLYLINE
  8
gg1
 62
1
 40
0.000000
 41
0.000000
 66
  1
  0
VERTEX
  8
gg1
 10
0.720000
 20
1.065000
  0
VERTEX
  8
gg1
 10
0.740000
 20
1.005000
  0
SEQEND
  8
gg1
  0
POLYLINE
  8
gg1
 62
1
 40
0.000000
 41
0.000000
 66
  1
  0
VERTEX
  8
gg1
 10
0.700000
 20
1.005000
  0
VERTEX
  8
gg1
 10
0.720000
 20
1.065000
  0
SEQEND
  8
gg1
  0
POLYLINE
  8
gg1
 62
1
 40
0.000000
 41
0.000000
 66
  1
  0
VERTEX
  8
gg1
 10
0.720000
 20
0.365000
  0
VERTEX
  8
gg1
 10
0.720000
 20
0.528100
  0
SEQEND
  8
gg1
  0
POLYLINE
  8
gg1
 62
1
 40
0.000000
 41
0.000000
 66
  1
  0
VERTEX
  8
gg1
 10
0.720000
 20
0.869900
  0
VERTEX
  8
gg1
 10
0.720000
 20
1.065000
  0
SEQEND
  8
gg1
  0
POLYLINE
  8
gg1
 62
1
 40
0.000000
 41
0.000000
 66
  1
  0
VERTEX
  8
gg1
 10
0.710000
 20
0.365000
  0
VERTEX
  8
gg1
 10
0.781000
 20
0.365000
  0
SEQEND
  8
gg1
  0
POLYLINE
  8
gg1
 62
1
 40
0.000000
 41
0.000000
 66
  1
  0
VERTEX
  8
gg1
 10
0.710000
 20
1.065000
  0
VERTEX
  8
gg1
 10
0.781000
 20
1.065000
  0
SEQEND
  8
gg1
  0
POLYLINE
  8
gg1
 62
1
 40
0.000000
 41
0.000000
 66
  1
  0
VERTEX
  8
gg1
 10
0.795000
 20
0.290000
  0
VERTEX
  8
gg1
 10
0.855000
 20
0.310000
  0
SEQEND
  8
gg1
  0
POLYLINE
  8
gg1
 62
1
 40
0.000000
 41
0.000000
 66
  1
  0
VERTEX
  8
gg1
 10
0.795000
 20
0.290000
  0
VERTEX
  8
gg1
 10
0.855000
 20
0.270000
  0
SEQEND
  8
gg1
  0
POLYLINE
  8
gg1
 62
1
 40
0.000000
 41
0.000000
 66
  1
  0
VERTEX
  8
gg1
 10
1.535000
 20
0.270000
  0
VERTEX
  8
gg1
 10
1.595000
 20
0.290000
  0
SEQEND
  8
gg1
  0
POLYLINE
  8
gg1
 62
1
 40
0.000000
 41
0.000000
 66
  1
  0
VERTEX
  8
gg1
 10
1.535000
 20
0.310000
  0
VERTEX
  8
gg1
 10
1.595000
 20
0.290000
  0
SEQEND
  8
gg1
  0
POLYLINE
  8
gg1
 62
1
 40
0.000000
 41
0.000000
 66
  1
  0
VERTEX
  8
gg1
 10
0.795000
 20
0.290000
  0
VERTEX
  8
gg1
 10
1.008000
 20
0.290000
  0
SEQEND
  8
gg1
  0
POLYLINE
  8
gg1
 62
1
 40
0.000000
 41
0.000000
 66
  1
  0
VERTEX
  8
gg1
 10
1.349900
 20
0.290000
  0
VERTEX
  8
gg1
 10
1.595000
 20
0.290000
  0
SEQEND
  8
gg1
  0
POLYLINE
  8
gg1
 62
1
 40
0.000000
 41
0.000000
 66
  1
  0
VERTEX
  8
gg1
 10
0.795000
 20
0.280000
  0
VERTEX
  8
gg1
 10
0.795000
 20
0.351000
  0
SEQEND
  8
gg1
  0
POLYLINE
  8
gg1
 62
1
 40
0.000000
 41
0.000000
 66
  1
  0
VERTEX
  8
gg1
 10
1.595000
 20
0.280000
  0
VERTEX
  8
gg1
 10
1.595000
 20
0.351000
  0
SEQEND
  8
gg1
  0
POLYLINE
  8
gg1
 62
1
 40
0.000000
 41
0.000000
 66
  1
  0
VERTEX
  8
gg1
 10
0.696000
 20
0.544000
  0
VERTEX
  8
gg1
 10
0.696000
 20
0.584000
  0
VERTEX
  8
gg1
 10
0.706000
 20
0.584000
  0
VERTEX
  8
gg1
 10
0.746000
 20
0.544000
  0
VERTEX
  8
gg1
 10
0.756000
 20
0.544000
  0
SEQEND
  8
gg1
  0
POLYLINE
  8
gg1
 62
1
 40
0.000000
 41
0.000000
 66
  1
  0
VERTEX
  8
gg1
 10
0.706000
 20
0.604000
  0
VERTEX
  8
gg1
 10
0.696000
 20
0.614000
  0
VERTEX
  8
gg1
 10
0.696000
 20
0.634000
  0
VERTEX
  8
gg1
 10
0.706000
 20
0.644000
  0
VERTEX
  8
gg1
 10
0.746000
 20
0.644000
  0
VERTEX
  8
gg1
 10
0.756000
 20
0.634000
  0
VERTEX
  8
gg1
 10
0.756000
 20
0.614000
  0
VERTEX
  8
gg1
 10
0.746000
 20
0.604000
  0
VERTEX
  8
gg1
 10
0.706000
 20
0.604000
  0
SEQEND
  8
gg1
  0
POLYLINE
  8
gg1
 62
1
 40
0.000000
 41
0.000000
 66
  1
  0
VERTEX
  8
gg1
 10
0.706000
 20
0.664000
  0
VERTEX
  8
gg1
 10
0.696000
 20
0.674000
  0
VERTEX
  8
gg1
 10
0.696000
 20
0.694000
  0
VERTEX
  8
gg1
 10
0.706000
 20
0.704000
  0
VERTEX
  8
gg1
 10
0.746000
 20
0.704000
  0
VERTEX
  8
gg1
 10
0.756000
 20
0.694000
  0
VERTEX
  8
gg1
 10
0.756000
 20
0.674000
  0
VERTEX
  8
gg1
 10
0.746000
 20
0.664000
  0
VERTEX
  8
gg1
 10
0.706000
 20
0.664000
  0
SEQEND
  8
gg1
  0
POLYLINE
  8
gg1
 62
1
 40
0.000000
 41
0.000000
 66
  1
  0
VERTEX
  8
gg1
 10
0.756000
 20
0.724000
  0
VERTEX
  8
gg1
 10
0.716000
 20
0.724000
  0
VERTEX
  8
gg1
 10
0.716000
 20
0.734000
  0
VERTEX
  8
gg1
 10
0.726000
 20
0.744000
  0
VERTEX
  8
gg1
 10
0.756000
 20
0.744000
  0
VERTEX
  8
gg1
 10
0.726000
 20
0.744000
  0
VERTEX
  8
gg1
 10
0.716000
 20
0.754000
  0
VERTEX
  8
gg1
 10
0.726000
 20
0.764000
  0
VERTEX
  8
gg1
 10
0.756000
 20
0.764000
  0
SEQEND
  8
gg1
  0
POLYLINE
  8
gg1
 62
1
 40
0.000000
 41
0.000000
 66
  1
  0
VERTEX
  8
gg1
 10
0.756000
 20
0.784000
  0
VERTEX
  8
gg1
 10
0.756000
 20
0.804000
  0
VERTEX
  8
gg1
 10
0.756000
 20
0.794000
  0
VERTEX
  8
gg1
 10
0.716000
 20
0.794000
  0
VERTEX
  8
gg1
 10
0.716000
 20
0.784000
  0
SEQEND
  8
gg1
  0
POLYLINE
  8
gg1
 62
1
 40
0.000000
 41
0.000000
 66
  1
  0
VERTEX
  8
gg1
 10
0.756000
 20
0.834000
  0
VERTEX
  8
gg1
 10
0.756000
 20
0.854000
  0
VERTEX
  8
gg1
 10
0.756000
 20
0.844000
  0
VERTEX
  8
gg1
 10
0.696000
 20
0.844000
  0
VERTEX
  8
gg1
 10
0.696000
 20
0.834000
  0
SEQEND
  8
gg1
  0
POLYLINE
  8
gg1
 62
1
 40
0.000000
 41
0.000000
 66
  1
  0
VERTEX
  8
gg1
 10
1.024000
 20
0.304000
  0
VERTEX
  8
gg1
 10
1.034000
 20
0.314000
  0
VERTEX
  8
gg1
 10
1.054000
 20
0.314000
  0
VERTEX
  8
gg1
 10
1.064000
 20
0.304000
  0
VERTEX
  8
gg1
 10
1.064000
 20
0.294000
  0
VERTEX
  8
gg1
 10
1.054000
 20
0.284000
  0
VERTEX
  8
gg1
 10
1.064000
 20
0.274000
  0
VERTEX
  8
gg1
 10
1.064000
 20
0.264000
  0
VERTEX
  8
gg1
 10
1.054000
 20
0.254000
  0
VERTEX
  8
gg1
 10
1.034000
 20
0.254000
  0
VERTEX
  8
gg1
 10
1.024000
 20
0.264000
  0
VERTEX
  8
gg1
 10
1.024000
 20
0.274000
  0
VERTEX
  8
gg1
 10
1.034000
 20
0.284000
  0
VERTEX
  8
gg1
 10
1.024000
 20
0.294000
  0
VERTEX
  8
gg1
 10
1.024000
 20
0.304000
  0
SEQEND
  8
gg1
  0
POLYLINE
  8
gg1
 62
1
 40
0.000000
 41
0.000000
 66
  1
  0
VERTEX
  8
gg1
 10
1.034000
 20
0.284000
  0
VERTEX
  8
gg1
 10
1.054000
 20
0.284000
  0
SEQEND
  8
gg1
  0
POLYLINE
  8
gg1
 62
1
 40
0.000000
 41
0.000000
 66
  1
  0
VERTEX
  8
gg1
 10
1.084000
 20
0.304000
  0
VERTEX
  8
gg1
 10
1.094000
 20
0.314000
  0
VERTEX
  8
gg1
 10
1.114000
 20
0.314000
  0
VERTEX
  8
gg1
 10
1.124000
 20
0.304000
  0
VERTEX
  8
gg1
 10
1.124000
 20
0.264000
  0
VERTEX
  8
gg1
 10
1.114000
 20
0.254000
  0
VERTEX
  8
gg1
 10
1.094000
 20
0.254000
  0
VERTEX
  8
gg1
 10
1.084000
 20
0.264000
  0
VERTEX
  8
gg1
 10
1.084000
 20
0.304000
  0
SEQEND
  8
gg1
  0
POLYLINE
  8
gg1
 62
1
 40
0.000000
 41
0.000000
 66
  1
  0
VERTEX
  8
gg1
 10
1.144000
 20
0.304000
  0
VERTEX
  8
gg1
 10
1.154000
 20
0.314000
  0
VERTEX
  8
gg1
 10
1.174000
 20
0.314000
  0
VERTEX
  8
gg1
 10
1.184000
 20
0.304000
  0
VERTEX
  8
gg1
 10
1.184000
 20
0.264000
  0
VERTEX
  8
gg1
 10
1.174000
 20
0.254000
  0
VERTEX
  8
gg1
 10
1.154000
 20
0.254000
  0
VERTEX
  8
gg1
 10
1.144000
 20
0.264000
  0
VERTEX
  8
gg1
 10
1.144000
 20
0.304000
  0
SEQEND
  8
gg1
  0
POLYLINE
  8
gg1
 62
1
 40
0.000000
 41
0.000000
 66
  1
  0
VERTEX
  8
gg1
 10
1.204000
 20
0.254000
  0
VERTEX
  8
gg1
 10
1.204000
 20
0.294000
  0
VERTEX
  8
gg1
 10
1.214000
 20
0.294000
  0
VERTEX
  8
gg1
 10
1.224000
 20
0.284000
  0
VERTEX
  8
gg1
 10
1.224000
 20
0.254000
  0
VERTEX
  8
gg1
 10
1.224000
 20
0.284000
  0
VERTEX
  8
gg1
 10
1.234000
 20
0.294000
  0
VERTEX
  8
gg1
 10
1.244000
 20
0.284000
  0
VERTEX
  8
gg1
 10
1.244000
 20
0.254000
  0
SEQEND
  8
gg1
  0
POLYLINE
  8
gg1
 62
1
 40
0.000000
 41
0.000000
 66
  1
  0
VERTEX
  8
gg1
 10
1.264000
 20
0.254000
  0
VERTEX
  8
gg1
 10
1.284000
 20
0.254000
  0
VERTEX
  8
gg1
 10
1.274000
 20
0.254000
  0
VERTEX
  8
gg1
 10
1.274000
 20
0.294000
  0
VERTEX
  8
gg1
 10
1.264000
 20
0.294000
  0
SEQEND
  8
gg1
  0
POLYLINE
  8
gg1
 62
1
 40
0.000000
 41
0.000000
 66
  1
  0
VERTEX
  8
gg1
 10
1.314000
 20
0.254000
  0
VERTEX
  8
gg1
 10
1.334000
 20
0.254000
  0
VERTEX
  8
gg1
 10
1.324000
 20
0.254000
  0
VERTEX
  8
gg1
 10
1.324000
 20
0.314000
  0
VERTEX
  8
gg1
 10
1.314000
 20
0.314000
  0
SEQEND
  8
gg1
  0
POLYLINE
  8
gg1
 62
1
 40
0.000000
 41
0.000000
 66
  1
  0
VERTEX
  8
gg1
 10
1.515000
 20
0.515000
  0
VERTEX
  8
gg1
 10
1.555000
 20
0.515000
  0
SEQEND
  8
gg1
  0
POLYLINE
  8
gg1
 62
1
 40
0.000000
 41
0.000000
 66
  1
  0
VERTEX
  8
gg1
 10
1.535000
 20
0.495000
  0
VERTEX
  8
gg1
 10
1.535000
 20
0.535000
  0
SEQEND
  8
gg1
  0
POLYLINE
  8
gg1
 62
1
 40
0.000000
 41
0.000000
 66
  1
  0
VERTEX
  8
gg1
 10
1.515000
 20
0.615000
  0
VERTEX
  8
gg1
 10
1.555000
 20
0.615000
  0
SEQEND
  8
gg1
  0
POLYLINE
  8
gg1
 62
1
 40
0.000000
 41
0.000000
 66
  1
  0
VERTEX
  8
gg1
 10
1.535000
 20
0.595000
  0
VERTEX
  8
gg1
 10
1.535000
 20
0.635000
  0
SEQEND
  8
gg1
  0
POLYLINE
  8
gg1
 62
1
 40
0.000000
 41
0.000000
 66
  1
  0
VERTEX
  8
gg1
 10
1.515000
 20
0.715000
  0
VERTEX
  8
gg1
 10
1.555000
 20
0.715000
  0
SEQEND
  8
gg1
  0
POLYLINE
  8
gg1
 62
1
 40
0.000000
 41
0.000000
 66
  1
  0
VERTEX
  8
gg1
 10
1.535000
 20
0.695000
  0
VERTEX
  8
gg1
 10
1.535000
 20
0.735000
  0
SEQEND
  8
gg1
  0
POLYLINE
  8
gg1
 62
1
 40
0.000000
 41
0.000000
 66
  1
  0
VERTEX
  8
gg1
 10
1.515000
 20
0.815000
  0
VERTEX
  8
gg1
 10
1.555000
 20
0.815000
  0
SEQEND
  8
gg1
  0
POLYLINE
  8
gg1
 62
1
 40
0.000000
 41
0.000000
 66
  1
  0
VERTEX
  8
gg1
 10
1.535000
 20
0.795000
  0
VERTEX
  8
gg1
 10
1.535000
 20
0.835000
  0
SEQEND
  8
gg1
  0
POLYLINE
  8
gg1
 62
1
 40
0.000000
 41
0.000000
 66
  1
  0
VERTEX
  8
gg1
 10
1.515000
 20
0.915000
  0
VERTEX
  8
gg1
 10
1.555000
 20
0.915000
  0
SEQEND
  8
gg1
  0
POLYLINE
  8
gg1
 62
1
 40
0.000000
 41
0.000000
 66
  1
  0
VERTEX
  8
gg1
 10
1.535000
 20
0.895000
  0
VERTEX
  8
gg1
 10
1.535000
 20
0.935000
  0
SEQEND
  8
gg1
  0
POLYLINE
  8
gg1
 62
1
 40
0.000000
 41
0.000000
 66
  1
  0
VERTEX
  8
gg1
 10
0.920000
 20
0.645000
  0
VERTEX
  8
gg1
 10
0.970000
 20
0.645000
  0
SEQEND
  8
gg1
  0
POLYLINE
  8
gg1
 62
1
 40
0.000000
 41
0.000000
 66
  1
  0
VERTEX
  8
gg1
 10
0.945000
 20
0.620000
  0
VERTEX
  8
gg1
 10
0.945000
 20
0.670000
  0
SEQEND
  8
gg1
  0
POLYLINE
  8
gg1
 62
1
 40
0.000000
 41
0.000000
 66
  1
  0
VERTEX
  8
gg1
 10
0.920000
 20
0.785000
  0
VERTEX
  8
gg1
 10
0.970000
 20
0.785000
  0
SEQEND
  8
gg1
  0
POLYLINE
  8
gg1
 62
1
 40
0.000000
 41
0.000000
 66
  1
  0
VERTEX
  8
gg1
 10
0.945000
 20
0.760000
  0
VERTEX
  8
gg1
 10
0.945000
 20
0.810000
  0
SEQEND
  8
gg1
  0
POLYLINE
  8
gg1
 62
1
 40
0.000000
 41
0.000000
 66
  1
  0
VERTEX
  8
gg1
 10
0.840000
 20
0.615000
  0
VERTEX
  8
gg1
 10
0.890000
 20
0.615000
  0
SEQEND
  8
gg1
  0
POLYLINE
  8
gg1
 62
1
 40
0.000000
 41
0.000000
 66
  1
  0
VERTEX
  8
gg1
 10
0.865000
 20
0.590000
  0
VERTEX
  8
gg1
 10
0.865000
 20
0.640000
  0
SEQEND
  8
gg1
  0
POLYLINE
  8
gg1
 62
1
 40
0.000000
 41
0.000000
 66
  1
  0
VERTEX
  8
gg1
 10
0.840000
 20
0.815000
  0
VERTEX
  8
gg1
 10
0.890000
 20
0.815000
  0
SEQEND
  8
gg1
  0
POLYLINE
  8
gg1
 62
1
 40
0.000000
 41
0.000000
 66
  1
  0
VERTEX
  8
gg1
 10
0.865000
 20
0.790000
  0
VERTEX
  8
gg1
 10
0.865000
 20
0.840000
  0
SEQEND
  8
gg1
  0
POLYLINE
  8
gg1
 62
1
 40
0.000000
 41
0.000000
 66
  1
  0
VERTEX
  8
gg1
 10
0.875000
 20
0.515000
  0
VERTEX
  8
gg1
 10
1.015000
 20
0.515000
  0
SEQEND
  8
gg1
  0
POLYLINE
  8
gg1
 62
1
 40
0.000000
 41
0.000000
 66
  1
  0
VERTEX
  8
gg1
 10
0.945000
 20
0.445000
  0
VERTEX
  8
gg1
 10
0.945000
 20
0.585000
  0
SEQEND
  8
gg1
  0
POLYLINE
  8
gg1
 62
1
 40
0.000000
 41
0.000000
 66
  1
  0
VERTEX
  8
gg1
 10
0.875000
 20
0.915000
  0
VERTEX
  8
gg1
 10
1.015000
 20
0.915000
  0
SEQEND
  8
gg1
  0
POLYLINE
  8
gg1
 62
1
 40
0.000000
 41
0.000000
 66
  1
  0
VERTEX
  8
gg1
 10
0.945000
 20
0.845000
  0
VERTEX
  8
gg1
 10
0.945000
 20
0.985000
  0
SEQEND
  8
gg1
  0
POLYLINE
  8
gg1
 62
1
 40
0.000000
 41
0.000000
 66
  1
  0
VERTEX
  8
gg1
 10
1.015000
 20
0.765000
  0
VERTEX
  8
gg1
 10
1.055000
 20
0.765000
  0
SEQEND
  8
gg1
  0
POLYLINE
  8
gg1
 62
1
 40
0.000000
 41
0.000000
 66
  1
  0
VERTEX
  8
gg1
 10
1.035000
 20
0.745000
  0
VERTEX
  8
gg1
 10
1.035000
 20
0.785000
  0
SEQEND
  8
gg1
  0
POLYLINE
  8
gg1
 62
1
 40
0.000000
 41
0.000000
 66
  1
  0
VERTEX
  8
gg1
 10
1.015000
 20
0.665000
  0
VERTEX
  8
gg1
 10
1.055000
 20
0.665000
  0
SEQEND
  8
gg1
  0
POLYLINE
  8
gg1
 62
1
 40
0.000000
 41
0.000000
 66
  1
  0
VERTEX
  8
gg1
 10
1.035000
 20
0.645000
  0
VERTEX
  8
gg1
 10
1.035000
 20
0.685000
  0
SEQEND
  8
gg1
  0
POLYLINE
  8
gg1
 62
1
 40
0.000000
 41
0.000000
 66
  1
  0
VERTEX
  8
gg1
 10
1.077000
 20
0.940000
  0
VERTEX
  8
gg1
 10
1.163000
 20
0.940000
  0
SEQEND
  8
gg1
  0
POLYLINE
  8
gg1
 62
1
 40
0.000000
 41
0.000000
 66
  1
  0
VERTEX
  8
gg1
 10
1.120000
 20
0.897000
  0
VERTEX
  8
gg1
 10
1.120000
 20
0.983000
  0
SEQEND
  8
gg1
  0
POLYLINE
  8
gg1
 62
1
 40
0.000000
 41
0.000000
 66
  1
  0
VERTEX
  8
gg1
 10
1.077000
 20
0.490000
  0
VERTEX
  8
gg1
 10
1.163000
 20
0.490000
  0
SEQEND
  8
gg1
  0
POLYLINE
  8
gg1
 62
1
 40
0.000000
 41
0.000000
 66
  1
  0
VERTEX
  8
gg1
 10
1.120000
 20
0.447000
  0
VERTEX
  8
gg1
 10
1.120000
 20
0.533000
  0
SEQEND
  8
gg1
  0
POLYLINE
  8
gg1
 62
1
 40
0.000000
 41
0.000000
 66
  1
  0
VERTEX
  8
gg1
 10
1.352000
 20
0.465000
  0
VERTEX
  8
gg1
 10
1.438000
 20
0.465000
  0
SEQEND
  8
gg1
  0
POLYLINE
  8
gg1
 62
1
 40
0.000000
 41
0.000000
 66
  1
  0
VERTEX
  8
gg1
 10
1.395000
 20
0.422000
  0
VERTEX
  8
gg1
 10
1.395000
 20
0.508000
  0
SEQEND
  8
gg1
  0
POLYLINE
  8
gg1
 62
1
 40
0.000000
 41
0.000000
 66
  1
  0
VERTEX
  8
gg1
 10
1.352000
 20
0.965000
  0
VERTEX
  8
gg1
 10
1.438000
 20
0.965000
  0
SEQEND
  8
gg1
  0
POLYLINE
  8
gg1
 62
1
 40
0.000000
 41
0.000000
 66
  1
  0
VERTEX
  8
gg1
 10
1.395000
 20
0.922000
  0
VERTEX
  8
gg1
 10
1.395000
 20
1.008000
  0
SEQEND
  8
gg1
  0
ENDSEC
  0
EOF
